  0
SECTION
  2
HEADER
  9
$ACADVER
  1
AC1015
  9
$ACADMAINTVER
 70
     6
  9
$DWGCODEPAGE
  3
ANSI_932
  9
$INSBASE
 10
0.0
 20
0.0
 30
0.0
  9
$EXTMIN
 10
0.0
 20
0.0
 30
0.0
  9
$EXTMAX
 10
840.0
 20
594.0
 30
0.0
  9
$LIMMIN
 10
0.0
 20
0.0
  9
$LIMMAX
 10
840.0
 20
594.0
  9
$ORTHOMODE
 70
     0
  9
$REGENMODE
 70
     1
  9
$FILLMODE
 70
     1
  9
$QTEXTMODE
 70
     0
  9
$MIRRTEXT
 70
     1
  9
$LTSCALE
 40
0.5
  9
$ATTMODE
 70
     1
  9
$TEXTSIZE
 40
10.0
  9
$TRACEWID
 40
0.05
  9
$TEXTSTYLE
  7
Standard
  9
$CLAYER
  8
0
  9
$CELTYPE
  6
ByLayer
  9
$CECOLOR
 62
   256
  9
$CELTSCALE
 40
1.0
  9
$DISPSILH
 70
     0
  9
$DIMSCALE
 40
2.0
  9
$DIMASZ
 40
2.0
  9
$DIMEXO
 40
2.0
  9
$DIMDLI
 40
10.0
  9
$DIMRND
 40
0.0
  9
$DIMDLE
 40
0.0
  9
$DIMEXE
 40
2.0
  9
$DIMTP
 40
0.0
  9
$DIMTM
 40
0.0
  9
$DIMTXT
 40
4.0
  9
$DIMCEN
 40
0.09
  9
$DIMTSZ
 40
0.0
  9
$DIMTOL
 70
     0
  9
$DIMLIM
 70
     0
  9
$DIMTIH
 70
     0
  9
$DIMTOH
 70
     0
  9
$DIMSE1
 70
     0
  9
$DIMSE2
 70
     0
  9
$DIMTAD
 70
     3
  9
$DIMZIN
 70
     8
  9
$DIMBLK
  1

  9
$DIMASO
 70
     1
  9
$DIMSHO
 70
     1
  9
$DIMPOST
  1

  9
$DIMAPOST
  1

  9
$DIMALT
 70
     0
  9
$DIMALTD
 70
     2
  9
$DIMALTF
 40
25.4
  9
$DIMLFAC
 40
1.0
  9
$DIMTOFL
 70
     1
  9
$DIMTVP
 40
0.7
  9
$DIMTIX
 70
     0
  9
$DIMSOXD
 70
     0
  9
$DIMSAH
 70
     0
  9
$DIMBLK1
  1

  9
$DIMBLK2
  1

  9
$DIMSTYLE
  2
Standard
  9
$DIMCLRD
 70
     0
  9
$DIMCLRE
 70
     0
  9
$DIMCLRT
 70
     0
  9
$DIMTFAC
 40
0.5
  9
$DIMGAP
 40
0.09
  9
$DIMJUST
 70
     0
  9
$DIMSD1
 70
     0
  9
$DIMSD2
 70
     0
  9
$DIMTOLJ
 70
     1
  9
$DIMTZIN
 70
     8
  9
$DIMALTZ
 70
     0
  9
$DIMALTTZ
 70
     0
  9
$DIMUPT
 70
     1
  9
$DIMDEC
 70
     2
  9
$DIMTDEC
 70
     4
  9
$DIMALTU
 70
     2
  9
$DIMALTTD
 70
     2
  9
$DIMTXSTY
  7
Standard
  9
$DIMAUNIT
 70
     0
  9
$DIMADEC
 70
     0
  9
$DIMALTRND
 40
0.0
  9
$DIMAZIN
 70
     0
  9
$DIMDSEP
 70
    46
  9
$DIMATFIT
 70
     2
  9
$DIMFRAC
 70
     0
  9
$DIMLDRBLK
  1

  9
$DIMLUNIT
 70
     2
  9
$DIMLWD
 70
    -2
  9
$DIMLWE
 70
    -2
  9
$DIMTMOVE
 70
     2
  9
$LUNITS
 70
     2
  9
$LUPREC
 70
     4
  9
$SKETCHINC
 40
0.1
  9
$FILLETRAD
 40
0.5
  9
$AUNITS
 70
     0
  9
$AUPREC
 70
     0
  9
$MENU
  1
.
  9
$ELEVATION
 40
0.0
  9
$PELEVATION
 40
0.0
  9
$THICKNESS
 40
0.0
  9
$LIMCHECK
 70
     0
  9
$CHAMFERA
 40
0.5
  9
$CHAMFERB
 40
0.5
  9
$CHAMFERC
 40
1.0
  9
$CHAMFERD
 40
0.0
  9
$SKPOLY
 70
     0
  9
$TDCREATE
 40
2456387.961111111
  9
$TDUCREATE
 40
2456387.586111111
  9
$TDUPDATE
 40
2456387.961111111
  9
$TDUUPDATE
 40
2456387.586111111
  9
$TDINDWG
 40
0.0000000116
  9
$TDUSRTIMER
 40
0.0000000116
  9
$USRTIMER
 70
     1
  9
$ANGBASE
 50
0.0
  9
$ANGDIR
 70
     0
  9
$PDMODE
 70
     0
  9
$PDSIZE
 40
0.0
  9
$PLINEWID
 40
0.0
  9
$SPLFRAME
 70
     0
  9
$SPLINETYPE
 70
     6
  9
$SPLINESEGS
 70
     8
  9
$HANDSEED
  5
720
  9
$SURFTAB1
 70
     6
  9
$SURFTAB2
 70
     6
  9
$SURFTYPE
 70
     6
  9
$SURFU
 70
     6
  9
$SURFV
 70
     6
  9
$UCSBASE
  2

  9
$UCSNAME
  2

  9
$UCSORG
 10
0.0
 20
0.0
 30
0.0
  9
$UCSXDIR
 10
1.0
 20
0.0
 30
0.0
  9
$UCSYDIR
 10
0.0
 20
1.0
 30
0.0
  9
$UCSORTHOREF
  2

  9
$UCSORTHOVIEW
 70
     0
  9
$UCSORGTOP
 10
0.0
 20
0.0
 30
0.0
  9
$UCSORGBOTTOM
 10
0.0
 20
0.0
 30
0.0
  9
$UCSORGLEFT
 10
0.0
 20
0.0
 30
0.0
  9
$UCSORGRIGHT
 10
0.0
 20
0.0
 30
0.0
  9
$UCSORGFRONT
 10
0.0
 20
0.0
 30
0.0
  9
$UCSORGBACK
 10
0.0
 20
0.0
 30
0.0
  9
$PUCSBASE
  2

  9
$PUCSNAME
  2

  9
$PUCSORG
 10
0.0
 20
0.0
 30
0.0
  9
$PUCSXDIR
 10
1.0
 20
0.0
 30
0.0
  9
$PUCSYDIR
 10
0.0
 20
1.0
 30
0.0
  9
$PUCSORTHOREF
  2

  9
$PUCSORTHOVIEW
 70
     0
  9
$PUCSORGTOP
 10
0.0
 20
0.0
 30
0.0
  9
$PUCSORGBOTTOM
 10
0.0
 20
0.0
 30
0.0
  9
$PUCSORGLEFT
 10
0.0
 20
0.0
 30
0.0
  9
$PUCSORGRIGHT
 10
0.0
 20
0.0
 30
0.0
  9
$PUCSORGFRONT
 10
0.0
 20
0.0
 30
0.0
  9
$PUCSORGBACK
 10
0.0
 20
0.0
 30
0.0
  9
$USERI1
 70
     0
  9
$USERI2
 70
     0
  9
$USERI3
 70
     0
  9
$USERI4
 70
     0
  9
$USERI5
 70
     0
  9
$USERR1
 40
0.0
  9
$USERR2
 40
0.0
  9
$USERR3
 40
0.0
  9
$USERR4
 40
0.0
  9
$USERR5
 40
0.0
  9
$WORLDVIEW
 70
     1
  9
$SHADEDGE
 70
     3
  9
$SHADEDIF
 70
    70
  9
$TILEMODE
 70
     1
  9
$MAXACTVP
 70
    64
  9
$PINSBASE
 10
0.0
 20
0.0
 30
0.0
  9
$PLIMCHECK
 70
     0
  9
$PEXTMIN
 10
0.0
 20
0.0
 30
0.0
  9
$PEXTMAX
 10
420.0
 20
297.0
 30
0.0
  9
$PLIMMIN
 10
0.0
 20
0.0
  9
$PLIMMAX
 10
420.0
 20
297.0
  9
$UNITMODE
 70
     0
  9
$VISRETAIN
 70
     1
  9
$PLINEGEN
 70
     0
  9
$PSLTSCALE
 70
     1
  9
$TREEDEPTH
 70
  3020
  9
$CMLSTYLE
  2
Standard
  9
$CMLJUST
 70
     0
  9
$CMLSCALE
 40
1.0
  9
$PROXYGRAPHICS
 70
     1
  9
$MEASUREMENT
 70
     1
  9
$CELWEIGHT
370
    -1
  9
$ENDCAPS
280
     0
  9
$JOINSTYLE
280
     0
  9
$LWDISPLAY
290
     0
  9
$INSUNITS
 70
     4
  9
$HYPERLINKBASE
  1

  9
$STYLESHEET
  1

  9
$XEDIT
290
     1
  9
$CEPSNTYPE
380
     0
  9
$PSTYLEMODE
290
     1
  9
$FINGERPRINTGUID
  2
{345B1F7E-88D9-413B-AD8D-697D6EF8668E}
  9
$VERSIONGUID
  2
{FAEB1C32-E019-11D5-929B-00C0DF256EC4}
  9
$EXTNAMES
290
     1
  9
$PSVPSCALE
 40
0.0
  9
$OLESTARTUP
290
     0
  0
ENDSEC
  0
SECTION
  2
CLASSES
  0
CLASS
  1
ACDBDICTIONARYWDFLT
  2
AcDbDictionaryWithDefault
  3
ObjectDBX Classes
 90
        0
280
     0
281
     0
  0
CLASS
  1
DICTIONARYVAR
  2
AcDbDictionaryVar
  3
ObjectDBX Classes
 90
        0
280
     0
281
     0
  0
CLASS
  1
ACDBPLACEHOLDER
  2
AcDbPlaceHolder
  3
ObjectDBX Classes
 90
        0
280
     0
281
     0
  0
CLASS
  1
LAYOUT
  2
AcDbLayout
  3
ObjectDBX Classes
 90
        0
280
     0
281
     0
  0
ENDSEC
  0
SECTION
  2
TABLES
  0
TABLE
  2
VPORT
  5
8
330
0
100
AcDbSymbolTable
 70
     1
  0
VPORT
  5
29
330
8
100
AcDbSymbolTableRecord
100
AcDbViewportTableRecord
  2
*Active
 70
     0
 10
0.0
 20
0.0
 11
1.0
 21
1.0
 12
10.42990654205607
 22
4.5
 13
0.0
 23
0.0
 14
0.5
 24
0.5
 15
0.5
 25
0.5
 16
0.0
 26
0.0
 36
1.0
 17
0.0
 27
0.0
 37
0.0
 40
9.0
 41
1.972972972850329
 42
50.0
 43
0.0
 44
0.0
 50
0.0
 51
0.0
 71
     0
 72
   100
 73
     1
 74
     3
 75
     0
 76
     0
 77
     0
 78
     0
281
     0
 65
     1
110
0.0
120
0.0
130
0.0
111
1.0
121
0.0
131
0.0
112
0.0
122
1.0
132
0.0
 79
     0
146
0.0
  0
ENDTAB
  0
TABLE
  2
LTYPE
  5
5
330
0
100
AcDbSymbolTable
 70
     9
  0
LTYPE
  5
14
330
5
100
AcDbSymbolTableRecord
100
AcDbLinetypeTableRecord
  2
ByBlock
 70
     0
  3

 72
    65
 73
     0
 40
0.0
  0
LTYPE
  5
15
330
5
100
AcDbSymbolTableRecord
100
AcDbLinetypeTableRecord
  2
ByLayer
 70
     0
  3

 72
    65
 73
     0
 40
0.0
  0
LTYPE
  5
16
330
5
100
AcDbSymbolTableRecord
100
AcDbLinetypeTableRecord
  2
Continuous
 70
     0
  3
Solid line
 72
    65
 73
     0
 40
0.0
  0
LTYPE
  5
68
330
5
100
AcDbSymbolTableRecord
100
AcDbLinetypeTableRecord
  2
DOT
 70
     0
  3
DOT
 72
    65
 73
     2
 40
4.0
 49
6.0
 74
     0
 49
-2.0
 74
     0
  0
LTYPE
  5
69
330
5
100
AcDbSymbolTableRecord
100
AcDbLinetypeTableRecord
  2
HIDDEN
 70
     0
  3
HIDDEN
 72
    65
 73
     2
 40
4.2
 49
8.4
 74
     0
 49
-4.2
 74
     0
  0
LTYPE
  5
6A
330
5
100
AcDbSymbolTableRecord
100
AcDbLinetypeTableRecord
  2
DASHDOT
 70
     0
  3
DASHDOT
 72
    65
 73
     4
 40
14.5
 49
30.0
 74
     0
 49
-9.0
 74
     0
 49
2.5
 74
     0
 49
-9.0
 74
     0
  0
LTYPE
  5
6B
330
5
100
AcDbSymbolTableRecord
100
AcDbLinetypeTableRecord
  2
PHANTOM
 70
     0
  3
PHANTOM
 72
    65
 73
     6
 40
12.0
 49
30.0
 74
     0
 49
-9.0
 74
     0
 49
2.5
 74
     0
 49
-5.0
 74
     0
 49
2.5
 74
     0
 49
-9.0
 74
     0
  0
LTYPE
  5
6C
330
5
100
AcDbSymbolTableRecord
100
AcDbLinetypeTableRecord
  2
ACAD_ISO14W100
 70
     0
  3
ACAD_ISO14W100
 72
    65
 73
     8
 40
1.5
 49
12.0
 74
     0
 49
-3.0
 74
     0
 49
0.5
 74
     0
 49
-3.0
 74
     0
 49
0.5
 74
     0
 49
-3.0
 74
     0
 49
0.5
 74
     0
 49
-3.0
 74
     0
  0
LTYPE
  5
6D
330
5
100
AcDbSymbolTableRecord
100
AcDbLinetypeTableRecord
  2
ACAD_ISO06W100
 70
     0
  3
ACAD_ISO06W100
 72
    65
 73
     8
 40
13.5
 49
24.0
 74
     0
 49
-3.0
 74
     0
 49
0.5
 74
     0
 49
-3.0
 74
     0
 49
0.5
 74
     0
 49
-3.0
 74
     0
 49
0.5
 74
     0
 49
-3.0
 74
     0
  0
LTYPE
  5
6E
330
5
100
AcDbSymbolTableRecord
100
AcDbLinetypeTableRecord
  2
ACAD_ISO11W100
 70
     0
  3
ACAD_ISO11W100
 72
    65
 73
     6
 40
15.5
 49
12.0
 74
     0
 49
-3.0
 74
     0
 49
12.0
 74
     0
 49
-3.0
 74
     0
 49
0.5
 74
     0
 49
-3.0
 74
     0
  0
LTYPE
  5
6F
330
5
100
AcDbSymbolTableRecord
100
AcDbLinetypeTableRecord
  2
ACAD_ISO13W100
 70
     0
  3
ACAD_ISO13W100
 72
    65
 73
     8
 40
13.0
 49
12.0
 74
     0
 49
-3.0
 74
     0
 49
12.0
 74
     0
 49
-3.0
 74
     0
 49
0.5
 74
     0
 49
-3.0
 74
     0
 49
0.5
 74
     0
 49
-3.0
 74
     0
  0
ENDTAB
  0
TABLE
  2
LAYER
  5
2
330
0
100
AcDbSymbolTable
 70
    28
  0
LAYER
  5
10
330
2
100
AcDbSymbolTableRecord
100
AcDbLayerTableRecord
  2
0
 70
     0
 62
     7
  6
Continuous
370
    -3
390
F
  0
LAYER
  5
70
330
2
100
AcDbSymbolTableRecord
100
AcDbLayerTableRecord
  2
1
 70
     0
 62
     7
  6
Continuous
370
    -3
390
F
  0
LAYER
  5
71
330
2
100
AcDbSymbolTableRecord
100
AcDbLayerTableRecord
  2
2
 70
     0
 62
   132
  6
Continuous
370
    -3
390
F
  0
LAYER
  5
72
330
2
100
AcDbSymbolTableRecord
100
AcDbLayerTableRecord
  2
3
 70
     0
 62
   212
  6
Continuous
370
    -3
390
F
  0
LAYER
  5
73
330
2
100
AcDbSymbolTableRecord
100
AcDbLayerTableRecord
  2
4
 70
     0
 62
     3
  6
Continuous
370
    -3
390
F
  0
LAYER
  5
74
330
2
100
AcDbSymbolTableRecord
100
AcDbLayerTableRecord
  2
5
 70
     0
 62
     3
  6
Continuous
370
    -3
390
F
  0
LAYER
  5
75
330
2
100
AcDbSymbolTableRecord
100
AcDbLayerTableRecord
  2
6
 70
     0
 62
     2
  6
Continuous
370
    -3
390
F
  0
LAYER
  5
76
330
2
100
AcDbSymbolTableRecord
100
AcDbLayerTableRecord
  2
7
 70
     0
 62
     4
  6
Continuous
370
    -3
390
F
  0
LAYER
  5
77
330
2
100
AcDbSymbolTableRecord
100
AcDbLayerTableRecord
  2
8
 70
     0
 62
     6
  6
Continuous
370
    -3
390
F
  0
LAYER
  5
78
330
2
100
AcDbSymbolTableRecord
100
AcDbLayerTableRecord
  2
9
 70
     0
 62
     2
  6
Continuous
370
    -3
390
F
  0
LAYER
  5
79
330
2
100
AcDbSymbolTableRecord
100
AcDbLayerTableRecord
  2
10
 70
     0
 62
     3
  6
Continuous
370
    -3
390
F
  0
LAYER
  5
7A
330
2
100
AcDbSymbolTableRecord
100
AcDbLayerTableRecord
  2
11
 70
     0
 62
     3
  6
Continuous
370
    -3
390
F
  0
LAYER
  5
7B
330
2
100
AcDbSymbolTableRecord
100
AcDbLayerTableRecord
  2
12
 70
     0
 62
     7
  6
Continuous
370
    -3
390
F
  0
LAYER
  5
7C
330
2
100
AcDbSymbolTableRecord
100
AcDbLayerTableRecord
  2
13
 70
     0
 62
   214
  6
Continuous
370
    -3
390
F
  0
LAYER
  5
7D
330
2
100
AcDbSymbolTableRecord
100
AcDbLayerTableRecord
  2
14
 70
     0
 62
    54
  6
Continuous
370
    -3
390
F
  0
LAYER
  5
7E
330
2
100
AcDbSymbolTableRecord
100
AcDbLayerTableRecord
  2
15
 70
     0
 62
    94
  6
Continuous
370
    -3
390
F
  0
LAYER
  5
7F
330
2
100
AcDbSymbolTableRecord
100
AcDbLayerTableRecord
  2
16
 70
     0
 62
    14
  6
Continuous
370
    -3
390
F
  0
LAYER
  5
80
330
2
100
AcDbSymbolTableRecord
100
AcDbLayerTableRecord
  2
17
 70
     0
 62
   132
  6
Continuous
370
    -3
390
F
  0
LAYER
  5
81
330
2
100
AcDbSymbolTableRecord
100
AcDbLayerTableRecord
  2
18
 70
     0
 62
   212
  6
Continuous
370
    -3
390
F
  0
LAYER
  5
82
330
2
100
AcDbSymbolTableRecord
100
AcDbLayerTableRecord
  2
19
 70
     0
 62
    52
  6
Continuous
370
    -3
390
F
  0
LAYER
  5
83
330
2
100
AcDbSymbolTableRecord
100
AcDbLayerTableRecord
  2
20
 70
     0
 62
   250
  6
Continuous
370
    -3
390
F
  0
LAYER
  5
84
330
2
100
AcDbSymbolTableRecord
100
AcDbLayerTableRecord
  2
21
 70
     0
 62
     7
  6
Continuous
370
    -3
390
F
  0
LAYER
  5
85
330
2
100
AcDbSymbolTableRecord
100
AcDbLayerTableRecord
  2
22
 70
     0
 62
     7
  6
Continuous
370
    -3
390
F
  0
LAYER
  5
86
330
2
100
AcDbSymbolTableRecord
100
AcDbLayerTableRecord
  2
23
 70
     0
 62
     7
  6
Continuous
370
    -3
390
F
  0
LAYER
  5
87
330
2
100
AcDbSymbolTableRecord
100
AcDbLayerTableRecord
  2
24
 70
     0
 62
     7
  6
Continuous
370
    -3
390
F
  0
LAYER
  5
88
330
2
100
AcDbSymbolTableRecord
100
AcDbLayerTableRecord
  2
25
 70
     0
 62
     7
  6
Continuous
370
    -3
390
F
  0
LAYER
  5
89
330
2
100
AcDbSymbolTableRecord
100
AcDbLayerTableRecord
  2
26
 70
     0
 62
     7
  6
Continuous
370
    -3
390
F
  0
LAYER
  5
8A
330
2
100
AcDbSymbolTableRecord
100
AcDbLayerTableRecord
  2
27
 70
     0
 62
     4
  6
Continuous
370
    -3
390
F
  0
ENDTAB
  0
TABLE
  2
STYLE
  5
3
330
0
100
AcDbSymbolTable
 70
     2
  0
STYLE
  5
11
330
3
100
AcDbSymbolTableRecord
100
AcDbTextStyleTableRecord
  2
Standard
 70
     0
 40
0.0
 41
1.0
 50
0.0
 71
     0
 42
0.2
  3
txt
  4
bigfont
  0
STYLE
  5
2C
330
3
100
AcDbSymbolTableRecord
100
AcDbTextStyleTableRecord
  2
T_STANDARD
 70
     4
 40
10.0
 41
1.0
 50
0.0
 71
     0
 42
10.0
  3
txt
  4
bigfont
  0
ENDTAB
  0
TABLE
  2
VIEW
  5
6
330
0
100
AcDbSymbolTable
 70
     0
  0
ENDTAB
  0
TABLE
  2
UCS
  5
7
330
0
100
AcDbSymbolTable
 70
     0
  0
ENDTAB
  0
TABLE
  2
APPID
  5
9
330
0
100
AcDbSymbolTable
 70
     2
  0
APPID
  5
12
330
9
100
AcDbSymbolTableRecord
100
AcDbRegAppTableRecord
  2
ACAD
 70
     0
  0
APPID
  5
2B
330
9
100
AcDbSymbolTableRecord
100
AcDbRegAppTableRecord
  2
ODA
 70
     0
  0
ENDTAB
  0
TABLE
  2
DIMSTYLE
  5
A
330
0
100
AcDbSymbolTable
 70
     1
100
AcDbDimStyleTable
  0
DIMSTYLE
105
27
330
A
100
AcDbSymbolTableRecord
100
AcDbDimStyleTableRecord
  2
Standard
 70
     0
340
11
  0
ENDTAB
  0
TABLE
  2
BLOCK_RECORD
  5
1
330
0
100
AcDbSymbolTable
 70
    62
  0
BLOCK_RECORD
  5
1F
330
1
100
AcDbSymbolTableRecord
100
AcDbBlockTableRecord
  2
*Model_Space
340
22
  0
BLOCK_RECORD
  5
1B
330
1
100
AcDbSymbolTableRecord
100
AcDbBlockTableRecord
  2
*Paper_Space
340
1E
  0
BLOCK_RECORD
  5
23
330
1
100
AcDbSymbolTableRecord
100
AcDbBlockTableRecord
  2
*Paper_Space0
340
26
  0
BLOCK_RECORD
  5
2D
330
1
100
AcDbSymbolTableRecord
100
AcDbBlockTableRecord
  2
_ORIGIN
340
0
  0
BLOCK_RECORD
  5
32
330
1
100
AcDbSymbolTableRecord
100
AcDbBlockTableRecord
  2
_DOTBLANK
340
0
  0
BLOCK_RECORD
  5
37
330
1
100
AcDbSymbolTableRecord
100
AcDbBlockTableRecord
  2
_DOT
340
0
  0
BLOCK_RECORD
  5
3C
330
1
100
AcDbSymbolTableRecord
100
AcDbBlockTableRecord
  2
_OPEN
340
0
  0
BLOCK_RECORD
  5
42
330
1
100
AcDbSymbolTableRecord
100
AcDbBlockTableRecord
  2
_CLOSED
340
0
  0
BLOCK_RECORD
  5
49
330
1
100
AcDbSymbolTableRecord
100
AcDbBlockTableRecord
  2
_CLOSEDBLANK
340
0
  0
BLOCK_RECORD
  5
4F
330
1
100
AcDbSymbolTableRecord
100
AcDbBlockTableRecord
  2
_BOXBLANK
340
0
  0
BLOCK_RECORD
  5
57
330
1
100
AcDbSymbolTableRecord
100
AcDbBlockTableRecord
  2
_BOXFILLED
340
0
  0
BLOCK_RECORD
  5
5C
330
1
100
AcDbSymbolTableRecord
100
AcDbBlockTableRecord
  2
_INTEGRAL
340
0
  0
BLOCK_RECORD
  5
61
330
1
100
AcDbSymbolTableRecord
100
AcDbBlockTableRecord
  2
_OBLIQUE
340
0
  0
BLOCK_RECORD
  5
65
330
1
100
AcDbSymbolTableRecord
100
AcDbBlockTableRecord
  2
_NONE
340
0
  0
BLOCK_RECORD
  5
47D
330
1
100
AcDbSymbolTableRecord
100
AcDbBlockTableRecord
  2
*G12
340
0
102
{BLKREFS
331
483
102
}
  0
BLOCK_RECORD
  5
485
330
1
100
AcDbSymbolTableRecord
100
AcDbBlockTableRecord
  2
*G13
340
0
102
{BLKREFS
331
48B
102
}
  0
BLOCK_RECORD
  5
48C
330
1
100
AcDbSymbolTableRecord
100
AcDbBlockTableRecord
  2
*G14
340
0
102
{BLKREFS
331
492
102
}
  0
BLOCK_RECORD
  5
494
330
1
100
AcDbSymbolTableRecord
100
AcDbBlockTableRecord
  2
*G15
340
0
102
{BLKREFS
331
49A
102
}
  0
BLOCK_RECORD
  5
49B
330
1
100
AcDbSymbolTableRecord
100
AcDbBlockTableRecord
  2
*G16
340
0
102
{BLKREFS
331
4A1
102
}
  0
BLOCK_RECORD
  5
4A3
330
1
100
AcDbSymbolTableRecord
100
AcDbBlockTableRecord
  2
*G17
340
0
102
{BLKREFS
331
4A9
102
}
  0
BLOCK_RECORD
  5
4AA
330
1
100
AcDbSymbolTableRecord
100
AcDbBlockTableRecord
  2
*G18
340
0
102
{BLKREFS
331
4B0
102
}
  0
BLOCK_RECORD
  5
4B2
330
1
100
AcDbSymbolTableRecord
100
AcDbBlockTableRecord
  2
*G19
340
0
102
{BLKREFS
331
4B8
102
}
  0
BLOCK_RECORD
  5
4B9
330
1
100
AcDbSymbolTableRecord
100
AcDbBlockTableRecord
  2
*G20
340
0
102
{BLKREFS
331
4BF
102
}
  0
BLOCK_RECORD
  5
4C1
330
1
100
AcDbSymbolTableRecord
100
AcDbBlockTableRecord
  2
*G21
340
0
102
{BLKREFS
331
4C7
102
}
  0
BLOCK_RECORD
  5
4C8
330
1
100
AcDbSymbolTableRecord
100
AcDbBlockTableRecord
  2
*G22
340
0
102
{BLKREFS
331
4CE
102
}
  0
BLOCK_RECORD
  5
4D0
330
1
100
AcDbSymbolTableRecord
100
AcDbBlockTableRecord
  2
*G23
340
0
102
{BLKREFS
331
4D6
102
}
  0
BLOCK_RECORD
  5
4D7
330
1
100
AcDbSymbolTableRecord
100
AcDbBlockTableRecord
  2
*G24
340
0
102
{BLKREFS
331
4DD
102
}
  0
BLOCK_RECORD
  5
4DF
330
1
100
AcDbSymbolTableRecord
100
AcDbBlockTableRecord
  2
*G25
340
0
102
{BLKREFS
331
4E5
102
}
  0
BLOCK_RECORD
  5
4E6
330
1
100
AcDbSymbolTableRecord
100
AcDbBlockTableRecord
  2
*G26
340
0
102
{BLKREFS
331
4EC
102
}
  0
BLOCK_RECORD
  5
4EE
330
1
100
AcDbSymbolTableRecord
100
AcDbBlockTableRecord
  2
*G27
340
0
102
{BLKREFS
331
4F4
102
}
  0
BLOCK_RECORD
  5
4F5
330
1
100
AcDbSymbolTableRecord
100
AcDbBlockTableRecord
  2
*G28
340
0
102
{BLKREFS
331
4FB
102
}
  0
BLOCK_RECORD
  5
4FD
330
1
100
AcDbSymbolTableRecord
100
AcDbBlockTableRecord
  2
*G29
340
0
102
{BLKREFS
331
503
102
}
  0
BLOCK_RECORD
  5
504
330
1
100
AcDbSymbolTableRecord
100
AcDbBlockTableRecord
  2
*G30
340
0
102
{BLKREFS
331
50A
102
}
  0
BLOCK_RECORD
  5
50C
330
1
100
AcDbSymbolTableRecord
100
AcDbBlockTableRecord
  2
*G31
340
0
102
{BLKREFS
331
512
102
}
  0
BLOCK_RECORD
  5
513
330
1
100
AcDbSymbolTableRecord
100
AcDbBlockTableRecord
  2
*G32
340
0
102
{BLKREFS
331
519
102
}
  0
BLOCK_RECORD
  5
51B
330
1
100
AcDbSymbolTableRecord
100
AcDbBlockTableRecord
  2
*G33
340
0
102
{BLKREFS
331
521
102
}
  0
BLOCK_RECORD
  5
522
330
1
100
AcDbSymbolTableRecord
100
AcDbBlockTableRecord
  2
*G34
340
0
102
{BLKREFS
331
528
102
}
  0
BLOCK_RECORD
  5
52A
330
1
100
AcDbSymbolTableRecord
100
AcDbBlockTableRecord
  2
*G35
340
0
102
{BLKREFS
331
530
102
}
  0
BLOCK_RECORD
  5
531
330
1
100
AcDbSymbolTableRecord
100
AcDbBlockTableRecord
  2
*G36
340
0
102
{BLKREFS
331
537
102
}
  0
BLOCK_RECORD
  5
539
330
1
100
AcDbSymbolTableRecord
100
AcDbBlockTableRecord
  2
*G37
340
0
102
{BLKREFS
331
53F
102
}
  0
BLOCK_RECORD
  5
540
330
1
100
AcDbSymbolTableRecord
100
AcDbBlockTableRecord
  2
*G38
340
0
102
{BLKREFS
331
546
102
}
  0
BLOCK_RECORD
  5
548
330
1
100
AcDbSymbolTableRecord
100
AcDbBlockTableRecord
  2
*G39
340
0
102
{BLKREFS
331
54E
102
}
  0
BLOCK_RECORD
  5
54F
330
1
100
AcDbSymbolTableRecord
100
AcDbBlockTableRecord
  2
*G40
340
0
102
{BLKREFS
331
555
102
}
  0
BLOCK_RECORD
  5
557
330
1
100
AcDbSymbolTableRecord
100
AcDbBlockTableRecord
  2
*G41
340
0
102
{BLKREFS
331
55D
102
}
  0
BLOCK_RECORD
  5
55E
330
1
100
AcDbSymbolTableRecord
100
AcDbBlockTableRecord
  2
*G42
340
0
102
{BLKREFS
331
564
102
}
  0
BLOCK_RECORD
  5
566
330
1
100
AcDbSymbolTableRecord
100
AcDbBlockTableRecord
  2
*G43
340
0
102
{BLKREFS
331
56C
102
}
  0
BLOCK_RECORD
  5
56D
330
1
100
AcDbSymbolTableRecord
100
AcDbBlockTableRecord
  2
*G44
340
0
102
{BLKREFS
331
573
102
}
  0
BLOCK_RECORD
  5
575
330
1
100
AcDbSymbolTableRecord
100
AcDbBlockTableRecord
  2
*G45
340
0
102
{BLKREFS
331
57B
102
}
  0
BLOCK_RECORD
  5
57C
330
1
100
AcDbSymbolTableRecord
100
AcDbBlockTableRecord
  2
*G46
340
0
102
{BLKREFS
331
582
102
}
  0
BLOCK_RECORD
  5
584
330
1
100
AcDbSymbolTableRecord
100
AcDbBlockTableRecord
  2
*G47
340
0
102
{BLKREFS
331
58A
102
}
  0
BLOCK_RECORD
  5
58B
330
1
100
AcDbSymbolTableRecord
100
AcDbBlockTableRecord
  2
*G48
340
0
102
{BLKREFS
331
591
102
}
  0
BLOCK_RECORD
  5
593
330
1
100
AcDbSymbolTableRecord
100
AcDbBlockTableRecord
  2
*G49
340
0
102
{BLKREFS
331
599
102
}
  0
BLOCK_RECORD
  5
59A
330
1
100
AcDbSymbolTableRecord
100
AcDbBlockTableRecord
  2
*G50
340
0
102
{BLKREFS
331
5A0
102
}
  0
BLOCK_RECORD
  5
5A2
330
1
100
AcDbSymbolTableRecord
100
AcDbBlockTableRecord
  2
*G51
340
0
102
{BLKREFS
331
5A8
102
}
  0
BLOCK_RECORD
  5
5A9
330
1
100
AcDbSymbolTableRecord
100
AcDbBlockTableRecord
  2
*G52
340
0
102
{BLKREFS
331
5AF
102
}
  0
BLOCK_RECORD
  5
5B1
330
1
100
AcDbSymbolTableRecord
100
AcDbBlockTableRecord
  2
*G53
340
0
102
{BLKREFS
331
5B7
102
}
  0
BLOCK_RECORD
  5
5B8
330
1
100
AcDbSymbolTableRecord
100
AcDbBlockTableRecord
  2
*G54
340
0
102
{BLKREFS
331
5BE
102
}
  0
BLOCK_RECORD
  5
5C0
330
1
100
AcDbSymbolTableRecord
100
AcDbBlockTableRecord
  2
*G55
340
0
102
{BLKREFS
331
5C6
102
}
  0
BLOCK_RECORD
  5
5C7
330
1
100
AcDbSymbolTableRecord
100
AcDbBlockTableRecord
  2
*G56
340
0
102
{BLKREFS
331
5CD
102
}
  0
BLOCK_RECORD
  5
5CF
330
1
100
AcDbSymbolTableRecord
100
AcDbBlockTableRecord
  2
*G57
340
0
102
{BLKREFS
331
5D5
102
}
  0
BLOCK_RECORD
  5
5D6
330
1
100
AcDbSymbolTableRecord
100
AcDbBlockTableRecord
  2
*G58
340
0
102
{BLKREFS
331
5DC
102
}
  0
BLOCK_RECORD
  5
5DE
330
1
100
AcDbSymbolTableRecord
100
AcDbBlockTableRecord
  2
*G59
340
0
102
{BLKREFS
331
5E4
102
}
  0
BLOCK_RECORD
  5
5E6
330
1
100
AcDbSymbolTableRecord
100
AcDbBlockTableRecord
  2
*G60
340
0
102
{BLKREFS
331
5EC
102
}
  0
BLOCK_RECORD
  5
714
330
1
100
AcDbSymbolTableRecord
100
AcDbBlockTableRecord
  2
*G61
340
0
102
{BLKREFS
331
71A
102
}
  0
ENDTAB
  0
ENDSEC
  0
SECTION
  2
BLOCKS
  0
BLOCK
  5
20
330
1F
100
AcDbEntity
  8
0
100
AcDbBlockBegin
  2
*Model_Space
 70
     0
 71
     0
 10
0.0
 20
0.0
 30
0.0
  3
*Model_Space
  1

  0
ENDBLK
  5
21
330
1F
100
AcDbEntity
  8
0
100
AcDbBlockEnd
  0
BLOCK
  5
1C
330
1B
100
AcDbEntity
 67
     1
  8
0
100
AcDbBlockBegin
  2
*Paper_Space
 70
     0
 71
     0
 10
0.0
 20
0.0
 30
0.0
  3
*Paper_Space
  1

  0
ENDBLK
  5
1D
330
1B
100
AcDbEntity
 67
     1
  8
0
100
AcDbBlockEnd
  0
BLOCK
  5
24
330
23
100
AcDbEntity
  8
0
100
AcDbBlockBegin
  2
*Paper_Space0
 70
     0
 71
     0
 10
0.0
 20
0.0
 30
0.0
  3
*Paper_Space0
  1

  0
ENDBLK
  5
25
330
23
100
AcDbEntity
  8
0
100
AcDbBlockEnd
  0
BLOCK
  5
30
330
2D
100
AcDbEntity
  8
0
100
AcDbBlockBegin
  2
_ORIGIN
 70
     0
 71
     0
 10
0.0
 20
0.0
 30
0.0
  3
_ORIGIN
  1

  0
CIRCLE
  5
2E
330
2D
100
AcDbEntity
  8
0
100
AcDbCircle
 10
0.0
 20
0.0
 30
0.0
 40
0.5
  0
LINE
  5
2F
330
2D
100
AcDbEntity
  8
0
100
AcDbLine
 10
0.0
 20
0.0
 30
0.0
 11
-1.0
 21
0.0
 31
0.0
  0
ENDBLK
  5
31
330
2D
100
AcDbEntity
  8
0
100
AcDbBlockEnd
  0
BLOCK
  5
35
330
32
100
AcDbEntity
  8
0
100
AcDbBlockBegin
  2
_DOTBLANK
 70
     0
 71
     0
 10
0.0
 20
0.0
 30
0.0
  3
_DOTBLANK
  1

  0
CIRCLE
  5
33
330
32
100
AcDbEntity
  8
0
100
AcDbCircle
 10
0.0
 20
0.0
 30
0.0
 40
0.5
  0
LINE
  5
34
330
32
100
AcDbEntity
  8
0
100
AcDbLine
 10
-0.5
 20
0.0
 30
0.0
 11
-1.0
 21
0.0
 31
0.0
  0
ENDBLK
  5
36
330
32
100
AcDbEntity
  8
0
100
AcDbBlockEnd
  0
BLOCK
  5
3A
330
37
100
AcDbEntity
  8
0
100
AcDbBlockBegin
  2
_DOT
 70
     0
 71
     0
 10
0.0
 20
0.0
 30
0.0
  3
_DOT
  1

  0
LWPOLYLINE
  5
38
330
37
100
AcDbEntity
  8
0
100
AcDbPolyline
 90
        2
 70
     1
 43
0.5
 10
-0.25
 20
0.0
 42
1.0
 10
0.25
 20
0.0
 42
1.0
  0
LINE
  5
39
330
37
100
AcDbEntity
  8
0
100
AcDbLine
 10
-0.5
 20
0.0
 30
0.0
 11
-1.0
 21
0.0
 31
0.0
  0
ENDBLK
  5
3B
330
37
100
AcDbEntity
  8
0
100
AcDbBlockEnd
  0
BLOCK
  5
40
330
3C
100
AcDbEntity
  8
0
100
AcDbBlockBegin
  2
_OPEN
 70
     0
 71
     0
 10
0.0
 20
0.0
 30
0.0
  3
_OPEN
  1

  0
LINE
  5
3D
330
3C
100
AcDbEntity
  8
0
100
AcDbLine
 10
-1.0
 20
0.1666666666666667
 30
0.0
 11
0.0
 21
0.0
 31
0.0
  0
LINE
  5
3E
330
3C
100
AcDbEntity
  8
0
100
AcDbLine
 10
-1.0
 20
-0.1666666666666667
 30
0.0
 11
0.0
 21
0.0
 31
0.0
  0
LINE
  5
3F
330
3C
100
AcDbEntity
  8
0
100
AcDbLine
 10
0.0
 20
0.0
 30
0.0
 11
-1.0
 21
0.0
 31
0.0
  0
ENDBLK
  5
41
330
3C
100
AcDbEntity
  8
0
100
AcDbBlockEnd
  0
BLOCK
  5
47
330
42
100
AcDbEntity
  8
0
100
AcDbBlockBegin
  2
_CLOSED
 70
     0
 71
     0
 10
0.0
 20
0.0
 30
0.0
  3
_CLOSED
  1

  0
LINE
  5
43
330
42
100
AcDbEntity
  8
0
100
AcDbLine
 10
-1.0
 20
0.1666666666666667
 30
0.0
 11
0.0
 21
0.0
 31
0.0
  0
LINE
  5
44
330
42
100
AcDbEntity
  8
0
100
AcDbLine
 10
0.0
 20
0.0
 30
0.0
 11
-1.0
 21
-0.1666666666666667
 31
0.0
  0
LINE
  5
45
330
42
100
AcDbEntity
  8
0
100
AcDbLine
 10
-1.0
 20
0.1666666666666667
 30
0.0
 11
-1.0
 21
-0.1666666666666667
 31
0.0
  0
LINE
  5
46
330
42
100
AcDbEntity
  8
0
100
AcDbLine
 10
0.0
 20
0.0
 30
0.0
 11
-1.0
 21
0.0
 31
0.0
  0
ENDBLK
  5
48
330
42
100
AcDbEntity
  8
0
100
AcDbBlockEnd
  0
BLOCK
  5
4D
330
49
100
AcDbEntity
  8
0
100
AcDbBlockBegin
  2
_CLOSEDBLANK
 70
     0
 71
     0
 10
0.0
 20
0.0
 30
0.0
  3
_CLOSEDBLANK
  1

  0
LINE
  5
4A
330
49
100
AcDbEntity
  8
0
100
AcDbLine
 10
-1.0
 20
0.1666666666666667
 30
0.0
 11
0.0
 21
0.0
 31
0.0
  0
LINE
  5
4B
330
49
100
AcDbEntity
  8
0
100
AcDbLine
 10
0.0
 20
0.0
 30
0.0
 11
-1.0
 21
-0.1666666666666667
 31
0.0
  0
LINE
  5
4C
330
49
100
AcDbEntity
  8
0
100
AcDbLine
 10
-1.0
 20
0.1666666666666667
 30
0.0
 11
-1.0
 21
-0.1666666666666667
 31
0.0
  0
ENDBLK
  5
4E
330
49
100
AcDbEntity
  8
0
100
AcDbBlockEnd
  0
BLOCK
  5
55
330
4F
100
AcDbEntity
  8
0
100
AcDbBlockBegin
  2
_BOXBLANK
 70
     0
 71
     0
 10
0.0
 20
0.0
 30
0.0
  3
_BOXBLANK
  1

  0
LINE
  5
50
330
4F
100
AcDbEntity
  8
0
100
AcDbLine
 10
-0.5
 20
-0.5
 30
0.0
 11
0.5
 21
-0.5
 31
0.0
  0
LINE
  5
51
330
4F
100
AcDbEntity
  8
0
100
AcDbLine
 10
0.5
 20
-0.5
 30
0.0
 11
0.5
 21
0.5
 31
0.0
  0
LINE
  5
52
330
4F
100
AcDbEntity
  8
0
100
AcDbLine
 10
0.5
 20
0.5
 30
0.0
 11
-0.5
 21
0.5
 31
0.0
  0
LINE
  5
53
330
4F
100
AcDbEntity
  8
0
100
AcDbLine
 10
-0.5
 20
0.5
 30
0.0
 11
-0.5
 21
-0.5
 31
0.0
  0
LINE
  5
54
330
4F
100
AcDbEntity
  8
0
100
AcDbLine
 10
-0.5
 20
0.0
 30
0.0
 11
-1.0
 21
0.0
 31
0.0
  0
ENDBLK
  5
56
330
4F
100
AcDbEntity
  8
0
100
AcDbBlockEnd
  0
BLOCK
  5
5A
330
57
100
AcDbEntity
  8
0
100
AcDbBlockBegin
  2
_BOXFILLED
 70
     0
 71
     0
 10
0.0
 20
0.0
 30
0.0
  3
_BOXFILLED
  1

  0
SOLID
  5
58
330
57
100
AcDbEntity
  8
0
100
AcDbTrace
 10
-0.5
 20
0.5
 30
0.0
 11
0.5
 21
0.5
 31
0.0
 12
-0.5
 22
-0.5
 32
0.0
 13
0.5
 23
-0.5
 33
0.0
  0
LINE
  5
59
330
57
100
AcDbEntity
  8
0
100
AcDbLine
 10
-0.5
 20
0.0
 30
0.0
 11
-1.0
 21
0.0
 31
0.0
  0
ENDBLK
  5
5B
330
57
100
AcDbEntity
  8
0
100
AcDbBlockEnd
  0
BLOCK
  5
5F
330
5C
100
AcDbEntity
  8
0
100
AcDbBlockBegin
  2
_INTEGRAL
 70
     0
 71
     0
 10
0.0
 20
0.0
 30
0.0
  3
_INTEGRAL
  1

  0
ARC
  5
5D
330
5C
100
AcDbEntity
  8
0
100
AcDbCircle
 10
0.444888
 20
-0.0913346
 30
0.0
 40
0.4541666
100
AcDbArc
 50
5844.169510334396
 51
9625.69095819783
  0
ARC
  5
5E
330
5C
100
AcDbEntity
  8
0
100
AcDbCircle
 10
-0.444888
 20
0.0913346
 30
0.0
 40
0.4541666
100
AcDbArc
 50
16157.40982268921
 51
19938.93127055265
  0
ENDBLK
  5
60
330
5C
100
AcDbEntity
  8
0
100
AcDbBlockEnd
  0
BLOCK
  5
63
330
61
100
AcDbEntity
  8
0
100
AcDbBlockBegin
  2
_OBLIQUE
 70
     0
 71
     0
 10
0.0
 20
0.0
 30
0.0
  3
_OBLIQUE
  1

  0
LINE
  5
62
330
61
100
AcDbEntity
  8
0
100
AcDbLine
 10
-0.5
 20
-0.5
 30
0.0
 11
0.5
 21
0.5
 31
0.0
  0
ENDBLK
  5
64
330
61
100
AcDbEntity
  8
0
100
AcDbBlockEnd
  0
BLOCK
  5
66
330
65
100
AcDbEntity
  8
0
100
AcDbBlockBegin
  2
_NONE
 70
     0
 71
     0
 10
0.0
 20
0.0
 30
0.0
  3
_NONE
  1

  0
ENDBLK
  5
67
330
65
100
AcDbEntity
  8
0
100
AcDbBlockEnd
  0
BLOCK
  5
47E
330
47D
100
AcDbEntity
  8
0
100
AcDbBlockBegin
  2
*G12
 70
     1
 71
     0
 10
0.0
 20
0.0
 30
0.0
  3
*G12
  1

  0
LINE
  5
480
330
47D
100
AcDbEntity
  8
5
  6
Continuous
 62
     3
370
     9
100
AcDbLine
 10
332.7122001414519
 20
144.78245621287
 30
0.0
 11
334.6936497632052
 21
147.1741168114184
 31
0.0
  0
LINE
  5
481
330
47D
100
AcDbEntity
  8
5
  6
Continuous
 62
     3
370
     9
100
AcDbLine
 10
334.6936497632052
 20
147.1741168114184
 30
0.0
 11
334.1734874433529
 21
144.1121543388853
 31
0.0
  0
LINE
  5
482
330
47D
100
AcDbEntity
  8
5
  6
Continuous
 62
     3
370
     9
100
AcDbLine
 10
334.6936497632052
 20
147.1741168114184
 30
0.0
 11
333.4428437924024
 21
144.4473052758777
 31
0.0
  0
ENDBLK
  5
47F
330
47D
100
AcDbEntity
  8
0
100
AcDbBlockEnd
  0
BLOCK
  5
486
330
485
100
AcDbEntity
  8
0
100
AcDbBlockBegin
  2
*G13
 70
     1
 71
     0
 10
0.0
 20
0.0
 30
0.0
  3
*G13
  1

  0
LINE
  5
488
330
485
100
AcDbEntity
  8
5
  6
Continuous
 62
     3
370
     9
100
AcDbLine
 10
410.0226611340709
 20
306.1717840458656
 30
0.0
 11
413.0226639218953
 21
305.3679393498944
 31
0.0
  0
LINE
  5
489
330
485
100
AcDbEntity
  8
5
  6
Continuous
 62
     3
370
     9
100
AcDbLine
 10
413.0226639218953
 20
305.3679393498944
 30
0.0
 11
410.0226611340709
 21
304.5640946539232
 31
0.0
  0
LINE
  5
48A
330
485
100
AcDbEntity
  8
5
  6
Continuous
 62
     3
370
     9
100
AcDbLine
 10
413.0226639218953
 20
305.3679393498944
 30
0.0
 11
410.0226611340709
 21
305.3679393498944
 31
0.0
  0
ENDBLK
  5
487
330
485
100
AcDbEntity
  8
0
100
AcDbBlockEnd
  0
BLOCK
  5
48D
330
48C
100
AcDbEntity
  8
0
100
AcDbBlockBegin
  2
*G14
 70
     1
 71
     0
 10
0.0
 20
0.0
 30
0.0
  3
*G14
  1

  0
LINE
  5
48F
330
48C
100
AcDbEntity
  8
5
  6
Continuous
 62
     3
370
     9
100
AcDbLine
 10
356.0226667097198
 20
304.5640946539232
 30
0.0
 11
353.0226639218954
 21
305.3679393498944
 31
0.0
  0
LINE
  5
490
330
48C
100
AcDbEntity
  8
5
  6
Continuous
 62
     3
370
     9
100
AcDbLine
 10
353.0226639218954
 20
305.3679393498944
 30
0.0
 11
356.0226667097198
 21
306.1717840458656
 31
0.0
  0
LINE
  5
491
330
48C
100
AcDbEntity
  8
5
  6
Continuous
 62
     3
370
     9
100
AcDbLine
 10
353.0226639218954
 20
305.3679393498944
 30
0.0
 11
356.0226667097198
 21
305.3679393498944
 31
0.0
  0
ENDBLK
  5
48E
330
48C
100
AcDbEntity
  8
0
100
AcDbBlockEnd
  0
BLOCK
  5
495
330
494
100
AcDbEntity
  8
0
100
AcDbBlockBegin
  2
*G15
 70
     1
 71
     0
 10
0.0
 20
0.0
 30
0.0
  3
*G15
  1

  0
LINE
  5
497
330
494
100
AcDbEntity
  8
5
  6
Continuous
 62
     3
370
     9
100
AcDbLine
 10
343.4049190617001
 20
296.8348679154256
 30
0.0
 11
344.2087637576713
 21
299.83487070325
 31
0.0
  0
LINE
  5
498
330
494
100
AcDbEntity
  8
5
  6
Continuous
 62
     3
370
     9
100
AcDbLine
 10
344.2087637576713
 20
299.83487070325
 30
0.0
 11
345.0126084536425
 21
296.8348679154256
 31
0.0
  0
LINE
  5
499
330
494
100
AcDbEntity
  8
5
  6
Continuous
 62
     3
370
     9
100
AcDbLine
 10
344.2087637576713
 20
299.83487070325
 30
0.0
 11
344.2087637576713
 21
296.8348679154256
 31
0.0
  0
ENDBLK
  5
496
330
494
100
AcDbEntity
  8
0
100
AcDbBlockEnd
  0
BLOCK
  5
49C
330
49B
100
AcDbEntity
  8
0
100
AcDbBlockBegin
  2
*G16
 70
     1
 71
     0
 10
0.0
 20
0.0
 30
0.0
  3
*G16
  1

  0
LINE
  5
49E
330
49B
100
AcDbEntity
  8
5
  6
Continuous
 62
     3
370
     9
100
AcDbLine
 10
345.0126084536425
 20
289.8348734910743
 30
0.0
 11
344.2087637576713
 21
286.83487070325
 31
0.0
  0
LINE
  5
49F
330
49B
100
AcDbEntity
  8
5
  6
Continuous
 62
     3
370
     9
100
AcDbLine
 10
344.2087637576713
 20
286.83487070325
 30
0.0
 11
343.4049190617001
 21
289.8348734910743
 31
0.0
  0
LINE
  5
4A0
330
49B
100
AcDbEntity
  8
5
  6
Continuous
 62
     3
370
     9
100
AcDbLine
 10
344.2087637576713
 20
286.83487070325
 30
0.0
 11
344.2087637576713
 21
289.8348734910743
 31
0.0
  0
ENDBLK
  5
49D
330
49B
100
AcDbEntity
  8
0
100
AcDbBlockEnd
  0
BLOCK
  5
4A4
330
4A3
100
AcDbEntity
  8
0
100
AcDbBlockBegin
  2
*G17
 70
     1
 71
     0
 10
0.0
 20
0.0
 30
0.0
  3
*G17
  1

  0
LINE
  5
4A6
330
4A3
100
AcDbEntity
  8
5
  6
Continuous
 62
     3
370
     9
100
AcDbLine
 10
313.3119682786016
 20
245.9848734910743
 30
0.0
 11
312.5081235826304
 21
242.9848707032499
 31
0.0
  0
LINE
  5
4A7
330
4A3
100
AcDbEntity
  8
5
  6
Continuous
 62
     3
370
     9
100
AcDbLine
 10
312.5081235826304
 20
242.9848707032499
 30
0.0
 11
311.7042788866592
 21
245.9848734910743
 31
0.0
  0
LINE
  5
4A8
330
4A3
100
AcDbEntity
  8
5
  6
Continuous
 62
     3
370
     9
100
AcDbLine
 10
312.5081235826304
 20
242.9848707032499
 30
0.0
 11
312.5081235826304
 21
245.9848734910743
 31
0.0
  0
ENDBLK
  5
4A5
330
4A3
100
AcDbEntity
  8
0
100
AcDbBlockEnd
  0
BLOCK
  5
4AB
330
4AA
100
AcDbEntity
  8
0
100
AcDbBlockBegin
  2
*G18
 70
     1
 71
     0
 10
0.0
 20
0.0
 30
0.0
  3
*G18
  1

  0
LINE
  5
4AD
330
4AA
100
AcDbEntity
  8
5
  6
Continuous
 62
     3
370
     9
100
AcDbLine
 10
311.7042788866592
 20
255.8348679154255
 30
0.0
 11
312.5081235826304
 21
258.8348707032499
 31
0.0
  0
LINE
  5
4AE
330
4AA
100
AcDbEntity
  8
5
  6
Continuous
 62
     3
370
     9
100
AcDbLine
 10
312.5081235826304
 20
258.8348707032499
 30
0.0
 11
313.3119682786016
 21
255.8348679154255
 31
0.0
  0
LINE
  5
4AF
330
4AA
100
AcDbEntity
  8
5
  6
Continuous
 62
     3
370
     9
100
AcDbLine
 10
312.5081235826304
 20
258.8348707032499
 30
0.0
 11
312.5081235826304
 21
255.8348679154255
 31
0.0
  0
ENDBLK
  5
4AC
330
4AA
100
AcDbEntity
  8
0
100
AcDbBlockEnd
  0
BLOCK
  5
4B3
330
4B2
100
AcDbEntity
  8
0
100
AcDbBlockBegin
  2
*G19
 70
     1
 71
     0
 10
0.0
 20
0.0
 30
0.0
  3
*G19
  1

  0
LINE
  5
4B5
330
4B2
100
AcDbEntity
  8
5
  6
Continuous
 62
     3
370
     9
100
AcDbLine
 10
313.3119682786016
 20
261.8348734910743
 30
0.0
 11
312.5081235826304
 21
258.8348707032499
 31
0.0
  0
LINE
  5
4B6
330
4B2
100
AcDbEntity
  8
5
  6
Continuous
 62
     3
370
     9
100
AcDbLine
 10
312.5081235826304
 20
258.8348707032499
 30
0.0
 11
311.7042788866592
 21
261.8348734910743
 31
0.0
  0
LINE
  5
4B7
330
4B2
100
AcDbEntity
  8
5
  6
Continuous
 62
     3
370
     9
100
AcDbLine
 10
312.5081235826304
 20
258.8348707032499
 30
0.0
 11
312.5081235826304
 21
261.8348734910743
 31
0.0
  0
ENDBLK
  5
4B4
330
4B2
100
AcDbEntity
  8
0
100
AcDbBlockEnd
  0
BLOCK
  5
4BA
330
4B9
100
AcDbEntity
  8
0
100
AcDbBlockBegin
  2
*G20
 70
     1
 71
     0
 10
0.0
 20
0.0
 30
0.0
  3
*G20
  1

  0
LINE
  5
4BC
330
4B9
100
AcDbEntity
  8
5
  6
Continuous
 62
     3
370
     9
100
AcDbLine
 10
311.7042788866592
 20
296.8348679154256
 30
0.0
 11
312.5081235826304
 21
299.83487070325
 31
0.0
  0
LINE
  5
4BD
330
4B9
100
AcDbEntity
  8
5
  6
Continuous
 62
     3
370
     9
100
AcDbLine
 10
312.5081235826304
 20
299.83487070325
 30
0.0
 11
313.3119682786016
 21
296.8348679154256
 31
0.0
  0
LINE
  5
4BE
330
4B9
100
AcDbEntity
  8
5
  6
Continuous
 62
     3
370
     9
100
AcDbLine
 10
312.5081235826304
 20
299.83487070325
 30
0.0
 11
312.5081235826304
 21
296.8348679154256
 31
0.0
  0
ENDBLK
  5
4BB
330
4B9
100
AcDbEntity
  8
0
100
AcDbBlockEnd
  0
BLOCK
  5
4C2
330
4C1
100
AcDbEntity
  8
0
100
AcDbBlockBegin
  2
*G21
 70
     1
 71
     0
 10
0.0
 20
0.0
 30
0.0
  3
*G21
  1

  0
LINE
  5
4C4
330
4C1
100
AcDbEntity
  8
5
  6
Continuous
 62
     3
370
     9
100
AcDbLine
 10
305.7042788866592
 20
296.8348679154256
 30
0.0
 11
306.5081235826304
 21
299.83487070325
 31
0.0
  0
LINE
  5
4C5
330
4C1
100
AcDbEntity
  8
5
  6
Continuous
 62
     3
370
     9
100
AcDbLine
 10
306.5081235826304
 20
299.83487070325
 30
0.0
 11
307.3119682786016
 21
296.8348679154256
 31
0.0
  0
LINE
  5
4C6
330
4C1
100
AcDbEntity
  8
5
  6
Continuous
 62
     3
370
     9
100
AcDbLine
 10
306.5081235826304
 20
299.83487070325
 30
0.0
 11
306.5081235826304
 21
296.8348679154256
 31
0.0
  0
ENDBLK
  5
4C3
330
4C1
100
AcDbEntity
  8
0
100
AcDbBlockEnd
  0
BLOCK
  5
4C9
330
4C8
100
AcDbEntity
  8
0
100
AcDbBlockBegin
  2
*G22
 70
     1
 71
     0
 10
0.0
 20
0.0
 30
0.0
  3
*G22
  1

  0
LINE
  5
4CB
330
4C8
100
AcDbEntity
  8
5
  6
Continuous
 62
     3
370
     9
100
AcDbLine
 10
307.3119682786016
 20
245.9848734910743
 30
0.0
 11
306.5081235826304
 21
242.9848707032499
 31
0.0
  0
LINE
  5
4CC
330
4C8
100
AcDbEntity
  8
5
  6
Continuous
 62
     3
370
     9
100
AcDbLine
 10
306.5081235826304
 20
242.9848707032499
 30
0.0
 11
305.7042788866592
 21
245.9848734910743
 31
0.0
  0
LINE
  5
4CD
330
4C8
100
AcDbEntity
  8
5
  6
Continuous
 62
     3
370
     9
100
AcDbLine
 10
306.5081235826304
 20
242.9848707032499
 30
0.0
 11
306.5081235826304
 21
245.9848734910743
 31
0.0
  0
ENDBLK
  5
4CA
330
4C8
100
AcDbEntity
  8
0
100
AcDbBlockEnd
  0
BLOCK
  5
4D1
330
4D0
100
AcDbEntity
  8
0
100
AcDbBlockBegin
  2
*G23
 70
     1
 71
     0
 10
0.0
 20
0.0
 30
0.0
  3
*G23
  1

  0
LINE
  5
4D3
330
4D0
100
AcDbEntity
  8
5
  6
Continuous
 62
     3
370
     9
100
AcDbLine
 10
437.8726611340709
 20
227.9116416880829
 30
0.0
 11
440.8726639218953
 21
227.1077969921117
 31
0.0
  0
LINE
  5
4D4
330
4D0
100
AcDbEntity
  8
5
  6
Continuous
 62
     3
370
     9
100
AcDbLine
 10
440.8726639218953
 20
227.1077969921117
 30
0.0
 11
437.8726611340709
 21
226.3039522961405
 31
0.0
  0
LINE
  5
4D5
330
4D0
100
AcDbEntity
  8
5
  6
Continuous
 62
     3
370
     9
100
AcDbLine
 10
440.8726639218953
 20
227.1077969921117
 30
0.0
 11
437.8726611340709
 21
227.1077969921117
 31
0.0
  0
ENDBLK
  5
4D2
330
4D0
100
AcDbEntity
  8
0
100
AcDbBlockEnd
  0
BLOCK
  5
4D8
330
4D7
100
AcDbEntity
  8
0
100
AcDbBlockBegin
  2
*G24
 70
     1
 71
     0
 10
0.0
 20
0.0
 30
0.0
  3
*G24
  1

  0
LINE
  5
4DA
330
4D7
100
AcDbEntity
  8
5
  6
Continuous
 62
     3
370
     9
100
AcDbLine
 10
386.0226667097197
 20
226.3039522961405
 30
0.0
 11
383.0226639218953
 21
227.1077969921117
 31
0.0
  0
LINE
  5
4DB
330
4D7
100
AcDbEntity
  8
5
  6
Continuous
 62
     3
370
     9
100
AcDbLine
 10
383.0226639218953
 20
227.1077969921117
 30
0.0
 11
386.0226667097197
 21
227.9116416880829
 31
0.0
  0
LINE
  5
4DC
330
4D7
100
AcDbEntity
  8
5
  6
Continuous
 62
     3
370
     9
100
AcDbLine
 10
383.0226639218953
 20
227.1077969921117
 30
0.0
 11
386.0226667097197
 21
227.1077969921117
 31
0.0
  0
ENDBLK
  5
4D9
330
4D7
100
AcDbEntity
  8
0
100
AcDbBlockEnd
  0
BLOCK
  5
4E0
330
4DF
100
AcDbEntity
  8
0
100
AcDbBlockBegin
  2
*G25
 70
     1
 71
     0
 10
0.0
 20
0.0
 30
0.0
  3
*G25
  1

  0
LINE
  5
4E2
330
4DF
100
AcDbEntity
  8
5
  6
Continuous
 62
     3
370
     9
100
AcDbLine
 10
437.8726611340709
 20
219.9116416880829
 30
0.0
 11
440.8726639218953
 21
219.1077969921117
 31
0.0
  0
LINE
  5
4E3
330
4DF
100
AcDbEntity
  8
5
  6
Continuous
 62
     3
370
     9
100
AcDbLine
 10
440.8726639218953
 20
219.1077969921117
 30
0.0
 11
437.8726611340709
 21
218.3039522961405
 31
0.0
  0
LINE
  5
4E4
330
4DF
100
AcDbEntity
  8
5
  6
Continuous
 62
     3
370
     9
100
AcDbLine
 10
440.8726639218953
 20
219.1077969921117
 30
0.0
 11
437.8726611340709
 21
219.1077969921117
 31
0.0
  0
ENDBLK
  5
4E1
330
4DF
100
AcDbEntity
  8
0
100
AcDbBlockEnd
  0
BLOCK
  5
4E7
330
4E6
100
AcDbEntity
  8
0
100
AcDbBlockBegin
  2
*G26
 70
     1
 71
     0
 10
0.0
 20
0.0
 30
0.0
  3
*G26
  1

  0
LINE
  5
4E9
330
4E6
100
AcDbEntity
  8
5
  6
Continuous
 62
     3
370
     9
100
AcDbLine
 10
328.5226667097189
 20
218.3039522961405
 30
0.0
 11
325.5226639218945
 21
219.1077969921117
 31
0.0
  0
LINE
  5
4EA
330
4E6
100
AcDbEntity
  8
5
  6
Continuous
 62
     3
370
     9
100
AcDbLine
 10
325.5226639218945
 20
219.1077969921117
 30
0.0
 11
328.5226667097189
 21
219.9116416880829
 31
0.0
  0
LINE
  5
4EB
330
4E6
100
AcDbEntity
  8
5
  6
Continuous
 62
     3
370
     9
100
AcDbLine
 10
325.5226639218945
 20
219.1077969921117
 30
0.0
 11
328.5226667097189
 21
219.1077969921117
 31
0.0
  0
ENDBLK
  5
4E8
330
4E6
100
AcDbEntity
  8
0
100
AcDbBlockEnd
  0
BLOCK
  5
4EF
330
4EE
100
AcDbEntity
  8
0
100
AcDbBlockBegin
  2
*G27
 70
     1
 71
     0
 10
0.0
 20
0.0
 30
0.0
  3
*G27
  1

  0
LINE
  5
4F1
330
4EE
100
AcDbEntity
  8
5
  6
Continuous
 62
     3
370
     9
100
AcDbLine
 10
431.8226611340709
 20
236.4116416880829
 30
0.0
 11
434.8226639218953
 21
235.6077969921117
 31
0.0
  0
LINE
  5
4F2
330
4EE
100
AcDbEntity
  8
5
  6
Continuous
 62
     3
370
     9
100
AcDbLine
 10
434.8226639218953
 20
235.6077969921117
 30
0.0
 11
431.8226611340709
 21
234.8039522961405
 31
0.0
  0
LINE
  5
4F3
330
4EE
100
AcDbEntity
  8
5
  6
Continuous
 62
     3
370
     9
100
AcDbLine
 10
434.8226639218953
 20
235.6077969921117
 30
0.0
 11
431.8226611340709
 21
235.6077969921117
 31
0.0
  0
ENDBLK
  5
4F0
330
4EE
100
AcDbEntity
  8
0
100
AcDbBlockEnd
  0
BLOCK
  5
4F6
330
4F5
100
AcDbEntity
  8
0
100
AcDbBlockBegin
  2
*G28
 70
     1
 71
     0
 10
0.0
 20
0.0
 30
0.0
  3
*G28
  1

  0
LINE
  5
4F8
330
4F5
100
AcDbEntity
  8
5
  6
Continuous
 62
     3
370
     9
100
AcDbLine
 10
386.0226667097197
 20
234.8039522961405
 30
0.0
 11
383.0226639218953
 21
235.6077969921117
 31
0.0
  0
LINE
  5
4F9
330
4F5
100
AcDbEntity
  8
5
  6
Continuous
 62
     3
370
     9
100
AcDbLine
 10
383.0226639218953
 20
235.6077969921117
 30
0.0
 11
386.0226667097197
 21
236.4116416880829
 31
0.0
  0
LINE
  5
4FA
330
4F5
100
AcDbEntity
  8
5
  6
Continuous
 62
     3
370
     9
100
AcDbLine
 10
383.0226639218953
 20
235.6077969921117
 30
0.0
 11
386.0226667097197
 21
235.6077969921117
 31
0.0
  0
ENDBLK
  5
4F7
330
4F5
100
AcDbEntity
  8
0
100
AcDbBlockEnd
  0
BLOCK
  5
4FE
330
4FD
100
AcDbEntity
  8
0
100
AcDbBlockBegin
  2
*G29
 70
     1
 71
     0
 10
0.0
 20
0.0
 30
0.0
  3
*G29
  1

  0
LINE
  5
500
330
4FD
100
AcDbEntity
  8
5
  6
Continuous
 62
     3
370
     9
100
AcDbLine
 10
380.0226611340709
 20
227.9116416880829
 30
0.0
 11
383.0226639218953
 21
227.1077969921117
 31
0.0
  0
LINE
  5
501
330
4FD
100
AcDbEntity
  8
5
  6
Continuous
 62
     3
370
     9
100
AcDbLine
 10
383.0226639218953
 20
227.1077969921117
 30
0.0
 11
380.0226611340709
 21
226.3039522961405
 31
0.0
  0
LINE
  5
502
330
4FD
100
AcDbEntity
  8
5
  6
Continuous
 62
     3
370
     9
100
AcDbLine
 10
383.0226639218953
 20
227.1077969921117
 30
0.0
 11
380.0226611340709
 21
227.1077969921117
 31
0.0
  0
ENDBLK
  5
4FF
330
4FD
100
AcDbEntity
  8
0
100
AcDbBlockEnd
  0
BLOCK
  5
505
330
504
100
AcDbEntity
  8
0
100
AcDbBlockBegin
  2
*G30
 70
     1
 71
     0
 10
0.0
 20
0.0
 30
0.0
  3
*G30
  1

  0
LINE
  5
507
330
504
100
AcDbEntity
  8
5
  6
Continuous
 62
     3
370
     9
100
AcDbLine
 10
328.5226667097189
 20
226.3039522961405
 30
0.0
 11
325.5226639218945
 21
227.1077969921117
 31
0.0
  0
LINE
  5
508
330
504
100
AcDbEntity
  8
5
  6
Continuous
 62
     3
370
     9
100
AcDbLine
 10
325.5226639218945
 20
227.1077969921117
 30
0.0
 11
328.5226667097189
 21
227.9116416880829
 31
0.0
  0
LINE
  5
509
330
504
100
AcDbEntity
  8
5
  6
Continuous
 62
     3
370
     9
100
AcDbLine
 10
325.5226639218945
 20
227.1077969921117
 30
0.0
 11
328.5226667097189
 21
227.1077969921117
 31
0.0
  0
ENDBLK
  5
506
330
504
100
AcDbEntity
  8
0
100
AcDbBlockEnd
  0
BLOCK
  5
50D
330
50C
100
AcDbEntity
  8
0
100
AcDbBlockBegin
  2
*G31
 70
     1
 71
     0
 10
0.0
 20
0.0
 30
0.0
  3
*G31
  1

  0
LINE
  5
50F
330
50C
100
AcDbEntity
  8
5
  6
Continuous
 62
     3
370
     9
100
AcDbLine
 10
473.0653139057435
 20
202.9534037074413
 30
0.0
 11
470.0653111179191
 21
203.7572484034125
 31
0.0
  0
LINE
  5
510
330
50C
100
AcDbEntity
  8
5
  6
Continuous
 62
     3
370
     9
100
AcDbLine
 10
470.0653111179191
 20
203.7572484034125
 30
0.0
 11
473.0653139057435
 21
204.5610930993837
 31
0.0
  0
LINE
  5
511
330
50C
100
AcDbEntity
  8
5
  6
Continuous
 62
     3
370
     9
100
AcDbLine
 10
470.0653111179191
 20
203.7572484034125
 30
0.0
 11
473.0653139057435
 21
203.7572484034125
 31
0.0
  0
ENDBLK
  5
50E
330
50C
100
AcDbEntity
  8
0
100
AcDbBlockEnd
  0
BLOCK
  5
514
330
513
100
AcDbEntity
  8
0
100
AcDbBlockBegin
  2
*G32
 70
     1
 71
     0
 10
0.0
 20
0.0
 30
0.0
  3
*G32
  1

  0
LINE
  5
516
330
513
100
AcDbEntity
  8
5
  6
Continuous
 62
     3
370
     9
100
AcDbLine
 10
498.7653083300949
 20
204.5610930993837
 30
0.0
 11
501.7653111179192
 21
203.7572484034125
 31
0.0
  0
LINE
  5
517
330
513
100
AcDbEntity
  8
5
  6
Continuous
 62
     3
370
     9
100
AcDbLine
 10
501.7653111179192
 20
203.7572484034125
 30
0.0
 11
498.7653083300949
 21
202.9534037074413
 31
0.0
  0
LINE
  5
518
330
513
100
AcDbEntity
  8
5
  6
Continuous
 62
     3
370
     9
100
AcDbLine
 10
501.7653111179192
 20
203.7572484034125
 30
0.0
 11
498.7653083300949
 21
203.7572484034125
 31
0.0
  0
ENDBLK
  5
515
330
513
100
AcDbEntity
  8
0
100
AcDbBlockEnd
  0
BLOCK
  5
51C
330
51B
100
AcDbEntity
  8
0
100
AcDbBlockBegin
  2
*G33
 70
     1
 71
     0
 10
0.0
 20
0.0
 30
0.0
  3
*G33
  1

  0
LINE
  5
51E
330
51B
100
AcDbEntity
  8
5
  6
Continuous
 62
     3
370
     9
100
AcDbLine
 10
463.1114664219479
 20
148.457245615588
 30
0.0
 11
463.9153111179191
 21
151.4572484034124
 31
0.0
  0
LINE
  5
51F
330
51B
100
AcDbEntity
  8
5
  6
Continuous
 62
     3
370
     9
100
AcDbLine
 10
463.9153111179191
 20
151.4572484034124
 30
0.0
 11
464.7191558138903
 21
148.457245615588
 31
0.0
  0
LINE
  5
520
330
51B
100
AcDbEntity
  8
5
  6
Continuous
 62
     3
370
     9
100
AcDbLine
 10
463.9153111179191
 20
151.4572484034124
 30
0.0
 11
463.9153111179191
 21
148.457245615588
 31
0.0
  0
ENDBLK
  5
51D
330
51B
100
AcDbEntity
  8
0
100
AcDbBlockEnd
  0
BLOCK
  5
523
330
522
100
AcDbEntity
  8
0
100
AcDbBlockBegin
  2
*G34
 70
     1
 71
     0
 10
0.0
 20
0.0
 30
0.0
  3
*G34
  1

  0
LINE
  5
525
330
522
100
AcDbEntity
  8
5
  6
Continuous
 62
     3
370
     9
100
AcDbLine
 10
464.7191558138903
 20
131.9572511912367
 30
0.0
 11
463.9153111179191
 21
128.9572484034123
 31
0.0
  0
LINE
  5
526
330
522
100
AcDbEntity
  8
5
  6
Continuous
 62
     3
370
     9
100
AcDbLine
 10
463.9153111179191
 20
128.9572484034123
 30
0.0
 11
463.1114664219479
 21
131.9572511912367
 31
0.0
  0
LINE
  5
527
330
522
100
AcDbEntity
  8
5
  6
Continuous
 62
     3
370
     9
100
AcDbLine
 10
463.9153111179191
 20
128.9572484034123
 30
0.0
 11
463.9153111179191
 21
131.9572511912367
 31
0.0
  0
ENDBLK
  5
524
330
522
100
AcDbEntity
  8
0
100
AcDbBlockEnd
  0
BLOCK
  5
52B
330
52A
100
AcDbEntity
  8
0
100
AcDbBlockBegin
  2
*G35
 70
     1
 71
     0
 10
0.0
 20
0.0
 30
0.0
  3
*G35
  1

  0
LINE
  5
52D
330
52A
100
AcDbEntity
  8
5
  6
Continuous
 62
     3
370
     9
100
AcDbLine
 10
463.1114664219479
 20
125.9572456155879
 30
0.0
 11
463.9153111179191
 21
128.9572484034123
 31
0.0
  0
LINE
  5
52E
330
52A
100
AcDbEntity
  8
5
  6
Continuous
 62
     3
370
     9
100
AcDbLine
 10
463.9153111179191
 20
128.9572484034123
 30
0.0
 11
464.7191558138903
 21
125.9572456155879
 31
0.0
  0
LINE
  5
52F
330
52A
100
AcDbEntity
  8
5
  6
Continuous
 62
     3
370
     9
100
AcDbLine
 10
463.9153111179191
 20
128.9572484034123
 30
0.0
 11
463.9153111179191
 21
125.9572456155879
 31
0.0
  0
ENDBLK
  5
52C
330
52A
100
AcDbEntity
  8
0
100
AcDbBlockEnd
  0
BLOCK
  5
532
330
531
100
AcDbEntity
  8
0
100
AcDbBlockBegin
  2
*G36
 70
     1
 71
     0
 10
0.0
 20
0.0
 30
0.0
  3
*G36
  1

  0
LINE
  5
534
330
531
100
AcDbEntity
  8
5
  6
Continuous
 62
     3
370
     9
100
AcDbLine
 10
464.7191558138903
 20
116.9572511912367
 30
0.0
 11
463.9153111179191
 21
113.9572484034123
 31
0.0
  0
LINE
  5
535
330
531
100
AcDbEntity
  8
5
  6
Continuous
 62
     3
370
     9
100
AcDbLine
 10
463.9153111179191
 20
113.9572484034123
 30
0.0
 11
463.1114664219479
 21
116.9572511912367
 31
0.0
  0
LINE
  5
536
330
531
100
AcDbEntity
  8
5
  6
Continuous
 62
     3
370
     9
100
AcDbLine
 10
463.9153111179191
 20
113.9572484034123
 30
0.0
 11
463.9153111179191
 21
116.9572511912367
 31
0.0
  0
ENDBLK
  5
533
330
531
100
AcDbEntity
  8
0
100
AcDbBlockEnd
  0
BLOCK
  5
53A
330
539
100
AcDbEntity
  8
0
100
AcDbBlockBegin
  2
*G37
 70
     1
 71
     0
 10
0.0
 20
0.0
 30
0.0
  3
*G37
  1

  0
LINE
  5
53C
330
539
100
AcDbEntity
  8
5
  6
Continuous
 62
     3
370
     9
100
AcDbLine
 10
319.7047525176928
 20
269.3348679154255
 30
0.0
 11
320.5085972136641
 21
272.3348707032499
 31
0.0
  0
LINE
  5
53D
330
539
100
AcDbEntity
  8
5
  6
Continuous
 62
     3
370
     9
100
AcDbLine
 10
320.5085972136641
 20
272.3348707032499
 30
0.0
 11
321.3124419096353
 21
269.3348679154255
 31
0.0
  0
LINE
  5
53E
330
539
100
AcDbEntity
  8
5
  6
Continuous
 62
     3
370
     9
100
AcDbLine
 10
320.5085972136641
 20
272.3348707032499
 30
0.0
 11
320.5085972136641
 21
269.3348679154255
 31
0.0
  0
ENDBLK
  5
53B
330
539
100
AcDbEntity
  8
0
100
AcDbBlockEnd
  0
BLOCK
  5
541
330
540
100
AcDbEntity
  8
0
100
AcDbBlockBegin
  2
*G38
 70
     1
 71
     0
 10
0.0
 20
0.0
 30
0.0
  3
*G38
  1

  0
LINE
  5
543
330
540
100
AcDbEntity
  8
5
  6
Continuous
 62
     3
370
     9
100
AcDbLine
 10
321.3124419096353
 20
248.3348734910743
 30
0.0
 11
320.5085972136641
 21
245.3348707032499
 31
0.0
  0
LINE
  5
544
330
540
100
AcDbEntity
  8
5
  6
Continuous
 62
     3
370
     9
100
AcDbLine
 10
320.5085972136641
 20
245.3348707032499
 30
0.0
 11
319.7047525176928
 21
248.3348734910743
 31
0.0
  0
LINE
  5
545
330
540
100
AcDbEntity
  8
5
  6
Continuous
 62
     3
370
     9
100
AcDbLine
 10
320.5085972136641
 20
245.3348707032499
 30
0.0
 11
320.5085972136641
 21
248.3348734910743
 31
0.0
  0
ENDBLK
  5
542
330
540
100
AcDbEntity
  8
0
100
AcDbBlockEnd
  0
BLOCK
  5
549
330
548
100
AcDbEntity
  8
0
100
AcDbBlockBegin
  2
*G39
 70
     1
 71
     0
 10
0.0
 20
0.0
 30
0.0
  3
*G39
  1

  0
LINE
  5
54B
330
548
100
AcDbEntity
  8
5
  6
Continuous
 62
     3
370
     9
100
AcDbLine
 10
534.6255331301791
 20
139.4572456155879
 30
0.0
 11
535.4293778261502
 21
142.4572484034123
 31
0.0
  0
LINE
  5
54C
330
548
100
AcDbEntity
  8
5
  6
Continuous
 62
     3
370
     9
100
AcDbLine
 10
535.4293778261502
 20
142.4572484034123
 30
0.0
 11
536.2332225221214
 21
139.4572456155879
 31
0.0
  0
LINE
  5
54D
330
548
100
AcDbEntity
  8
5
  6
Continuous
 62
     3
370
     9
100
AcDbLine
 10
535.4293778261502
 20
142.4572484034123
 30
0.0
 11
535.4293778261502
 21
139.4572456155879
 31
0.0
  0
ENDBLK
  5
54A
330
548
100
AcDbEntity
  8
0
100
AcDbBlockEnd
  0
BLOCK
  5
550
330
54F
100
AcDbEntity
  8
0
100
AcDbBlockBegin
  2
*G40
 70
     1
 71
     0
 10
0.0
 20
0.0
 30
0.0
  3
*G40
  1

  0
LINE
  5
552
330
54F
100
AcDbEntity
  8
5
  6
Continuous
 62
     3
370
     9
100
AcDbLine
 10
536.2332225221214
 20
118.4572511912367
 30
0.0
 11
535.4293778261502
 21
115.4572484034123
 31
0.0
  0
LINE
  5
553
330
54F
100
AcDbEntity
  8
5
  6
Continuous
 62
     3
370
     9
100
AcDbLine
 10
535.4293778261502
 20
115.4572484034123
 30
0.0
 11
534.6255331301791
 21
118.4572511912367
 31
0.0
  0
LINE
  5
554
330
54F
100
AcDbEntity
  8
5
  6
Continuous
 62
     3
370
     9
100
AcDbLine
 10
535.4293778261502
 20
115.4572484034123
 30
0.0
 11
535.4293778261502
 21
118.4572511912367
 31
0.0
  0
ENDBLK
  5
551
330
54F
100
AcDbEntity
  8
0
100
AcDbBlockEnd
  0
BLOCK
  5
558
330
557
100
AcDbEntity
  8
0
100
AcDbBlockBegin
  2
*G41
 70
     1
 71
     0
 10
0.0
 20
0.0
 30
0.0
  3
*G41
  1

  0
LINE
  5
55A
330
557
100
AcDbEntity
  8
5
  6
Continuous
 62
     3
370
     9
100
AcDbLine
 10
281.8665879431009
 20
148.4572456155879
 30
0.0
 11
282.6704326390721
 21
151.4572484034123
 31
0.0
  0
LINE
  5
55B
330
557
100
AcDbEntity
  8
5
  6
Continuous
 62
     3
370
     9
100
AcDbLine
 10
282.6704326390721
 20
151.4572484034123
 30
0.0
 11
283.4742773350433
 21
148.4572456155879
 31
0.0
  0
LINE
  5
55C
330
557
100
AcDbEntity
  8
5
  6
Continuous
 62
     3
370
     9
100
AcDbLine
 10
282.6704326390721
 20
151.4572484034123
 30
0.0
 11
282.6704326390721
 21
148.4572456155879
 31
0.0
  0
ENDBLK
  5
559
330
557
100
AcDbEntity
  8
0
100
AcDbBlockEnd
  0
BLOCK
  5
55F
330
55E
100
AcDbEntity
  8
0
100
AcDbBlockBegin
  2
*G42
 70
     1
 71
     0
 10
0.0
 20
0.0
 30
0.0
  3
*G42
  1

  0
LINE
  5
561
330
55E
100
AcDbEntity
  8
5
  6
Continuous
 62
     3
370
     9
100
AcDbLine
 10
283.4742773350433
 20
131.9572511912366
 30
0.0
 11
282.6704326390721
 21
128.9572484034122
 31
0.0
  0
LINE
  5
562
330
55E
100
AcDbEntity
  8
5
  6
Continuous
 62
     3
370
     9
100
AcDbLine
 10
282.6704326390721
 20
128.9572484034122
 30
0.0
 11
281.8665879431009
 21
131.9572511912366
 31
0.0
  0
LINE
  5
563
330
55E
100
AcDbEntity
  8
5
  6
Continuous
 62
     3
370
     9
100
AcDbLine
 10
282.6704326390721
 20
128.9572484034122
 30
0.0
 11
282.6704326390721
 21
131.9572511912366
 31
0.0
  0
ENDBLK
  5
560
330
55E
100
AcDbEntity
  8
0
100
AcDbBlockEnd
  0
BLOCK
  5
567
330
566
100
AcDbEntity
  8
0
100
AcDbBlockBegin
  2
*G43
 70
     1
 71
     0
 10
0.0
 20
0.0
 30
0.0
  3
*G43
  1

  0
LINE
  5
569
330
566
100
AcDbEntity
  8
5
  6
Continuous
 62
     3
370
     9
100
AcDbLine
 10
281.8665879431009
 20
125.9572456155878
 30
0.0
 11
282.6704326390721
 21
128.9572484034122
 31
0.0
  0
LINE
  5
56A
330
566
100
AcDbEntity
  8
5
  6
Continuous
 62
     3
370
     9
100
AcDbLine
 10
282.6704326390721
 20
128.9572484034122
 30
0.0
 11
283.4742773350433
 21
125.9572456155878
 31
0.0
  0
LINE
  5
56B
330
566
100
AcDbEntity
  8
5
  6
Continuous
 62
     3
370
     9
100
AcDbLine
 10
282.6704326390721
 20
128.9572484034122
 30
0.0
 11
282.6704326390721
 21
125.9572456155878
 31
0.0
  0
ENDBLK
  5
568
330
566
100
AcDbEntity
  8
0
100
AcDbBlockEnd
  0
BLOCK
  5
56E
330
56D
100
AcDbEntity
  8
0
100
AcDbBlockBegin
  2
*G44
 70
     1
 71
     0
 10
0.0
 20
0.0
 30
0.0
  3
*G44
  1

  0
LINE
  5
570
330
56D
100
AcDbEntity
  8
5
  6
Continuous
 62
     3
370
     9
100
AcDbLine
 10
283.4742773350433
 20
116.9572511912367
 30
0.0
 11
282.6704326390721
 21
113.9572484034123
 31
0.0
  0
LINE
  5
571
330
56D
100
AcDbEntity
  8
5
  6
Continuous
 62
     3
370
     9
100
AcDbLine
 10
282.6704326390721
 20
113.9572484034123
 30
0.0
 11
281.8665879431009
 21
116.9572511912367
 31
0.0
  0
LINE
  5
572
330
56D
100
AcDbEntity
  8
5
  6
Continuous
 62
     3
370
     9
100
AcDbLine
 10
282.6704326390721
 20
113.9572484034123
 30
0.0
 11
282.6704326390721
 21
116.9572511912367
 31
0.0
  0
ENDBLK
  5
56F
330
56D
100
AcDbEntity
  8
0
100
AcDbBlockEnd
  0
BLOCK
  5
576
330
575
100
AcDbEntity
  8
0
100
AcDbBlockBegin
  2
*G45
 70
     1
 71
     0
 10
0.0
 20
0.0
 30
0.0
  3
*G45
  1

  0
LINE
  5
578
330
575
100
AcDbEntity
  8
5
  6
Continuous
 62
     3
370
     9
100
AcDbLine
 10
273.5204298512479
 20
204.5610930993835
 30
0.0
 11
276.5204326390722
 21
203.7572484034123
 31
0.0
  0
LINE
  5
579
330
575
100
AcDbEntity
  8
5
  6
Continuous
 62
     3
370
     9
100
AcDbLine
 10
276.5204326390722
 20
203.7572484034123
 30
0.0
 11
273.5204298512479
 21
202.9534037074411
 31
0.0
  0
LINE
  5
57A
330
575
100
AcDbEntity
  8
5
  6
Continuous
 62
     3
370
     9
100
AcDbLine
 10
276.5204326390722
 20
203.7572484034123
 30
0.0
 11
273.5204298512479
 21
203.7572484034123
 31
0.0
  0
ENDBLK
  5
577
330
575
100
AcDbEntity
  8
0
100
AcDbBlockEnd
  0
BLOCK
  5
57D
330
57C
100
AcDbEntity
  8
0
100
AcDbBlockBegin
  2
*G46
 70
     1
 71
     0
 10
0.0
 20
0.0
 30
0.0
  3
*G46
  1

  0
LINE
  5
57F
330
57C
100
AcDbEntity
  8
5
  6
Continuous
 62
     3
370
     9
100
AcDbLine
 10
247.8204354268965
 20
202.9534037074411
 30
0.0
 11
244.8204326390721
 21
203.7572484034123
 31
0.0
  0
LINE
  5
580
330
57C
100
AcDbEntity
  8
5
  6
Continuous
 62
     3
370
     9
100
AcDbLine
 10
244.8204326390721
 20
203.7572484034123
 30
0.0
 11
247.8204354268965
 21
204.5610930993835
 31
0.0
  0
LINE
  5
581
330
57C
100
AcDbEntity
  8
5
  6
Continuous
 62
     3
370
     9
100
AcDbLine
 10
244.8204326390721
 20
203.7572484034123
 30
0.0
 11
247.8204354268965
 21
203.7572484034123
 31
0.0
  0
ENDBLK
  5
57E
330
57C
100
AcDbEntity
  8
0
100
AcDbBlockEnd
  0
BLOCK
  5
585
330
584
100
AcDbEntity
  8
0
100
AcDbBlockBegin
  2
*G47
 70
     1
 71
     0
 10
0.0
 20
0.0
 30
0.0
  3
*G47
  1

  0
LINE
  5
587
330
584
100
AcDbEntity
  8
5
  6
Continuous
 62
     3
370
     9
100
AcDbLine
 10
317.930702147258
 20
190.7572456155881
 30
0.0
 11
318.7345468432293
 21
193.7572484034125
 31
0.0
  0
LINE
  5
588
330
584
100
AcDbEntity
  8
5
  6
Continuous
 62
     3
370
     9
100
AcDbLine
 10
318.7345468432293
 20
193.7572484034125
 30
0.0
 11
319.5383915392005
 21
190.7572456155881
 31
0.0
  0
LINE
  5
589
330
584
100
AcDbEntity
  8
5
  6
Continuous
 62
     3
370
     9
100
AcDbLine
 10
318.7345468432293
 20
193.7572484034125
 30
0.0
 11
318.7345468432293
 21
190.7572456155881
 31
0.0
  0
ENDBLK
  5
586
330
584
100
AcDbEntity
  8
0
100
AcDbBlockEnd
  0
BLOCK
  5
58C
330
58B
100
AcDbEntity
  8
0
100
AcDbBlockBegin
  2
*G48
 70
     1
 71
     0
 10
0.0
 20
0.0
 30
0.0
  3
*G48
  1

  0
LINE
  5
58E
330
58B
100
AcDbEntity
  8
5
  6
Continuous
 62
     3
370
     9
100
AcDbLine
 10
319.5383915392005
 20
154.4572511912367
 30
0.0
 11
318.7345468432293
 21
151.4572484034123
 31
0.0
  0
LINE
  5
58F
330
58B
100
AcDbEntity
  8
5
  6
Continuous
 62
     3
370
     9
100
AcDbLine
 10
318.7345468432293
 20
151.4572484034123
 30
0.0
 11
317.930702147258
 21
154.4572511912367
 31
0.0
  0
LINE
  5
590
330
58B
100
AcDbEntity
  8
5
  6
Continuous
 62
     3
370
     9
100
AcDbLine
 10
318.7345468432293
 20
151.4572484034123
 30
0.0
 11
318.7345468432293
 21
154.4572511912367
 31
0.0
  0
ENDBLK
  5
58D
330
58B
100
AcDbEntity
  8
0
100
AcDbBlockEnd
  0
BLOCK
  5
594
330
593
100
AcDbEntity
  8
0
100
AcDbBlockBegin
  2
*G49
 70
     1
 71
     0
 10
0.0
 20
0.0
 30
0.0
  3
*G49
  1

  0
LINE
  5
596
330
593
100
AcDbEntity
  8
5
  6
Continuous
 62
     3
370
     9
100
AcDbLine
 10
317.930702147258
 20
148.4572456155879
 30
0.0
 11
318.7345468432293
 21
151.4572484034123
 31
0.0
  0
LINE
  5
597
330
593
100
AcDbEntity
  8
5
  6
Continuous
 62
     3
370
     9
100
AcDbLine
 10
318.7345468432293
 20
151.4572484034123
 30
0.0
 11
319.5383915392005
 21
148.4572456155879
 31
0.0
  0
LINE
  5
598
330
593
100
AcDbEntity
  8
5
  6
Continuous
 62
     3
370
     9
100
AcDbLine
 10
318.7345468432293
 20
151.4572484034123
 30
0.0
 11
318.7345468432293
 21
148.4572456155879
 31
0.0
  0
ENDBLK
  5
595
330
593
100
AcDbEntity
  8
0
100
AcDbBlockEnd
  0
BLOCK
  5
59B
330
59A
100
AcDbEntity
  8
0
100
AcDbBlockBegin
  2
*G50
 70
     1
 71
     0
 10
0.0
 20
0.0
 30
0.0
  3
*G50
  1

  0
LINE
  5
59D
330
59A
100
AcDbEntity
  8
5
  6
Continuous
 62
     3
370
     9
100
AcDbLine
 10
319.5383915392005
 20
116.8572511912367
 30
0.0
 11
318.7345468432293
 21
113.8572484034123
 31
0.0
  0
LINE
  5
59E
330
59A
100
AcDbEntity
  8
5
  6
Continuous
 62
     3
370
     9
100
AcDbLine
 10
318.7345468432293
 20
113.8572484034123
 30
0.0
 11
317.930702147258
 21
116.8572511912367
 31
0.0
  0
LINE
  5
59F
330
59A
100
AcDbEntity
  8
5
  6
Continuous
 62
     3
370
     9
100
AcDbLine
 10
318.7345468432293
 20
113.8572484034123
 30
0.0
 11
318.7345468432293
 21
116.8572511912367
 31
0.0
  0
ENDBLK
  5
59C
330
59A
100
AcDbEntity
  8
0
100
AcDbBlockEnd
  0
BLOCK
  5
5A3
330
5A2
100
AcDbEntity
  8
0
100
AcDbBlockBegin
  2
*G51
 70
     1
 71
     0
 10
0.0
 20
0.0
 30
0.0
  3
*G51
  1

  0
LINE
  5
5A5
330
5A2
100
AcDbEntity
  8
5
  6
Continuous
 62
     3
370
     9
100
AcDbLine
 10
309.930702147258
 20
190.7572456155881
 30
0.0
 11
310.7345468432293
 21
193.7572484034125
 31
0.0
  0
LINE
  5
5A6
330
5A2
100
AcDbEntity
  8
5
  6
Continuous
 62
     3
370
     9
100
AcDbLine
 10
310.7345468432293
 20
193.7572484034125
 30
0.0
 11
311.5383915392005
 21
190.7572456155881
 31
0.0
  0
LINE
  5
5A7
330
5A2
100
AcDbEntity
  8
5
  6
Continuous
 62
     3
370
     9
100
AcDbLine
 10
310.7345468432293
 20
193.7572484034125
 30
0.0
 11
310.7345468432293
 21
190.7572456155881
 31
0.0
  0
ENDBLK
  5
5A4
330
5A2
100
AcDbEntity
  8
0
100
AcDbBlockEnd
  0
BLOCK
  5
5AA
330
5A9
100
AcDbEntity
  8
0
100
AcDbBlockBegin
  2
*G52
 70
     1
 71
     0
 10
0.0
 20
0.0
 30
0.0
  3
*G52
  1

  0
LINE
  5
5AC
330
5A9
100
AcDbEntity
  8
5
  6
Continuous
 62
     3
370
     9
100
AcDbLine
 10
311.5383915392005
 20
116.8572511912367
 30
0.0
 11
310.7345468432293
 21
113.8572484034123
 31
0.0
  0
LINE
  5
5AD
330
5A9
100
AcDbEntity
  8
5
  6
Continuous
 62
     3
370
     9
100
AcDbLine
 10
310.7345468432293
 20
113.8572484034123
 30
0.0
 11
309.930702147258
 21
116.8572511912367
 31
0.0
  0
LINE
  5
5AE
330
5A9
100
AcDbEntity
  8
5
  6
Continuous
 62
     3
370
     9
100
AcDbLine
 10
310.7345468432293
 20
113.8572484034123
 30
0.0
 11
310.7345468432293
 21
116.8572511912367
 31
0.0
  0
ENDBLK
  5
5AB
330
5A9
100
AcDbEntity
  8
0
100
AcDbBlockEnd
  0
BLOCK
  5
5B2
330
5B1
100
AcDbEntity
  8
0
100
AcDbBlockBegin
  2
*G53
 70
     1
 71
     0
 10
0.0
 20
0.0
 30
0.0
  3
*G53
  1

  0
LINE
  5
5B4
330
5B1
100
AcDbEntity
  8
5
  6
Continuous
 62
     3
370
     9
100
AcDbLine
 10
401.0226611340708
 20
204.3697937359019
 30
0.0
 11
404.0226639218952
 21
203.5659490399307
 31
0.0
  0
LINE
  5
5B5
330
5B1
100
AcDbEntity
  8
5
  6
Continuous
 62
     3
370
     9
100
AcDbLine
 10
404.0226639218952
 20
203.5659490399307
 30
0.0
 11
401.0226611340708
 21
202.7621043439595
 31
0.0
  0
LINE
  5
5B6
330
5B1
100
AcDbEntity
  8
5
  6
Continuous
 62
     3
370
     9
100
AcDbLine
 10
404.0226639218952
 20
203.5659490399307
 30
0.0
 11
401.0226611340708
 21
203.5659490399307
 31
0.0
  0
ENDBLK
  5
5B3
330
5B1
100
AcDbEntity
  8
0
100
AcDbBlockEnd
  0
BLOCK
  5
5B9
330
5B8
100
AcDbEntity
  8
0
100
AcDbBlockBegin
  2
*G54
 70
     1
 71
     0
 10
0.0
 20
0.0
 30
0.0
  3
*G54
  1

  0
LINE
  5
5BB
330
5B8
100
AcDbEntity
  8
5
  6
Continuous
 62
     3
370
     9
100
AcDbLine
 10
365.0226667097195
 20
202.7621043439595
 30
0.0
 11
362.0226639218952
 21
203.5659490399307
 31
0.0
  0
LINE
  5
5BC
330
5B8
100
AcDbEntity
  8
5
  6
Continuous
 62
     3
370
     9
100
AcDbLine
 10
362.0226639218952
 20
203.5659490399307
 30
0.0
 11
365.0226667097195
 21
204.3697937359019
 31
0.0
  0
LINE
  5
5BD
330
5B8
100
AcDbEntity
  8
5
  6
Continuous
 62
     3
370
     9
100
AcDbLine
 10
362.0226639218952
 20
203.5659490399307
 30
0.0
 11
365.0226667097195
 21
203.5659490399307
 31
0.0
  0
ENDBLK
  5
5BA
330
5B8
100
AcDbEntity
  8
0
100
AcDbBlockEnd
  0
BLOCK
  5
5C1
330
5C0
100
AcDbEntity
  8
0
100
AcDbBlockBegin
  2
*G55
 70
     1
 71
     0
 10
0.0
 20
0.0
 30
0.0
  3
*G55
  1

  0
LINE
  5
5C3
330
5C0
100
AcDbEntity
  8
5
  6
Continuous
 62
     3
370
     9
100
AcDbLine
 10
455.7688192259241
 20
192.7572456155881
 30
0.0
 11
456.5726639218953
 21
195.7572484034125
 31
0.0
  0
LINE
  5
5C4
330
5C0
100
AcDbEntity
  8
5
  6
Continuous
 62
     3
370
     9
100
AcDbLine
 10
456.5726639218953
 20
195.7572484034125
 30
0.0
 11
457.3765086178665
 21
192.7572456155881
 31
0.0
  0
LINE
  5
5C5
330
5C0
100
AcDbEntity
  8
5
  6
Continuous
 62
     3
370
     9
100
AcDbLine
 10
456.5726639218953
 20
195.7572484034125
 30
0.0
 11
456.5726639218953
 21
192.7572456155881
 31
0.0
  0
ENDBLK
  5
5C2
330
5C0
100
AcDbEntity
  8
0
100
AcDbBlockEnd
  0
BLOCK
  5
5C8
330
5C7
100
AcDbEntity
  8
0
100
AcDbBlockBegin
  2
*G56
 70
     1
 71
     0
 10
0.0
 20
0.0
 30
0.0
  3
*G56
  1

  0
LINE
  5
5CA
330
5C7
100
AcDbEntity
  8
5
  6
Continuous
 62
     3
370
     9
100
AcDbLine
 10
457.3765086178665
 20
116.8572511912367
 30
0.0
 11
456.5726639218953
 21
113.8572484034123
 31
0.0
  0
LINE
  5
5CB
330
5C7
100
AcDbEntity
  8
5
  6
Continuous
 62
     3
370
     9
100
AcDbLine
 10
456.5726639218953
 20
113.8572484034123
 30
0.0
 11
455.7688192259241
 21
116.8572511912367
 31
0.0
  0
LINE
  5
5CC
330
5C7
100
AcDbEntity
  8
5
  6
Continuous
 62
     3
370
     9
100
AcDbLine
 10
456.5726639218953
 20
113.8572484034123
 30
0.0
 11
456.5726639218953
 21
116.8572511912367
 31
0.0
  0
ENDBLK
  5
5C9
330
5C7
100
AcDbEntity
  8
0
100
AcDbBlockEnd
  0
BLOCK
  5
5D0
330
5CF
100
AcDbEntity
  8
0
100
AcDbBlockBegin
  2
*G57
 70
     1
 71
     0
 10
0.0
 20
0.0
 30
0.0
  3
*G57
  1

  0
LINE
  5
5D2
330
5CF
100
AcDbEntity
  8
5
  6
Continuous
 62
     3
370
     9
100
AcDbLine
 10
449.3765086178665
 20
154.4572511912367
 30
0.0
 11
448.5726639218953
 21
151.4572484034123
 31
0.0
  0
LINE
  5
5D3
330
5CF
100
AcDbEntity
  8
5
  6
Continuous
 62
     3
370
     9
100
AcDbLine
 10
448.5726639218953
 20
151.4572484034123
 30
0.0
 11
447.7688192259241
 21
154.4572511912367
 31
0.0
  0
LINE
  5
5D4
330
5CF
100
AcDbEntity
  8
5
  6
Continuous
 62
     3
370
     9
100
AcDbLine
 10
448.5726639218953
 20
151.4572484034123
 30
0.0
 11
448.5726639218953
 21
154.4572511912367
 31
0.0
  0
ENDBLK
  5
5D1
330
5CF
100
AcDbEntity
  8
0
100
AcDbBlockEnd
  0
BLOCK
  5
5D7
330
5D6
100
AcDbEntity
  8
0
100
AcDbBlockBegin
  2
*G58
 70
     1
 71
     0
 10
0.0
 20
0.0
 30
0.0
  3
*G58
  1

  0
LINE
  5
5D9
330
5D6
100
AcDbEntity
  8
5
  6
Continuous
 62
     3
370
     9
100
AcDbLine
 10
447.7688192259241
 20
192.7572456155879
 30
0.0
 11
448.5726639218953
 21
195.7572484034123
 31
0.0
  0
LINE
  5
5DA
330
5D6
100
AcDbEntity
  8
5
  6
Continuous
 62
     3
370
     9
100
AcDbLine
 10
448.5726639218953
 20
195.7572484034123
 30
0.0
 11
449.3765086178665
 21
192.7572456155879
 31
0.0
  0
LINE
  5
5DB
330
5D6
100
AcDbEntity
  8
5
  6
Continuous
 62
     3
370
     9
100
AcDbLine
 10
448.5726639218953
 20
195.7572484034123
 30
0.0
 11
448.5726639218953
 21
192.7572456155879
 31
0.0
  0
ENDBLK
  5
5D8
330
5D6
100
AcDbEntity
  8
0
100
AcDbBlockEnd
  0
BLOCK
  5
5DF
330
5DE
100
AcDbEntity
  8
0
100
AcDbBlockBegin
  2
*G59
 70
     1
 71
     0
 10
0.0
 20
0.0
 30
0.0
  3
*G59
  1

  0
LINE
  5
5E1
330
5DE
100
AcDbEntity
  8
5
  6
Continuous
 62
     3
370
     9
100
AcDbLine
 10
404.7760995413976
 20
117.9441905232082
 30
0.0
 11
404.0226639218952
 21
120.9572484034123
 31
0.0
  0
LINE
  5
5E2
330
5DE
100
AcDbEntity
  8
5
  6
Continuous
 62
     3
370
     9
100
AcDbLine
 10
404.0226639218952
 20
120.9572484034123
 30
0.0
 11
406.1816822098189
 21
118.7245766732635
 31
0.0
  0
LINE
  5
5E3
330
5DE
100
AcDbEntity
  8
5
  6
Continuous
 62
     3
370
     9
100
AcDbLine
 10
404.0226639218952
 20
120.9572484034123
 30
0.0
 11
405.4788908756083
 21
118.3343835982358
 31
0.0
  0
ENDBLK
  5
5E0
330
5DE
100
AcDbEntity
  8
0
100
AcDbBlockEnd
  0
BLOCK
  5
5E7
330
5E6
100
AcDbEntity
  8
0
100
AcDbBlockBegin
  2
*G60
 70
     1
 71
     0
 10
0.0
 20
0.0
 30
0.0
  3
*G60
  1

  0
LINE
  5
5E9
330
5E6
100
AcDbEntity
  8
5
  6
Continuous
 62
     3
370
     9
100
AcDbLine
 10
322.5975705876594
 20
150.4132120016503
 30
0.0
 11
325.5226639218953
 21
151.4572484034123
 31
0.0
  0
LINE
  5
5EA
330
5E6
100
AcDbEntity
  8
5
  6
Continuous
 62
     3
370
     9
100
AcDbLine
 10
325.5226639218953
 20
151.4572484034123
 30
0.0
 11
323.5114716456033
 21
149.0905442288314
 31
0.0
  0
LINE
  5
5EB
330
5E6
100
AcDbEntity
  8
5
  6
Continuous
 62
     3
370
     9
100
AcDbLine
 10
325.5226639218953
 20
151.4572484034123
 30
0.0
 11
323.0545211166313
 21
149.7518781152409
 31
0.0
  0
ENDBLK
  5
5E8
330
5E6
100
AcDbEntity
  8
0
100
AcDbBlockEnd
  0
BLOCK
  5
715
330
714
100
AcDbEntity
  8
0
100
AcDbBlockBegin
  2
*G61
 70
     1
 71
     0
 10
0.0
 20
0.0
 30
0.0
  3
*G61
  1

  0
LINE
  5
717
330
714
100
AcDbEntity
  8
5
  6
Continuous
 62
     3
370
     9
100
AcDbLine
 10
528.987663115363
 20
131.2705880284751
 30
0.0
 11
526.9153111179191
 21
128.9572484034124
 31
0.0
  0
LINE
  5
718
330
714
100
AcDbEntity
  8
5
  6
Continuous
 62
     3
370
     9
100
AcDbLine
 10
526.9153111179191
 20
128.9572484034124
 30
0.0
 11
527.5533576406257
 21
131.9968338450569
 31
0.0
  0
LINE
  5
719
330
714
100
AcDbEntity
  8
5
  6
Continuous
 62
     3
370
     9
100
AcDbLine
 10
526.9153111179191
 20
128.9572484034124
 30
0.0
 11
528.2705103779944
 21
131.633710936766
 31
0.0
  0
ENDBLK
  5
716
330
714
100
AcDbEntity
  8
0
100
AcDbBlockEnd
  0
ENDSEC
  0
SECTION
  2
ENTITIES
  0
LINE
  5
8B
330
1F
100
AcDbEntity
  8
7
  6
DASHDOT
 62
     4
370
     9
100
AcDbLine
 10
383.0226639218953
 20
243.9329713205288
 30
0.0
 11
383.0226639218953
 21
305.0090875815002
 31
0.0
  0
LINE
  5
8C
330
1F
100
AcDbEntity
  8
7
  6
DASHDOT
 62
     4
370
     9
100
AcDbLine
 10
404.0226639218953
 20
277.0467840960196
 30
0.0
 11
404.0226639218953
 21
239.2553869093338
 31
0.0
  0
LINE
  5
8D
330
1F
100
AcDbEntity
  8
7
  6
DASHDOT
 62
     4
370
     9
100
AcDbLine
 10
381.5226639218953
 20
258.8348707032499
 30
0.0
 11
443.0195152406906
 21
258.8348707032499
 31
0.0
  0
LINE
  5
8E
330
1F
100
AcDbEntity
  8
7
  6
DASHDOT
 62
     4
370
     9
100
AcDbLine
 10
321.1295191497089
 20
258.8348707032499
 30
0.0
 11
383.0226639218953
 21
258.83487070325
 31
0.0
  0
LINE
  5
8F
330
1F
100
AcDbEntity
  8
7
  6
DASHDOT
 62
     4
370
     9
100
AcDbLine
 10
434.8226639218953
 20
248.1818635455639
 30
0.0
 11
434.8226639218953
 21
267.0012273428518
 31
0.0
  0
LINE
  5
90
330
1F
100
AcDbEntity
  8
26
  6
DASHDOT
 62
     7
370
     9
100
AcDbLine
 10
362.0226639218953
 20
283.7913136247766
 30
0.0
 11
362.0226639218953
 21
240.2848169494894
 31
0.0
  0
LINE
  5
91
330
1F
100
AcDbEntity
  8
7
  6
DASHDOT
 62
     4
370
     9
100
AcDbLine
 10
202.5332182957011
 20
228.3348707032499
 30
0.0
 11
275.5170651366523
 21
228.3348707032499
 31
0.0
  0
LINE
  5
92
330
1F
100
AcDbEntity
  8
7
  6
DASHDOT
 62
     4
370
     9
100
AcDbLine
 10
244.3210122416603
 20
250.8348707032497
 30
0.0
 11
299.9626905580125
 21
250.8348707032497
 31
0.0
  0
LINE
  5
93
330
1F
100
AcDbEntity
  8
7
  6
DASHDOT
 62
     4
370
     9
100
AcDbLine
 10
219.5447545197232
 20
296.4126093532867
 30
0.0
 11
219.5447545197232
 21
212.054043837315
 31
0.0
  0
LINE
  5
94
330
1F
100
AcDbEntity
  8
7
  6
DASHDOT
 62
     4
370
     9
100
AcDbLine
 10
261.5447545197232
 20
296.4126093532867
 30
0.0
 11
261.5447545197232
 21
212.6862756402247
 31
0.0
  0
LINE
  5
95
330
1F
100
AcDbEntity
  8
7
  6
DASHDOT
 62
     4
370
     9
100
AcDbLine
 10
237.9731400315663
 20
250.8348707032499
 30
0.0
 11
181.120697989481
 21
250.8348707032499
 31
0.0
  0
LINE
  5
96
330
1F
100
AcDbEntity
  8
7
  6
DASHDOT
 62
     4
370
     9
100
AcDbLine
 10
188.7447545197233
 20
218.1037080871996
 30
0.0
 11
188.7447545197233
 21
259.9566944062885
 31
0.0
  0
LINE
  5
97
330
1F
100
AcDbEntity
  8
7
  6
DASHDOT
 62
     4
370
     9
100
AcDbLine
 10
260.6704326390722
 20
197.4377774980808
 30
0.0
 11
260.6704326390722
 21
110.354404671984
 31
0.0
  0
LINE
  5
98
330
1F
100
AcDbEntity
  8
7
  6
DASHDOT
 62
     4
370
     9
100
AcDbLine
 10
243.4571990076508
 20
151.4572484034123
 30
0.0
 11
278.6231089958071
 21
151.4572484034123
 31
0.0
  0
LINE
  5
99
330
1F
100
AcDbEntity
  8
7
  6
DASHDOT
 62
     4
370
     9
100
AcDbLine
 10
218.3695521086374
 20
128.9572484034122
 30
0.0
 11
279.2426411169155
 21
128.9572484034122
 31
0.0
  0
LINE
  5
9A
330
1F
100
AcDbEntity
  8
7
  6
DASHDOT
 62
     4
370
     9
100
AcDbLine
 10
485.9153111179192
 20
197.0739669758546
 30
0.0
 11
485.9153111179192
 21
110.8837477489581
 31
0.0
  0
LINE
  5
9B
330
1F
100
AcDbEntity
  8
7
  6
DASHDOT
 62
     4
370
     9
100
AcDbLine
 10
527.3928343736911
 20
128.9572484034123
 30
0.0
 11
467.3431026400757
 21
128.9572484034123
 31
0.0
  0
LINE
  5
9C
330
1F
100
AcDbEntity
  8
7
  6
DASHDOT
 62
     4
370
     9
100
AcDbLine
 10
383.0226639218953
 20
160.6497352389221
 30
0.0
 11
383.0226639218953
 21
112.6057269115056
 31
0.0
  0
LINE
  5
9D
330
1F
100
AcDbEntity
  8
7
  6
DASHDOT
 62
     4
370
     9
100
AcDbLine
 10
434.8226639218952
 20
118.726085787362
 30
0.0
 11
434.8226639218952
 21
160.579072106451
 31
0.0
  0
LINE
  5
9E
330
1F
100
AcDbEntity
  8
7
  6
DASHDOT
 62
     4
370
     9
100
AcDbLine
 10
378.630049628498
 20
151.4572484034123
 30
0.0
 11
323.7409228134795
 21
151.4572484034123
 31
0.0
  0
LINE
  5
9F
330
1F
100
AcDbEntity
  8
7
  6
DASHDOT
 62
     4
370
     9
100
AcDbLine
 10
387.4152782152926
 20
151.4572484034123
 30
0.0
 11
442.9467285057565
 21
151.4572484034123
 31
0.0
  0
LINE
  5
A0
330
1F
100
AcDbEntity
  8
7
  6
DASHDOT
 62
     4
370
     9
100
AcDbLine
 10
404.0226639218952
 20
199.0388165871806
 30
0.0
 11
404.0226639218952
 21
114.5239978919939
 31
0.0
  0
LINE
  5
A1
330
1F
100
AcDbEntity
  8
7
  6
DASHDOT
 62
     4
370
     9
100
AcDbLine
 10
362.0226639218952
 20
199.0388165871806
 30
0.0
 11
362.0226639218953
 21
114.5239978919939
 31
0.0
  0
LINE
  5
A2
330
1F
100
AcDbEntity
  8
26
  6
DASHDOT
 62
     7
370
     9
100
AcDbLine
 10
357.1651429585571
 20
278.43487070325
 30
0.0
 11
366.5870549094245
 21
278.43487070325
 31
0.0
  0
LINE
  5
A3
330
1F
100
AcDbEntity
  8
26
  6
Continuous
 62
     7
370
     9
100
AcDbLine
 10
426.0226639218953
 20
268.83487070325
 30
0.0
 11
416.3199197133311
 21
268.83487070325
 31
0.0
  0
LINE
  5
A4
330
1F
100
AcDbEntity
  8
26
  6
Continuous
 62
     7
370
     9
100
AcDbLine
 10
426.0226639218954
 20
248.8348707032499
 30
0.0
 11
416.3199197133311
 21
248.8348707032499
 31
0.0
  0
LINE
  5
A5
330
1F
100
AcDbEntity
  8
26
  6
Continuous
 62
     7
370
     9
100
AcDbLine
 10
397.9831810806408
 20
281.83487070325
 30
0.0
 11
368.0226639218951
 21
281.83487070325
 31
0.0
  0
LINE
  5
A6
330
1F
100
AcDbEntity
  8
26
  6
Continuous
 62
     7
370
     9
100
AcDbLine
 10
427.0226639218953
 20
267.83487070325
 30
0.0
 11
427.0226639218953
 21
249.83487070325
 31
0.0
  0
ARC
  5
A7
330
1F
100
AcDbEntity
  8
26
  6
Continuous
 62
     7
370
     9
100
AcDbCircle
 10
426.0226639218953
 20
267.83487070325
 30
0.0
 40
1.0
100
AcDbArc
 50
0.0
 51
89.99999999999991
  0
ARC
  5
A8
330
1F
100
AcDbEntity
  8
26
  6
Continuous
 62
     7
370
     9
100
AcDbCircle
 10
426.0226639218954
 20
249.83487070325
 30
0.0
 40
1.0
100
AcDbArc
 50
269.9999999999998
 51
0.0
  0
ARC
  5
A9
330
1F
100
AcDbEntity
  8
26
  6
Continuous
 62
     7
370
     9
100
AcDbCircle
 10
278.8226639218953
 20
258.83487070325
 30
0.0
 40
120.0
100
AcDbArc
 50
354.9865548226553
 51
5.013445177344129
  0
ARC
  5
AA
330
1F
100
AcDbEntity
  8
26
  6
Continuous
 62
     7
370
     9
100
AcDbCircle
 10
395.7188887979571
 20
248.5801345105102
 30
0.0
 40
2.654838171071162
100
AcDbArc
 50
231.0011692994333
 51
354.9865548226549
  0
ARC
  5
AB
330
1F
100
AcDbEntity
  8
26
  6
Continuous
 62
     7
370
     9
100
AcDbCircle
 10
404.0226639218952
 20
258.83487070325
 30
0.0
 40
13.0
100
AcDbArc
 50
246.3080680839294
 51
293.6919319160693
  0
LINE
  5
AC
330
1F
100
AcDbEntity
  8
26
  6
Continuous
 62
     7
370
     9
100
AcDbLine
 10
399.8226639218953
 20
269.0014827249611
 30
0.0
 11
399.8226639218953
 21
248.6682586815389
 31
0.0
  0
ARC
  5
AD
330
1F
100
AcDbEntity
  8
26
  6
Continuous
 62
     7
370
     9
100
AcDbCircle
 10
404.0226639218952
 20
258.83487070325
 30
0.0
 40
11.0
100
AcDbArc
 50
247.5536494185498
 51
292.4463505814488
  0
ARC
  5
AE
330
1F
100
AcDbEntity
  8
26
  6
Continuous
 62
     7
370
     9
100
AcDbCircle
 10
404.0226639218952
 20
258.83487070325
 30
0.0
 40
11.0
100
AcDbArc
 50
67.55364941855052
 51
112.4463505814495
  0
ARC
  5
AF
330
1F
100
AcDbEntity
  8
26
  6
Continuous
 62
     7
370
     9
100
AcDbCircle
 10
529.2226639218951
 20
258.83487070325
 30
0.0
 40
120.0
100
AcDbArc
 50
174.9865548226558
 51
185.0134451773433
  0
LINE
  5
B0
330
1F
100
AcDbEntity
  8
26
  6
Continuous
 62
     7
370
     9
100
AcDbLine
 10
408.2226639218952
 20
269.0014827249611
 30
0.0
 11
408.2226639218952
 21
248.6682586815389
 31
0.0
  0
ARC
  5
B1
330
1F
100
AcDbEntity
  8
26
  6
Continuous
 62
     7
370
     9
100
AcDbCircle
 10
412.3264390458333
 20
248.5801345105102
 30
0.0
 40
2.654838171071162
100
AcDbArc
 50
185.0134451773438
 51
308.998830700566
  0
ARC
  5
B2
330
1F
100
AcDbEntity
  8
26
  6
Continuous
 62
     7
370
     9
100
AcDbCircle
 10
395.7188887979571
 20
269.0896068959898
 30
0.0
 40
2.654838171071162
100
AcDbArc
 50
5.013445177343513
 51
128.998830700566
  0
ARC
  5
B3
330
1F
100
AcDbEntity
  8
26
  6
Continuous
 62
     7
370
     9
100
AcDbCircle
 10
404.0226639218952
 20
258.83487070325
 30
0.0
 40
13.0
100
AcDbArc
 50
66.30806808393001
 51
113.69193191607
  0
ARC
  5
B4
330
1F
100
AcDbEntity
  8
26
  6
Continuous
 62
     7
370
     9
100
AcDbCircle
 10
412.3264390458333
 20
269.0896068959898
 30
0.0
 40
2.654838171071162
100
AcDbArc
 50
51.00116929943405
 51
174.9865548226553
  0
CIRCLE
  5
B5
330
1F
100
AcDbEntity
  8
26
  6
Continuous
 62
     7
370
     9
100
AcDbCircle
 10
404.0226639218953
 20
258.8348707032499
 30
0.0
 40
15.85000000000002
  0
ARC
  5
B6
330
1F
100
AcDbEntity
  8
26
  6
Continuous
 62
     7
370
     9
100
AcDbCircle
 10
362.0226639218953
 20
384.0348707032498
 30
0.0
 40
120.0
100
AcDbArc
 50
264.9865548226551
 51
275.0134451773434
  0
ARC
  5
B7
330
1F
100
AcDbEntity
  8
26
  6
Continuous
 62
     7
370
     9
100
AcDbCircle
 10
351.7679277291555
 20
267.1386458271881
 30
0.0
 40
2.654838171071162
100
AcDbArc
 50
141.0011692994341
 51
264.9865548226562
  0
ARC
  5
B8
330
1F
100
AcDbEntity
  8
26
  6
Continuous
 62
     7
370
     9
100
AcDbCircle
 10
362.0226639218953
 20
258.8348707032499
 30
0.0
 40
13.0
100
AcDbArc
 50
156.3080680839323
 51
203.691931916067
  0
LINE
  5
B9
330
1F
100
AcDbEntity
  8
26
  6
Continuous
 62
     7
370
     9
100
AcDbLine
 10
372.1892759436064
 20
263.0348707032499
 30
0.0
 11
351.8560519001843
 21
263.0348707032499
 31
0.0
  0
ARC
  5
BA
330
1F
100
AcDbEntity
  8
26
  6
Continuous
 62
     7
370
     9
100
AcDbCircle
 10
362.0226639218953
 20
258.8348707032499
 30
0.0
 40
11.0
100
AcDbArc
 50
157.5536494185499
 51
202.4463505814493
  0
ARC
  5
BB
330
1F
100
AcDbEntity
  8
26
  6
Continuous
 62
     7
370
     9
100
AcDbCircle
 10
362.0226639218953
 20
258.8348707032499
 30
0.0
 40
11.0
100
AcDbArc
 50
337.5536494185494
 51
22.44635058145013
  0
ARC
  5
BC
330
1F
100
AcDbEntity
  8
26
  6
Continuous
 62
     7
370
     9
100
AcDbCircle
 10
362.0226639218953
 20
133.6348707032499
 30
0.0
 40
120.0
100
AcDbArc
 50
84.98655482265586
 51
95.0134451773441
  0
LINE
  5
BD
330
1F
100
AcDbEntity
  8
26
  6
Continuous
 62
     7
370
     9
100
AcDbLine
 10
372.1892759436064
 20
254.6348707032499
 30
0.0
 11
351.8560519001843
 21
254.6348707032499
 31
0.0
  0
ARC
  5
BE
330
1F
100
AcDbEntity
  8
26
  6
Continuous
 62
     7
370
     9
100
AcDbCircle
 10
351.7679277291555
 20
250.5310955793118
 30
0.0
 40
2.654838171071162
100
AcDbArc
 50
95.01344517734351
 51
218.9988307005652
  0
ARC
  5
BF
330
1F
100
AcDbEntity
  8
26
  6
Continuous
 62
     7
370
     9
100
AcDbCircle
 10
372.2774001146352
 20
267.1386458271881
 30
0.0
 40
2.654838171071162
100
AcDbArc
 50
275.0134451773432
 51
38.99883070056845
  0
ARC
  5
C0
330
1F
100
AcDbEntity
  8
26
  6
Continuous
 62
     7
370
     9
100
AcDbCircle
 10
362.0226639218953
 20
258.8348707032499
 30
0.0
 40
13.0
100
AcDbArc
 50
336.3080680839313
 51
23.6919319160691
  0
ARC
  5
C1
330
1F
100
AcDbEntity
  8
26
  6
Continuous
 62
     7
370
     9
100
AcDbCircle
 10
372.2774001146352
 20
250.5310955793118
 30
0.0
 40
2.654838171071162
100
AcDbArc
 50
321.0011692994307
 51
84.98655482265649
  0
CIRCLE
  5
C2
330
1F
100
AcDbEntity
  8
26
  6
Continuous
 62
     7
370
     9
100
AcDbCircle
 10
362.0226639218953
 20
258.8348707032499
 30
0.0
 40
15.85000000000002
  0
LINE
  5
C3
330
1F
100
AcDbEntity
  8
26
  6
Continuous
 62
     7
370
     9
100
AcDbLine
 10
368.0226639218953
 20
299.33487070325
 30
0.0
 11
368.0226639218953
 21
281.83487070325
 31
0.0
  0
LINE
  5
C4
330
1F
100
AcDbEntity
  8
26
  6
Continuous
 62
     7
370
     9
100
AcDbLine
 10
376.4843155065843
 20
299.33487070325
 30
0.0
 11
376.4843155065843
 21
283.83487070325
 31
0.0
  0
LINE
  5
C5
330
1F
100
AcDbEntity
  8
26
  6
Continuous
 62
     7
370
     9
100
AcDbLine
 10
374.5610123372063
 20
299.33487070325
 30
0.0
 11
374.5610123372063
 21
283.83487070325
 31
0.0
  0
LINE
  5
C6
330
1F
100
AcDbEntity
  8
26
  6
Continuous
 62
     7
370
     9
100
AcDbLine
 10
374.6004951784609
 20
299.33487070325
 30
0.0
 11
376.4843155065843
 21
299.33487070325
 31
0.0
  0
LINE
  5
C7
330
1F
100
AcDbEntity
  8
26
  6
Continuous
 62
     7
370
     9
100
AcDbLine
 10
368.0226639218953
 20
299.33487070325
 30
0.0
 11
368.8886893256797
 21
299.83487070325
 31
0.0
  0
ARC
  5
C8
330
1F
100
AcDbEntity
  8
26
  6
Continuous
 62
     7
370
     9
100
AcDbCircle
 10
371.2918381295508
 20
288.89737070325
 30
0.0
 40
10.93749999999994
100
AcDbArc
 50
72.6086979539734
 51
107.3913020460266
  0
LINE
  5
C9
330
1F
100
AcDbEntity
  8
26
  6
Continuous
 62
     7
370
     9
100
AcDbLine
 10
397.9831810806408
 20
299.33487070325
 30
0.0
 11
397.9831810806408
 21
281.83487070325
 31
0.0
  0
LINE
  5
CA
330
1F
100
AcDbEntity
  8
26
  6
Continuous
 62
     7
370
     9
100
AcDbLine
 10
389.5610123372064
 20
299.33487070325
 30
0.0
 11
389.5610123372064
 21
283.83487070325
 31
0.0
  0
LINE
  5
CB
330
1F
100
AcDbEntity
  8
26
  6
Continuous
 62
     7
370
     9
100
AcDbLine
 10
391.4448326653297
 20
299.33487070325
 30
0.0
 11
391.4448326653297
 21
283.83487070325
 31
0.0
  0
LINE
  5
CC
330
1F
100
AcDbEntity
  8
26
  6
Continuous
 62
     7
370
     9
100
AcDbLine
 10
391.4448326653297
 20
299.33487070325
 30
0.0
 11
389.5610123372064
 21
299.33487070325
 31
0.0
  0
LINE
  5
CD
330
1F
100
AcDbEntity
  8
26
  6
Continuous
 62
     7
370
     9
100
AcDbLine
 10
397.9831810806408
 20
299.33487070325
 30
0.0
 11
397.1171556768563
 21
299.83487070325
 31
0.0
  0
ARC
  5
CE
330
1F
100
AcDbEntity
  8
26
  6
Continuous
 62
     7
370
     9
100
AcDbCircle
 10
394.7140068729853
 20
288.89737070325
 30
0.0
 40
10.93749999999994
100
AcDbArc
 50
72.6086979539734
 51
107.3913020460266
  0
ARC
  5
CF
330
1F
100
AcDbEntity
  8
26
  6
Continuous
 62
     7
370
     9
100
AcDbCircle
 10
383.0226639218953
 20
256.83487070325
 30
0.0
 40
43.0
100
AcDbArc
 50
81.25398671675755
 51
98.74601328324245
  0
LINE
  5
D0
330
1F
100
AcDbEntity
  8
26
  6
Continuous
 62
     7
370
     9
100
AcDbLine
 10
397.1171556768563
 20
299.83487070325
 30
0.0
 11
368.9281721669344
 21
299.83487070325
 31
0.0
  0
LINE
  5
D1
330
1F
100
AcDbEntity
  8
26
  6
Continuous
 62
     7
370
     9
100
AcDbLine
 10
374.5610123372063
 20
283.83487070325
 30
0.0
 11
368.0226639218953
 21
283.83487070325
 31
0.0
  0
LINE
  5
D2
330
1F
100
AcDbEntity
  8
26
  6
Continuous
 62
     7
370
     9
100
AcDbLine
 10
397.9831810806408
 20
283.83487070325
 30
0.0
 11
391.4448326653297
 21
283.83487070325
 31
0.0
  0
LINE
  5
D3
330
1F
100
AcDbEntity
  8
26
  6
Continuous
 62
     7
370
     9
100
AcDbLine
 10
389.5610123372064
 20
283.83487070325
 30
0.0
 11
376.4843155065843
 21
283.83487070325
 31
0.0
  0
ARC
  5
D4
330
1F
100
AcDbEntity
  8
26
  6
Continuous
 62
     7
370
     9
100
AcDbCircle
 10
368.5226639218953
 20
281.3348707032499
 30
0.0
 40
0.5
100
AcDbArc
 50
89.99999999999991
 51
179.9999999999998
  0
ARC
  5
D5
330
1F
100
AcDbEntity
  8
26
  6
Continuous
 62
     7
370
     9
100
AcDbCircle
 10
397.5226639218954
 20
281.3348707032499
 30
0.0
 40
0.5
100
AcDbArc
 50
0.0
 51
89.99999999999991
  0
LINE
  5
D6
330
1F
100
AcDbEntity
  8
26
  6
Continuous
 62
     7
370
     9
100
AcDbLine
 10
398.0226639218953
 20
281.3348707032499
 30
0.0
 11
398.0226639218953
 21
273.5053342269427
 31
0.0
  0
LINE
  5
D7
330
1F
100
AcDbEntity
  8
26
  6
Continuous
 62
     7
370
     9
100
AcDbLine
 10
368.0226639218953
 20
281.3348707032499
 30
0.0
 11
368.0226639218953
 21
273.5053342269427
 31
0.0
  0
LINE
  5
D8
330
1F
100
AcDbEntity
  8
26
  6
Continuous
 62
     7
370
     9
100
AcDbLine
 10
369.4538482151289
 20
244.8348707032499
 30
0.0
 11
396.5914796286618
 21
244.8348707032499
 31
0.0
  0
LINE
  5
D9
330
1F
100
AcDbEntity
  8
26
  6
Continuous
 62
     7
370
     9
100
AcDbLine
 10
427.6226639218953
 20
266.75987070325
 30
0.0
 11
427.0226639218953
 21
266.75987070325
 31
0.0
  0
LINE
  5
DA
330
1F
100
AcDbEntity
  8
26
  6
Continuous
 62
     7
370
     9
100
AcDbLine
 10
427.6226639218953
 20
250.9098707032499
 30
0.0
 11
427.0226639218953
 21
250.9098707032499
 31
0.0
  0
LINE
  5
DB
330
1F
100
AcDbEntity
  8
26
  6
Continuous
 62
     7
370
     9
100
AcDbLine
 10
427.6226639218953
 20
250.9098707032499
 30
0.0
 11
427.6226639218953
 21
266.75987070325
 31
0.0
  0
ARC
  5
DC
330
1F
100
AcDbEntity
  8
26
  6
Continuous
 62
     7
370
     9
100
AcDbCircle
 10
431.5257876708943
 20
269.88487070325
 30
0.0
 40
5.0
100
AcDbArc
 50
218.6821874534881
 51
269.9999999999998
  0
ARC
  5
DD
330
1F
100
AcDbEntity
  8
26
  6
Continuous
 62
     7
370
     9
100
AcDbCircle
 10
431.5257876708943
 20
247.7848707032499
 30
0.0
 40
5.0
100
AcDbArc
 50
89.99999999999991
 51
141.3178125465109
  0
ARC
  5
DE
330
1F
100
AcDbEntity
  8
26
  6
Continuous
 62
     7
370
     9
100
AcDbCircle
 10
434.8226639218953
 20
258.8348707032499
 30
0.0
 40
6.050000000000011
100
AcDbArc
 50
305.3459804275978
 51
54.65401957239794
  0
LINE
  5
DF
330
1F
100
AcDbEntity
  8
6
  6
Continuous
 62
     2
370
     9
100
AcDbLine
 10
264.5448213377576
 20
249.834757495702
 30
0.0
 11
264.5448213377576
 21
248.8347574957021
 31
0.0
  0
LINE
  5
E0
330
1F
100
AcDbEntity
  8
6
  6
Continuous
 62
     2
370
     9
100
AcDbLine
 10
266.5448213377576
 20
250.8347574957021
 30
0.0
 11
264.5448213377576
 21
248.8347574957021
 31
0.0
  0
LINE
  5
E1
330
1F
100
AcDbEntity
  8
6
  6
Continuous
 62
     2
370
     9
100
AcDbLine
 10
262.5443877280094
 20
249.834757495702
 30
0.0
 11
264.5448213377576
 21
249.834757495702
 31
0.0
  0
LINE
  5
E2
330
1F
100
AcDbEntity
  8
6
  6
Continuous
 62
     2
370
     9
100
AcDbLine
 10
264.5448213377576
 20
252.8347574957021
 30
0.0
 11
266.5448213377576
 21
250.8347574957021
 31
0.0
  0
LINE
  5
E3
330
1F
100
AcDbEntity
  8
6
  6
Continuous
 62
     2
370
     9
100
AcDbLine
 10
264.5448213377576
 20
252.8347574957021
 30
0.0
 11
264.5448213377576
 21
251.834757495702
 31
0.0
  0
LINE
  5
E4
330
1F
100
AcDbEntity
  8
6
  6
Continuous
 62
     2
370
     9
100
AcDbLine
 10
260.5443877280094
 20
251.8347574957021
 30
0.0
 11
264.5448213377576
 21
251.834757495702
 31
0.0
  0
LINE
  5
E5
330
1F
100
AcDbEntity
  8
6
  6
Continuous
 62
     2
370
     9
100
AcDbLine
 10
260.5443877280094
 20
251.8347574957021
 30
0.0
 11
260.5443877280094
 21
245.8346442881543
 31
0.0
  0
LINE
  5
E6
330
1F
100
AcDbEntity
  8
6
  6
Continuous
 62
     2
370
     9
100
AcDbLine
 10
260.5443877280094
 20
245.8346442881543
 30
0.0
 11
262.5443877280094
 21
245.8346442881542
 31
0.0
  0
LINE
  5
E7
330
1F
100
AcDbEntity
  8
6
  6
Continuous
 62
     2
370
     9
100
AcDbLine
 10
262.5443877280094
 20
249.834757495702
 30
0.0
 11
262.5443877280094
 21
245.8346442881542
 31
0.0
  0
LINE
  5
E8
330
1F
100
AcDbEntity
  8
26
  6
Continuous
 62
     7
370
     9
100
AcDbLine
 10
234.0064061044123
 20
214.8348707032499
 30
0.0
 11
213.0447545197232
 21
214.8348707032499
 31
0.0
  0
LINE
  5
E9
330
1F
100
AcDbEntity
  8
26
  6
Continuous
 62
     7
370
     9
100
AcDbLine
 10
233.5447545197233
 20
247.4345171209541
 30
0.0
 11
233.5447545197232
 21
245.8348707032498
 31
0.0
  0
CIRCLE
  5
EA
330
1F
100
AcDbEntity
  8
6
  6
Continuous
 62
     2
370
     9
100
AcDbCircle
 10
219.5447545197232
 20
223.3348707032499
 30
0.0
 40
1.5
  0
LINE
  5
EB
330
1F
100
AcDbEntity
  8
26
  6
Continuous
 62
     7
370
     9
100
AcDbLine
 10
247.083102935034
 20
214.8348707032498
 30
0.0
 11
262.0447545197232
 21
214.8348707032498
 31
0.0
  0
LINE
  5
EC
330
1F
100
AcDbEntity
  8
26
  6
Continuous
 62
     7
370
     9
100
AcDbLine
 10
247.5447545197232
 20
244.5829475125218
 30
0.0
 11
247.5447545197232
 21
262.8348707032497
 31
0.0
  0
LINE
  5
ED
330
1F
100
AcDbEntity
  8
26
  6
Continuous
 62
     7
370
     9
100
AcDbLine
 10
274.0447545197232
 20
233.8348707032497
 30
0.0
 11
274.0447545197232
 21
226.8348707032497
 31
0.0
  0
LINE
  5
EE
330
1F
100
AcDbEntity
  8
26
  6
Continuous
 62
     7
370
     9
100
AcDbLine
 10
275.5447545197232
 20
262.8348707032497
 30
0.0
 11
247.5447545197232
 21
262.8348707032497
 31
0.0
  0
LINE
  5
EF
330
1F
100
AcDbEntity
  8
26
  6
Continuous
 62
     7
370
     9
100
AcDbLine
 10
209.0761275531263
 20
216.3348707032499
 30
0.0
 11
207.0447545197232
 21
216.3348707032499
 31
0.0
  0
LINE
  5
F0
330
1F
100
AcDbEntity
  8
26
  6
Continuous
 62
     7
370
     9
100
AcDbLine
 10
206.5447545197232
 20
231.8348707032499
 30
0.0
 11
206.5447545197232
 21
216.8348707032499
 31
0.0
  0
ARC
  5
F1
330
1F
100
AcDbEntity
  8
26
  6
Continuous
 62
     7
370
     9
100
AcDbCircle
 10
207.0447545197232
 20
231.8348707032499
 30
0.0
 40
0.5
100
AcDbArc
 50
89.99999999999991
 51
179.9999999999998
  0
ARC
  5
F2
330
1F
100
AcDbEntity
  8
26
  6
Continuous
 62
     7
370
     9
100
AcDbCircle
 10
207.0447545197232
 20
216.8348707032499
 30
0.0
 40
0.5
100
AcDbArc
 50
179.9999999999998
 51
269.9999999999998
  0
LINE
  5
F3
330
1F
100
AcDbEntity
  8
26
  6
Continuous
 62
     7
370
     9
100
AcDbLine
 10
233.2947545197233
 20
262.8348707032499
 30
0.0
 11
233.5447545197233
 21
262.8348707032499
 31
0.0
  0
LINE
  5
F4
330
1F
100
AcDbEntity
  8
26
  6
Continuous
 62
     7
370
     9
100
AcDbLine
 10
205.5447545197232
 20
262.8348707032499
 30
0.0
 11
205.5447545197232
 21
262.3348707032499
 31
0.0
  0
LINE
  5
F5
330
1F
100
AcDbEntity
  8
26
  6
Continuous
 62
     7
370
     9
100
AcDbLine
 10
205.7947545197232
 20
262.8348707032499
 30
0.0
 11
205.5447545197232
 21
262.8348707032499
 31
0.0
  0
LINE
  5
F6
330
1F
100
AcDbEntity
  8
26
  6
Continuous
 62
     7
370
     9
100
AcDbLine
 10
205.5447545197232
 20
262.8348707032499
 30
0.0
 11
205.7947545197232
 21
262.8348707032499
 31
0.0
  0
LINE
  5
F7
330
1F
100
AcDbEntity
  8
26
  6
Continuous
 62
     7
370
     9
100
AcDbLine
 10
205.5447545197232
 20
262.8348707032499
 30
0.0
 11
205.5447545197232
 21
261.8348707032499
 31
0.0
  0
ARC
  5
F8
330
1F
100
AcDbEntity
  8
26
  6
Continuous
 62
     7
370
     9
100
AcDbCircle
 10
204.5447545197232
 20
261.8348707032499
 30
0.0
 40
1.0
100
AcDbArc
 50
269.9999999999998
 51
0.0
  0
LINE
  5
F9
330
1F
100
AcDbEntity
  8
26
  6
Continuous
 62
     7
370
     9
100
AcDbLine
 10
205.5447545197232
 20
262.8348707032499
 30
0.0
 11
233.5447545197233
 21
262.8348707032499
 31
0.0
  0
LINE
  5
FA
330
1F
100
AcDbEntity
  8
26
  6
Continuous
 62
     7
370
     9
100
AcDbLine
 10
207.0447545197232
 20
238.8348707032499
 30
0.0
 11
207.0447545197232
 21
220.8348707032499
 31
0.0
  0
ARC
  5
FB
330
1F
100
AcDbEntity
  8
26
  6
Continuous
 62
     7
370
     9
100
AcDbCircle
 10
197.0447545197232
 20
260.3348707032499
 30
0.0
 40
0.5
100
AcDbArc
 50
89.99999999999991
 51
179.9999999999998
  0
ARC
  5
FC
330
1F
100
AcDbEntity
  8
26
  6
Continuous
 62
     7
370
     9
100
AcDbCircle
 10
197.0447545197232
 20
241.3348707032499
 30
0.0
 40
0.5
100
AcDbArc
 50
179.9999999999998
 51
269.9999999999998
  0
LINE
  5
FD
330
1F
100
AcDbEntity
  8
26
  6
Continuous
 62
     7
370
     9
100
AcDbLine
 10
196.5447545197232
 20
260.3348707032499
 30
0.0
 11
196.5447545197232
 21
241.3348707032499
 31
0.0
  0
LINE
  5
FE
330
1F
100
AcDbEntity
  8
26
  6
Continuous
 62
     7
370
     9
100
AcDbLine
 10
197.0447545197232
 20
240.8348707032499
 30
0.0
 11
205.0447545197232
 21
240.8348707032499
 31
0.0
  0
LINE
  5
FF
330
1F
100
AcDbEntity
  8
26
  6
Continuous
 62
     7
370
     9
100
AcDbLine
 10
197.0447545197232
 20
260.8348707032499
 30
0.0
 11
204.5447545197232
 21
260.8348707032499
 31
0.0
  0
LINE
  5
100
330
1F
100
AcDbEntity
  8
26
  6
Continuous
 62
     7
370
     9
100
AcDbLine
 10
233.5447545197233
 20
244.5829475125218
 30
0.0
 11
233.5447545197233
 21
262.8348707032499
 31
0.0
  0
ARC
  5
101
330
1F
100
AcDbEntity
  8
26
  6
Continuous
 62
     7
370
     9
100
AcDbCircle
 10
205.0447545197232
 20
238.8348707032499
 30
0.0
 40
2.0
100
AcDbArc
 50
0.0
 51
89.99999999999991
  0
ARC
  5
102
330
1F
100
AcDbEntity
  8
26
  6
Continuous
 62
     7
370
     9
100
AcDbCircle
 10
213.0447545197232
 20
220.8348707032499
 30
0.0
 40
6.0
100
AcDbArc
 50
179.9999999999997
 51
269.9999999999994
  0
ARC
  5
103
330
1F
100
AcDbEntity
  8
26
  6
Continuous
 62
     7
370
     9
100
AcDbCircle
 10
195.7467955485904
 20
250.8348707032499
 30
0.0
 40
14.00000000000006
100
AcDbArc
 50
335.5464250716538
 51
45.58469140280661
  0
ARC
  5
104
330
1F
100
AcDbEntity
  8
26
  6
Continuous
 62
     7
370
     9
100
AcDbCircle
 10
217.4928645754611
 20
240.9458879131991
 30
0.0
 40
9.888982790050818
100
AcDbArc
 50
155.5464250716559
 51
169.4288433511282
  0
ARC
  5
105
330
1F
100
AcDbEntity
  8
26
  6
Continuous
 62
     7
370
     9
100
AcDbCircle
 10
202.0126260595655
 20
243.8348707032499
 30
0.0
 40
5.858525142007096
100
AcDbArc
 50
329.1979049731281
 51
349.4288433511275
  0
LINE
  5
106
330
1F
100
AcDbEntity
  8
26
  6
Continuous
 62
     7
370
     9
100
AcDbLine
 10
264.3447545197231
 20
262.3348707032497
 30
0.0
 11
264.3447545197231
 21
260.3348707032497
 31
0.0
  0
LINE
  5
107
330
1F
100
AcDbEntity
  8
26
  6
Continuous
 62
     7
370
     9
100
AcDbLine
 10
258.7447545197232
 20
260.3348707032497
 30
0.0
 11
258.7447545197232
 21
262.3348707032497
 31
0.0
  0
LINE
  5
108
330
1F
100
AcDbEntity
  8
26
  6
Continuous
 62
     7
370
     9
100
AcDbLine
 10
263.8447545197232
 20
259.8348707032497
 30
0.0
 11
259.2447545197233
 21
259.8348707032497
 31
0.0
  0
LINE
  5
109
330
1F
100
AcDbEntity
  8
26
  6
Continuous
 62
     7
370
     9
100
AcDbLine
 10
267.8495146261823
 20
243.8348707032497
 30
0.0
 11
247.5447545197231
 21
243.8348707032497
 31
0.0
  0
CIRCLE
  5
10A
330
1F
100
AcDbEntity
  8
26
  6
Continuous
 62
     7
370
     9
100
AcDbCircle
 10
240.5447545197232
 20
228.3348707032499
 30
0.0
 40
15.0
  0
LINE
  5
10B
330
1F
100
AcDbEntity
  8
26
  6
Continuous
 62
     7
370
     9
100
AcDbLine
 10
233.2947545197233
 20
262.8348707032499
 30
0.0
 11
233.2947545197233
 21
265.9348707032498
 31
0.0
  0
LINE
  5
10C
330
1F
100
AcDbEntity
  8
26
  6
Continuous
 62
     7
370
     9
100
AcDbLine
 10
205.7947545197232
 20
262.8348707032499
 30
0.0
 11
205.7947545197232
 21
265.9348707032498
 31
0.0
  0
LINE
  5
10D
330
1F
100
AcDbEntity
  8
26
  6
Continuous
 62
     7
370
     9
100
AcDbLine
 10
275.2947545197233
 20
262.8348707032499
 30
0.0
 11
275.2947545197233
 21
265.9348707032498
 31
0.0
  0
LINE
  5
10E
330
1F
100
AcDbEntity
  8
26
  6
Continuous
 62
     7
370
     9
100
AcDbLine
 10
247.7947545197232
 20
262.8348707032499
 30
0.0
 11
247.7947545197232
 21
265.9348707032498
 31
0.0
  0
LINE
  5
10F
330
1F
100
AcDbEntity
  8
26
  6
Continuous
 62
     7
370
     9
100
AcDbLine
 10
255.5052716784686
 20
229.4224948767968
 30
0.0
 11
248.9669232631576
 21
240.747246529703
 31
0.0
  0
CIRCLE
  5
110
330
1F
100
AcDbEntity
  8
26
  6
Continuous
 62
     7
370
     9
100
AcDbCircle
 10
240.5447545197232
 20
228.3348707032499
 30
0.0
 40
8.752434041133483
  0
CIRCLE
  5
111
330
1F
100
AcDbEntity
  8
26
  6
Continuous
 62
     7
370
     9
100
AcDbCircle
 10
240.5447545197232
 20
228.3348707032499
 30
0.0
 40
11.0
  0
CIRCLE
  5
112
330
1F
100
AcDbEntity
  8
26
  6
Continuous
 62
     7
370
     9
100
AcDbCircle
 10
240.5447545197232
 20
228.3348707032499
 30
0.0
 40
13.5
  0
LINE
  5
113
330
1F
100
AcDbEntity
  8
26
  6
Continuous
 62
     7
370
     9
100
AcDbLine
 10
255.5052716784686
 20
227.2472465297029
 30
0.0
 11
248.9669232631576
 21
215.9224948767969
 31
0.0
  0
LINE
  5
114
330
1F
100
AcDbEntity
  8
26
  6
Continuous
 62
     7
370
     9
100
AcDbLine
 10
247.0831029350342
 20
214.8348707032499
 30
0.0
 11
234.0064061044122
 21
214.8348707032499
 31
0.0
  0
LINE
  5
115
330
1F
100
AcDbEntity
  8
26
  6
Continuous
 62
     7
370
     9
100
AcDbLine
 10
232.1225857762888
 20
215.9224948767969
 30
0.0
 11
225.5842373609778
 21
227.2472465297029
 31
0.0
  0
LINE
  5
116
330
1F
100
AcDbEntity
  8
26
  6
Continuous
 62
     7
370
     9
100
AcDbLine
 10
232.1225857762888
 20
240.747246529703
 30
0.0
 11
225.5842373609778
 21
229.4224948767968
 31
0.0
  0
LINE
  5
117
330
1F
100
AcDbEntity
  8
26
  6
Continuous
 62
     7
370
     9
100
AcDbLine
 10
247.0831029350342
 20
241.8348707032499
 30
0.0
 11
234.0064061044122
 21
241.8348707032499
 31
0.0
  0
LINE
  5
118
330
1F
100
AcDbEntity
  8
26
  6
Continuous
 62
     7
370
     9
100
AcDbLine
 10
183.8787322305515
 20
255.3687889192525
 30
0.0
 11
185.562097335958
 21
253.8003128083703
 31
0.0
  0
ARC
  5
119
330
1F
100
AcDbEntity
  8
26
  6
Continuous
 62
     7
370
     9
100
AcDbCircle
 10
185.7447545197232
 20
253.3348707032498
 30
0.0
 40
0.5
100
AcDbArc
 50
89.99999999999991
 51
179.9999999999998
  0
ARC
  5
11A
330
1F
100
AcDbEntity
  8
26
  6
Continuous
 62
     7
370
     9
100
AcDbCircle
 10
185.1947545197233
 20
254.3848707032499
 30
0.0
 40
2.5
100
AcDbArc
 50
89.99999999999991
 51
179.9999999999998
  0
ARC
  5
11B
330
1F
100
AcDbEntity
  8
26
  6
Continuous
 62
     7
370
     9
100
AcDbCircle
 10
191.7447545197232
 20
253.3348707032498
 30
0.0
 40
0.5
100
AcDbArc
 50
0.0
 51
89.99999999999991
  0
ARC
  5
11C
330
1F
100
AcDbEntity
  8
26
  6
Continuous
 62
     7
370
     9
100
AcDbCircle
 10
192.0416307707242
 20
261.8848707032499
 30
0.0
 40
5.0
100
AcDbArc
 50
269.9999999999993
 51
321.317812546511
  0
LINE
  5
11D
330
1F
100
AcDbEntity
  8
26
  6
Continuous
 62
     7
370
     9
100
AcDbLine
 10
193.6909069424298
 20
238.8348707032499
 30
0.0
 11
194.4947545197232
 21
239.8348707032499
 31
0.0
  0
LINE
  5
11E
330
1F
100
AcDbEntity
  8
26
  6
Continuous
 62
     7
370
     9
100
AcDbLine
 10
193.3394375665937
 20
222.2136028907318
 30
0.0
 11
194.3394375665937
 21
226.2136028907317
 31
0.0
  0
ARC
  5
11F
330
1F
100
AcDbEntity
  8
26
  6
Continuous
 62
     7
370
     9
100
AcDbCircle
 10
188.4947545197232
 20
229.8348707032499
 30
0.0
 40
6.0
100
AcDbArc
 50
329.9999999999987
 51
30.00000000000061
  0
ARC
  5
120
330
1F
100
AcDbEntity
  8
26
  6
Continuous
 62
     7
370
     9
100
AcDbCircle
 10
188.4947545197232
 20
235.8348707032499
 30
0.0
 40
6.0
100
AcDbArc
 50
329.9999999999987
 51
30.00000000000061
  0
LINE
  5
121
330
1F
100
AcDbEntity
  8
26
  6
Continuous
 62
     7
370
     9
100
AcDbLine
 10
194.7947545197232
 20
243.0074136152886
 30
0.0
 11
194.7947545197232
 21
241.5848707032499
 31
0.0
  0
LINE
  5
122
330
1F
100
AcDbEntity
  8
26
  6
Continuous
 62
     7
370
     9
100
AcDbLine
 10
193.9947545197232
 20
240.8348707032499
 30
0.0
 11
193.9947545197232
 21
239.8348707032499
 31
0.0
  0
LINE
  5
123
330
1F
100
AcDbEntity
  8
26
  6
Continuous
 62
     7
370
     9
100
AcDbLine
 10
193.9947545197232
 20
240.8348707032499
 30
0.0
 11
194.7947545197232
 21
241.5848707032499
 31
0.0
  0
ARC
  5
124
330
1F
100
AcDbEntity
  8
26
  6
Continuous
 62
     7
370
     9
100
AcDbCircle
 10
195.2947545197232
 20
243.0074136152886
 30
0.0
 40
0.5
100
AcDbArc
 50
31.93844891667278
 51
179.9999999999998
  0
ARC
  5
125
330
1F
100
AcDbEntity
  8
26
  6
Continuous
 62
     7
370
     9
100
AcDbCircle
 10
193.854366316521
 20
226.3348707032498
 30
0.0
 40
0.5
100
AcDbArc
 50
345.9637565320795
 51
89.99999999999991
  0
ARC
  5
126
330
1F
100
AcDbEntity
  8
26
  6
Continuous
 62
     7
370
     9
100
AcDbCircle
 10
192.854366316521
 20
222.3348707032499
 30
0.0
 40
0.5
100
AcDbArc
 50
269.9999999999998
 51
345.9637565320866
  0
ARC
  5
127
330
1F
100
AcDbEntity
  8
26
  6
Continuous
 62
     7
370
     9
100
AcDbCircle
 10
191.7447545197232
 20
244.3348707032499
 30
0.0
 40
0.5
100
AcDbArc
 50
269.9999999999998
 51
0.0
  0
LINE
  5
128
330
1F
100
AcDbEntity
  8
26
  6
Continuous
 62
     7
370
     9
100
AcDbLine
 10
192.2447545197232
 20
247.1661371134952
 30
0.0
 11
194.2313905534346
 21
245.0837261570683
 31
0.0
  0
LINE
  5
129
330
1F
100
AcDbEntity
  8
26
  6
Continuous
 62
     7
370
     9
100
AcDbLine
 10
195.9447545197233
 20
242.9098707032499
 30
0.0
 11
195.7190629610089
 21
243.2719175786875
 31
0.0
  0
LINE
  5
12A
330
1F
100
AcDbEntity
  8
26
  6
Continuous
 62
     7
370
     9
100
AcDbLine
 10
183.4947545197232
 20
240.8348707032499
 30
0.0
 11
183.4947545197232
 21
239.8348707032499
 31
0.0
  0
LINE
  5
12B
330
1F
100
AcDbEntity
  8
26
  6
Continuous
 62
     7
370
     9
100
AcDbLine
 10
183.7986020970166
 20
238.8348707032499
 30
0.0
 11
182.9947545197232
 21
239.8348707032499
 31
0.0
  0
ARC
  5
12C
330
1F
100
AcDbEntity
  8
26
  6
Continuous
 62
     7
370
     9
100
AcDbCircle
 10
188.9947545197232
 20
235.8348707032499
 30
0.0
 40
6.0
100
AcDbArc
 50
149.9999999999994
 51
210.0
  0
LINE
  5
12D
330
1F
100
AcDbEntity
  8
26
  6
Continuous
 62
     7
370
     9
100
AcDbLine
 10
184.1500714728528
 20
222.2136028907318
 30
0.0
 11
183.1500714728528
 21
226.2136028907316
 31
0.0
  0
ARC
  5
12E
330
1F
100
AcDbEntity
  8
26
  6
Continuous
 62
     7
370
     9
100
AcDbCircle
 10
188.9947545197232
 20
229.8348707032499
 30
0.0
 40
6.0
100
AcDbArc
 50
149.9999999999994
 51
210.0
  0
ARC
  5
12F
330
1F
100
AcDbEntity
  8
26
  6
Continuous
 62
     7
370
     9
100
AcDbCircle
 10
185.7447545197232
 20
244.3348707032499
 30
0.0
 40
0.5
100
AcDbArc
 50
179.9999999999998
 51
269.9999999999998
  0
LINE
  5
130
330
1F
100
AcDbEntity
  8
26
  6
Continuous
 62
     7
370
     9
100
AcDbLine
 10
182.6947545197233
 20
241.5848707032499
 30
0.0
 11
183.4947545197232
 21
240.8348707032499
 31
0.0
  0
ARC
  5
131
330
1F
100
AcDbEntity
  8
26
  6
Continuous
 62
     7
370
     9
100
AcDbCircle
 10
183.6351427229254
 20
226.3348707032498
 30
0.0
 40
0.5
100
AcDbArc
 50
89.99999999999991
 51
194.0362434679364
  0
ARC
  5
132
330
1F
100
AcDbEntity
  8
26
  6
Continuous
 62
     7
370
     9
100
AcDbCircle
 10
184.6351427229254
 20
222.3348707032499
 30
0.0
 40
0.5
100
AcDbArc
 50
194.0362434679166
 51
269.9999999999998
  0
LINE
  5
133
330
1F
100
AcDbEntity
  8
26
  6
Continuous
 62
     7
370
     9
100
AcDbLine
 10
182.6947545197233
 20
254.3848707032499
 30
0.0
 11
182.6947545197233
 21
241.5848707032499
 31
0.0
  0
LINE
  5
134
330
1F
100
AcDbEntity
  8
26
  6
Continuous
 62
     7
370
     9
100
AcDbLine
 10
185.2447545197232
 20
253.3348707032498
 30
0.0
 11
185.2447545197232
 21
244.3348707032499
 31
0.0
  0
LINE
  5
135
330
1F
100
AcDbEntity
  8
26
  6
Continuous
 62
     7
370
     9
100
AcDbLine
 10
191.7447545197232
 20
253.8348707032499
 30
0.0
 11
185.7447545197232
 21
253.8348707032499
 31
0.0
  0
LINE
  5
136
330
1F
100
AcDbEntity
  8
26
  6
Continuous
 62
     7
370
     9
100
AcDbLine
 10
185.1947545197233
 20
256.8848707032499
 30
0.0
 11
192.0416307707242
 21
256.8848707032499
 31
0.0
  0
LINE
  5
137
330
1F
100
AcDbEntity
  8
26
  6
Continuous
 62
     7
370
     9
100
AcDbLine
 10
192.2447545197232
 20
253.3348707032498
 30
0.0
 11
192.2447545197232
 21
244.3348707032499
 31
0.0
  0
LINE
  5
138
330
1F
100
AcDbEntity
  8
26
  6
Continuous
 62
     7
370
     9
100
AcDbLine
 10
195.9447545197233
 20
258.7598707032499
 30
0.0
 11
195.9447545197233
 21
242.9098707032499
 31
0.0
  0
LINE
  5
139
330
1F
100
AcDbEntity
  8
26
  6
Continuous
 62
     7
370
     9
100
AcDbLine
 10
195.9447545455212
 20
258.7598707032499
 30
0.0
 11
196.5447545197233
 21
258.7598707032499
 31
0.0
  0
LINE
  5
13A
330
1F
100
AcDbEntity
  8
26
  6
Continuous
 62
     7
370
     9
100
AcDbLine
 10
184.6351427229254
 20
221.8348707032498
 30
0.0
 11
192.854366316521
 21
221.8348707032498
 31
0.0
  0
LINE
  5
13B
330
1F
100
AcDbEntity
  8
26
  6
Continuous
 62
     7
370
     9
100
AcDbLine
 10
183.6351427229254
 20
226.8348707032499
 30
0.0
 11
193.854366316521
 21
226.8348707032499
 31
0.0
  0
LINE
  5
13C
330
1F
100
AcDbEntity
  8
26
  6
Continuous
 62
     7
370
     9
100
AcDbLine
 10
183.7986020970166
 20
238.8348707032499
 30
0.0
 11
193.6909069424298
 21
238.8348707032499
 31
0.0
  0
LINE
  5
13D
330
1F
100
AcDbEntity
  8
26
  6
Continuous
 62
     7
370
     9
100
AcDbLine
 10
182.9947545197232
 20
239.8348707032499
 30
0.0
 11
194.4947545197232
 21
239.8348707032499
 31
0.0
  0
LINE
  5
13E
330
1F
100
AcDbEntity
  8
26
  6
Continuous
 62
     7
370
     9
100
AcDbLine
 10
183.4947545197232
 20
240.8348707032499
 30
0.0
 11
193.9947545197232
 21
240.8348707032499
 31
0.0
  0
LINE
  5
13F
330
1F
100
AcDbEntity
  8
26
  6
Continuous
 62
     7
370
     9
100
AcDbLine
 10
182.6947545197233
 20
241.5848707032499
 30
0.0
 11
194.7947545197232
 21
241.5848707032499
 31
0.0
  0
LINE
  5
140
330
1F
100
AcDbEntity
  8
26
  6
Continuous
 62
     7
370
     9
100
AcDbLine
 10
183.7986020970166
 20
232.8348707032499
 30
0.0
 11
193.6909069424298
 21
232.8348707032499
 31
0.0
  0
LINE
  5
141
330
1F
100
AcDbEntity
  8
26
  6
Continuous
 62
     7
370
     9
100
AcDbLine
 10
191.7447545197232
 20
243.8348707032499
 30
0.0
 11
185.7447545197232
 21
243.8348707032499
 31
0.0
  0
LINE
  5
142
330
1F
100
AcDbEntity
  8
26
  6
Continuous
 62
     7
370
     9
100
AcDbLine
 10
196.5447545197233
 20
242.9098707032499
 30
0.0
 11
195.9447545197233
 21
242.9098707032499
 31
0.0
  0
LINE
  5
143
330
1F
100
AcDbEntity
  8
26
  6
Continuous
 62
     7
370
     9
100
AcDbLine
 10
233.5447545197233
 20
243.8348707032497
 30
0.0
 11
208.4909533493564
 21
243.8348707032497
 31
0.0
  0
CIRCLE
  5
144
330
1F
100
AcDbEntity
  8
26
  6
Continuous
 62
     7
370
     9
100
AcDbCircle
 10
240.5447545197232
 20
228.3348707032499
 30
0.0
 40
6.5
  0
ARC
  5
145
330
1F
100
AcDbEntity
  8
26
  6
Continuous
 62
     7
370
     9
100
AcDbCircle
 10
263.8447545197232
 20
262.3348707032497
 30
0.0
 40
0.5
100
AcDbArc
 50
0.0
 51
89.99999999999991
  0
ARC
  5
146
330
1F
100
AcDbEntity
  8
26
  6
Continuous
 62
     7
370
     9
100
AcDbCircle
 10
259.2447545197233
 20
262.3348707032497
 30
0.0
 40
0.5
100
AcDbArc
 50
89.99999999999991
 51
179.9999999999998
  0
ARC
  5
147
330
1F
100
AcDbEntity
  8
26
  6
Continuous
 62
     7
370
     9
100
AcDbCircle
 10
263.8447545197232
 20
260.3348707032497
 30
0.0
 40
0.5
100
AcDbArc
 50
269.9999999999998
 51
0.0
  0
ARC
  5
148
330
1F
100
AcDbEntity
  8
26
  6
Continuous
 62
     7
370
     9
100
AcDbCircle
 10
259.2447545197233
 20
260.3348707032497
 30
0.0
 40
0.5
100
AcDbArc
 50
179.9999999999998
 51
269.9999999999998
  0
ARC
  5
149
330
1F
100
AcDbEntity
  8
26
  6
Continuous
 62
     7
370
     9
100
AcDbCircle
 10
265.2528537632717
 20
262.3365050700938
 30
0.0
 40
4.963285951533067
100
AcDbArc
 50
319.7019712420187
 51
321.6510724276341
  0
LINE
  5
14A
330
1F
100
AcDbEntity
  8
26
  6
Continuous
 62
     7
370
     9
100
AcDbLine
 10
297.0176159487372
 20
244.2965222879387
 30
0.0
 11
297.0176159487372
 21
242.4127019598154
 31
0.0
  0
LINE
  5
14B
330
1F
100
AcDbEntity
  8
26
  6
Continuous
 62
     7
370
     9
100
AcDbLine
 10
297.0176159487372
 20
235.8743535445043
 30
0.0
 11
297.0176159487372
 21
235.8348707032497
 31
0.0
  0
ARC
  5
14C
330
1F
100
AcDbEntity
  8
26
  6
Continuous
 62
     7
370
     9
100
AcDbCircle
 10
277.716327394977
 20
263.3348707032498
 30
0.0
 40
2.0
100
AcDbArc
 50
269.9999999999998
 51
314.9999999999997
  0
LINE
  5
14D
330
1F
100
AcDbEntity
  8
26
  6
Continuous
 62
     7
370
     9
100
AcDbLine
 10
297.0176159487372
 20
265.8348707032498
 30
0.0
 11
297.0176159487372
 21
265.7953878619952
 31
0.0
  0
LINE
  5
14E
330
1F
100
AcDbEntity
  8
26
  6
Continuous
 62
     7
370
     9
100
AcDbLine
 10
297.0176159487372
 20
259.2570394466841
 30
0.0
 11
297.0176159487372
 21
257.3732191185607
 31
0.0
  0
LINE
  5
14F
330
1F
100
AcDbEntity
  8
26
  6
Continuous
 62
     7
370
     9
100
AcDbLine
 10
297.0176159487372
 20
259.2570394466841
 30
0.0
 11
269.14529501664
 21
259.2570394466841
 31
0.0
  0
LINE
  5
150
330
1F
100
AcDbEntity
  8
26
  6
Continuous
 62
     7
370
     9
100
AcDbLine
 10
297.0176159487372
 20
257.3732191185607
 30
0.0
 11
281.0447545197233
 21
257.3732191185607
 31
0.0
  0
ARC
  5
151
330
1F
100
AcDbEntity
  8
26
  6
Continuous
 62
     7
370
     9
100
AcDbCircle
 10
265.2528537632717
 20
239.8067310862479
 30
0.0
 40
4.489791201690821
100
AcDbArc
 50
35.48018679417889
 51
37.55416178026423
  0
LINE
  5
152
330
1F
100
AcDbEntity
  8
26
  6
Continuous
 62
     7
370
     9
100
AcDbLine
 10
297.0176159487372
 20
242.4127019598154
 30
0.0
 11
268.9089638328536
 21
242.4127019598154
 31
0.0
  0
LINE
  5
153
330
1F
100
AcDbEntity
  8
26
  6
Continuous
 62
     7
370
     9
100
AcDbLine
 10
297.0176159487372
 20
244.2965222879387
 30
0.0
 11
281.0447545197233
 21
244.2965222879387
 31
0.0
  0
ARC
  5
154
330
1F
100
AcDbEntity
  8
26
  6
Continuous
 62
     7
370
     9
100
AcDbCircle
 10
265.2528537632717
 20
234.2642531832337
 30
0.0
 40
8.931089424335255
100
AcDbArc
 50
10.12868347340482
 51
65.83480504142577
  0
LINE
  5
155
330
1F
100
AcDbEntity
  8
26
  6
Continuous
 62
     7
370
     9
100
AcDbLine
 10
297.0176159487372
 20
235.8348707032497
 30
0.0
 11
276.0447545197231
 21
235.8348707032497
 31
0.0
  0
ARC
  5
156
330
1F
100
AcDbEntity
  8
26
  6
Continuous
 62
     7
370
     9
100
AcDbCircle
 10
276.0447545197231
 20
233.8348707032497
 30
0.0
 40
2.0
100
AcDbArc
 50
89.99999999999991
 51
179.9999999999998
  0
ARC
  5
157
330
1F
100
AcDbEntity
  8
26
  6
Continuous
 62
     7
370
     9
100
AcDbCircle
 10
276.7209454050694
 20
250.8348707032497
 30
0.0
 40
21.32380911465373
100
AcDbArc
 50
342.1442276914246
 51
17.85577230857471
  0
ARC
  5
158
330
1F
100
AcDbEntity
  8
26
  6
Continuous
 62
     7
370
     9
100
AcDbCircle
 10
292.3286252769398
 20
239.1435277521598
 30
0.0
 40
5.716129242783325
100
AcDbArc
 50
325.1157099204532
 51
34.88429007954613
  0
LINE
  5
159
330
1F
100
AcDbEntity
  8
26
  6
Continuous
 62
     7
370
     9
100
AcDbLine
 10
298.0447545197232
 20
237.3348707032497
 30
0.0
 11
297.0176159487372
 21
235.8348707032497
 31
0.0
  0
ARC
  5
15A
330
1F
100
AcDbEntity
  8
26
  6
Continuous
 62
     7
370
     9
100
AcDbCircle
 10
276.544754519723
 20
262.3348707032497
 30
0.0
 40
1.0
100
AcDbArc
 50
179.9999999999998
 51
269.9999999999998
  0
LINE
  5
15B
330
1F
100
AcDbEntity
  8
26
  6
Continuous
 62
     7
370
     9
100
AcDbLine
 10
275.544754519723
 20
262.3348707032497
 30
0.0
 11
275.544754519723
 21
262.8348707032495
 31
0.0
  0
LINE
  5
15C
330
1F
100
AcDbEntity
  8
26
  6
Continuous
 62
     7
370
     9
100
AcDbLine
 10
279.13054095735
 20
261.9206571408767
 30
0.0
 11
283.0447545197231
 21
265.8348707032498
 31
0.0
  0
LINE
  5
15D
330
1F
100
AcDbEntity
  8
26
  6
Continuous
 62
     7
370
     9
100
AcDbLine
 10
272.4223833004619
 20
261.3348707032498
 30
0.0
 11
277.716327394977
 21
261.3348707032498
 31
0.0
  0
LINE
  5
15E
330
1F
100
AcDbEntity
  8
26
  6
Continuous
 62
     7
370
     9
100
AcDbLine
 10
297.0176159487372
 20
265.8348707032498
 30
0.0
 11
283.0447545197231
 21
265.8348707032498
 31
0.0
  0
LINE
  5
15F
330
1F
100
AcDbEntity
  8
26
  6
Continuous
 62
     7
370
     9
100
AcDbLine
 10
298.0447545197232
 20
264.3348707032497
 30
0.0
 11
297.0176159487372
 21
265.8348707032498
 31
0.0
  0
ARC
  5
160
330
1F
100
AcDbEntity
  8
26
  6
Continuous
 62
     7
370
     9
100
AcDbCircle
 10
292.3286252769398
 20
262.5262136543396
 30
0.0
 40
5.716129242783325
100
AcDbArc
 50
325.1157099204531
 51
34.88429007954613
  0
LINE
  5
161
330
1F
100
AcDbEntity
  8
26
  6
Continuous
 62
     7
370
     9
100
AcDbLine
 10
298.0447545197232
 20
264.3348707032497
 30
0.0
 11
298.0447545197232
 21
237.3348707032497
 31
0.0
  0
LINE
  5
162
330
1F
100
AcDbEntity
  8
26
  6
Continuous
 62
     7
370
     9
100
AcDbLine
 10
326.5498024928814
 20
272.3348707032497
 30
0.0
 11
326.5498024928814
 21
271.2472465297031
 31
0.0
  0
ARC
  5
163
330
1F
100
AcDbEntity
  8
26
  6
Continuous
 62
     7
370
     9
100
AcDbCircle
 10
342.5226639218954
 20
265.9594811474708
 30
0.0
 40
0.3746104442208207
100
AcDbArc
 50
269.9999999999998
 51
319.1428170689309
  0
ARC
  5
164
330
1F
100
AcDbEntity
  8
26
  6
Continuous
 62
     7
370
     9
100
AcDbCircle
 10
350.7599697656091
 20
258.8348707032501
 30
0.0
 40
10.51636203507496
100
AcDbArc
 50
123.0629362983483
 51
139.1428170689169
  0
ARC
  5
165
330
1F
100
AcDbEntity
  8
26
  6
Continuous
 62
     7
370
     9
100
AcDbCircle
 10
342.5226639218954
 20
251.7102602590292
 30
0.0
 40
0.3746104442208207
100
AcDbArc
 50
40.85718293107202
 51
89.99999999999991
  0
ARC
  5
166
330
1F
100
AcDbEntity
  8
26
  6
Continuous
 62
     7
370
     9
100
AcDbCircle
 10
350.7599697656091
 20
258.8348707032501
 30
0.0
 40
10.51636203507496
100
AcDbArc
 50
220.8571829310823
 51
236.9370637016509
  0
LINE
  5
167
330
1F
100
AcDbEntity
  8
26
  6
Continuous
 62
     7
370
     9
100
AcDbLine
 10
325.5226639218946
 20
272.3348707032497
 30
0.0
 11
342.3155571407071
 21
272.3348707032497
 31
0.0
  0
LINE
  5
168
330
1F
100
AcDbEntity
  8
26
  6
Continuous
 62
     7
370
     9
100
AcDbLine
 10
326.5498024928814
 20
271.2472465297031
 30
0.0
 11
352.165918701343
 21
271.2472465297031
 31
0.0
  0
ARC
  5
169
330
1F
100
AcDbEntity
  8
26
  6
Continuous
 62
     7
370
     9
100
AcDbCircle
 10
341.6439130792465
 20
265.5848707032501
 30
0.0
 40
16.12124915735188
100
AcDbArc
 50
159.4370185339751
 51
200.5629814660242
  0
LINE
  5
16A
330
1F
100
AcDbEntity
  8
26
  6
Continuous
 62
     7
370
     9
100
AcDbLine
 10
326.5498024928814
 20
259.922494876797
 30
0.0
 11
326.5498024928815
 21
257.7472465297031
 31
0.0
  0
LINE
  5
16B
330
1F
100
AcDbEntity
  8
26
  6
Continuous
 62
     7
370
     9
100
AcDbLine
 10
345.0226639218947
 20
250.0214041827233
 30
0.0
 11
345.0226639218947
 21
267.6483372237769
 31
0.0
  0
LINE
  5
16C
330
1F
100
AcDbEntity
  8
26
  6
Continuous
 62
     7
370
     9
100
AcDbLine
 10
345.0226639218947
 20
267.6483372237769
 30
0.0
 11
348.8490042977988
 21
267.6483372237769
 31
0.0
  0
ARC
  5
16D
330
1F
100
AcDbEntity
  8
26
  6
Continuous
 62
     7
370
     9
100
AcDbCircle
 10
353.1624260591895
 20
258.83487070325
 30
0.0
 40
12.60027929603933
100
AcDbArc
 50
147.6084402462364
 51
212.3915597537598
  0
LINE
  5
16E
330
1F
100
AcDbEntity
  8
26
  6
Continuous
 62
     7
370
     9
100
AcDbLine
 10
325.5226639218946
 20
245.3348707032502
 30
0.0
 11
342.3155571407072
 21
245.3348707032502
 31
0.0
  0
LINE
  5
16F
330
1F
100
AcDbEntity
  8
26
  6
Continuous
 62
     7
370
     9
100
AcDbLine
 10
326.5498024928814
 20
246.422494876797
 30
0.0
 11
352.1659187013427
 21
246.422494876797
 31
0.0
  0
LINE
  5
170
330
1F
100
AcDbEntity
  8
26
  6
Continuous
 62
     7
370
     9
100
AcDbLine
 10
345.0226639218947
 20
250.0214041827233
 30
0.0
 11
348.8490042977986
 21
250.0214041827233
 31
0.0
  0
LINE
  5
171
330
1F
100
AcDbEntity
  8
26
  6
Continuous
 62
     7
370
     9
100
AcDbLine
 10
388.0226639218954
 20
253.8348707032499
 30
0.0
 11
378.0226639218961
 21
253.8348707032499
 31
0.0
  0
ARC
  5
172
330
1F
100
AcDbEntity
  8
26
  6
Continuous
 62
     7
370
     9
100
AcDbCircle
 10
378.0226639218961
 20
255.8348707032499
 30
0.0
 40
2.0
100
AcDbArc
 50
243.5365419257982
 51
269.9999999999998
  0
ARC
  5
173
330
1F
100
AcDbEntity
  8
26
  6
Continuous
 62
     7
370
     9
100
AcDbCircle
 10
388.0226639218954
 20
255.8348707032499
 30
0.0
 40
2.0
100
AcDbArc
 50
269.9999999999998
 51
296.4634580741828
  0
LINE
  5
174
330
1F
100
AcDbEntity
  8
26
  6
Continuous
 62
     7
370
     9
100
AcDbLine
 10
326.5498024928814
 20
246.422494876797
 30
0.0
 11
326.5498024928814
 21
245.3348707032502
 31
0.0
  0
LINE
  5
175
330
1F
100
AcDbEntity
  8
26
  6
Continuous
 62
     7
370
     9
100
AcDbLine
 10
325.5226639218946
 20
272.3348707032497
 30
0.0
 11
325.5226639218946
 21
245.3348707032502
 31
0.0
  0
ARC
  5
176
330
1F
100
AcDbEntity
  8
26
  6
Continuous
 62
     7
370
     9
100
AcDbCircle
 10
341.6439130792465
 20
252.08487070325
 30
0.0
 40
16.12124915735188
100
AcDbArc
 50
159.4370185339752
 51
200.562981466024
  0
LINE
  5
177
330
1F
100
AcDbEntity
  8
26
  6
Continuous
 62
     7
370
     9
100
AcDbLine
 10
281.0447545197233
 20
257.3732191185607
 30
0.0
 11
281.0447545197233
 21
244.2965222879387
 31
0.0
  0
LINE
  5
178
330
1F
100
AcDbEntity
  8
26
  6
Continuous
 62
     7
370
     9
100
AcDbLine
 10
280.0447545197247
 20
259.1264326791383
 30
0.0
 11
280.0447545197247
 21
242.5433087273612
 31
0.0
  0
LINE
  5
179
330
1F
100
AcDbEntity
  8
26
  6
Continuous
 62
     7
370
     9
100
AcDbLine
 10
267.8495146261823
 20
259.1264326791383
 30
0.0
 11
267.8495146261823
 21
242.5433087273612
 31
0.0
  0
LINE
  5
17A
330
1F
100
AcDbEntity
  8
26
  6
Continuous
 62
     7
370
     9
100
AcDbLine
 10
280.0447545197247
 20
259.1264326791383
 30
0.0
 11
267.8495146261823
 21
259.1264326791383
 31
0.0
  0
LINE
  5
17B
330
1F
100
AcDbEntity
  8
26
  6
Continuous
 62
     7
370
     9
100
AcDbLine
 10
280.0447545197247
 20
242.5433087273612
 30
0.0
 11
267.8495146261823
 21
242.5433087273612
 31
0.0
  0
ARC
  5
17C
330
1F
100
AcDbEntity
  8
26
  6
Continuous
 62
     7
370
     9
100
AcDbCircle
 10
279.0078756252254
 20
244.2965222879387
 30
0.0
 40
2.036878894497931
100
AcDbArc
 50
300.6007574749826
 51
0.0
  0
ARC
  5
17D
330
1F
100
AcDbEntity
  8
26
  6
Continuous
 62
     7
370
     9
100
AcDbCircle
 10
279.0078756252254
 20
257.3732191185607
 30
0.0
 40
2.036878894497931
100
AcDbArc
 50
0.0
 51
59.39924252501699
  0
ARC
  5
17E
330
1F
100
AcDbEntity
  8
26
  6
Continuous
 62
     7
370
     9
100
AcDbCircle
 10
265.513942662934
 20
268.6074654578097
 30
0.0
 40
10.03081185678906
100
AcDbArc
 50
291.2242898662458
 51
313.5290277359899
  0
LINE
  5
17F
330
1F
100
AcDbEntity
  8
26
  6
Continuous
 62
     7
370
     9
100
AcDbLine
 10
342.6691105313004
 20
272.188424093843
 30
0.0
 11
343.3762173124868
 21
271.4813173126566
 31
0.0
  0
LINE
  5
180
330
1F
100
AcDbEntity
  8
26
  6
Continuous
 62
     7
370
     9
100
AcDbLine
 10
352.2772803994268
 20
271.33487070325
 30
0.0
 11
343.72977070308
 21
271.33487070325
 31
0.0
  0
LINE
  5
181
330
1F
100
AcDbEntity
  8
26
  6
Continuous
 62
     7
370
     9
100
AcDbLine
 10
352.2772803994268
 20
246.3348707032499
 30
0.0
 11
343.72977070308
 21
246.3348707032499
 31
0.0
  0
LINE
  5
182
330
1F
100
AcDbEntity
  8
26
  6
Continuous
 62
     7
370
     9
100
AcDbLine
 10
342.6691105313005
 20
245.4813173126569
 30
0.0
 11
343.3762173124867
 21
246.1884240938432
 31
0.0
  0
ARC
  5
183
330
1F
100
AcDbEntity
  8
26
  6
Continuous
 62
     7
370
     9
100
AcDbCircle
 10
342.3155571407071
 20
271.8348707032498
 30
0.0
 40
0.5
100
AcDbArc
 50
45.0
 51
89.99999999999991
  0
ARC
  5
184
330
1F
100
AcDbEntity
  8
26
  6
Continuous
 62
     7
370
     9
100
AcDbCircle
 10
343.72977070308
 20
271.83487070325
 30
0.0
 40
0.5
100
AcDbArc
 50
224.9999999999996
 51
269.9999999999998
  0
ARC
  5
185
330
1F
100
AcDbEntity
  8
26
  6
Continuous
 62
     7
370
     9
100
AcDbCircle
 10
342.3155571407072
 20
245.8348707032502
 30
0.0
 40
0.5
100
AcDbArc
 50
269.9999999999998
 51
314.9999999999997
  0
ARC
  5
186
330
1F
100
AcDbEntity
  8
26
  6
Continuous
 62
     7
370
     9
100
AcDbCircle
 10
343.72977070308
 20
245.8348707032499
 30
0.0
 40
0.5
100
AcDbArc
 50
89.99999999999991
 51
135.0
  0
LINE
  5
187
330
1F
100
AcDbEntity
  8
26
  6
Continuous
 62
     7
370
     9
100
AcDbLine
 10
236.5447545197232
 20
243.3348707032499
 30
0.0
 11
244.5447545197232
 21
243.3348707032499
 31
0.0
  0
CIRCLE
  5
188
330
1F
100
AcDbEntity
  8
26
  6
Continuous
 62
     7
370
     9
100
AcDbCircle
 10
383.0226639218953
 20
276.43487070325
 30
0.0
 40
4.0
  0
LINE
  5
189
330
1F
100
AcDbEntity
  8
26
  6
Continuous
 62
     7
370
     9
100
AcDbLine
 10
236.5447545197232
 20
243.9659995773992
 30
0.0
 11
236.5447545197232
 21
243.3348707032499
 31
0.0
  0
LINE
  5
18A
330
1F
100
AcDbEntity
  8
26
  6
Continuous
 62
     7
370
     9
100
AcDbLine
 10
244.5447545197232
 20
243.9659995773992
 30
0.0
 11
244.5447545197232
 21
243.3348707032499
 31
0.0
  0
ARC
  5
18B
330
1F
100
AcDbEntity
  8
26
  6
Continuous
 62
     7
370
     9
100
AcDbCircle
 10
240.5447545197232
 20
239.9348707032499
 30
0.0
 40
6.5
100
AcDbArc
 50
63.6122000387595
 51
116.3877999612435
  0
ARC
  5
18C
330
1F
100
AcDbEntity
  8
26
  6
Continuous
 62
     7
370
     9
100
AcDbCircle
 10
238.5447545197232
 20
243.9659995773992
 30
0.0
 40
2.0
100
AcDbArc
 50
116.3877999612438
 51
179.9999999999998
  0
ARC
  5
18D
330
1F
100
AcDbEntity
  8
26
  6
Continuous
 62
     7
370
     9
100
AcDbCircle
 10
242.5447545197232
 20
243.9659995773992
 30
0.0
 40
2.0
100
AcDbArc
 50
0.0
 51
63.61220003875987
  0
LINE
  5
18E
330
1F
100
AcDbEntity
  8
26
  6
Continuous
 62
     7
370
     9
100
AcDbLine
 10
238.1947545197232
 20
243.3348707032499
 30
0.0
 11
238.2806805853142
 21
243.1630185720678
 31
0.0
  0
LINE
  5
18F
330
1F
100
AcDbEntity
  8
26
  6
Continuous
 62
     7
370
     9
100
AcDbLine
 10
242.8947545197232
 20
243.3348707032499
 30
0.0
 11
242.8088284541322
 21
243.1630185720678
 31
0.0
  0
LINE
  5
190
330
1F
100
AcDbEntity
  8
26
  6
Continuous
 62
     7
370
     9
100
AcDbLine
 10
438.0226639218953
 20
264.8848707032499
 30
0.0
 11
431.5257876708943
 21
264.8848707032499
 31
0.0
  0
LINE
  5
191
330
1F
100
AcDbEntity
  8
26
  6
Continuous
 62
     7
370
     9
100
AcDbLine
 10
431.3226639218953
 20
264.8848707032499
 30
0.0
 11
431.3226639218953
 21
264.0886707032499
 31
0.0
  0
LINE
  5
192
330
1F
100
AcDbEntity
  8
26
  6
Continuous
 62
     7
370
     9
100
AcDbLine
 10
434.8226639218953
 20
264.0886707032499
 30
0.0
 11
431.3226639218953
 21
264.0886707032499
 31
0.0
  0
LINE
  5
193
330
1F
100
AcDbEntity
  8
26
  6
Continuous
 62
     7
370
     9
100
AcDbLine
 10
438.3226639218953
 20
264.5848707032499
 30
0.0
 11
438.3226639218953
 21
263.7696959281186
 31
0.0
  0
ARC
  5
194
330
1F
100
AcDbEntity
  8
26
  6
Continuous
 62
     7
370
     9
100
AcDbCircle
 10
434.8226639218953
 20
244.727037950184
 30
0.0
 40
19.36163275306592
100
AcDbArc
 50
79.58539374854048
 51
89.99999999999983
  0
ARC
  5
195
330
1F
100
AcDbEntity
  8
26
  6
Continuous
 62
     7
370
     9
100
AcDbCircle
 10
438.0226639218953
 20
264.5848707032499
 30
0.0
 40
0.3000000000000114
100
AcDbArc
 50
0.0
 51
89.99999999999991
  0
LINE
  5
196
330
1F
100
AcDbEntity
  8
26
  6
Continuous
 62
     7
370
     9
100
AcDbLine
 10
431.3226639218953
 20
252.7848707032499
 30
0.0
 11
431.3226639218953
 21
253.5810707032499
 31
0.0
  0
LINE
  5
197
330
1F
100
AcDbEntity
  8
26
  6
Continuous
 62
     7
370
     9
100
AcDbLine
 10
438.3226639218953
 20
253.9000454783812
 30
0.0
 11
438.3226639218953
 21
253.0848707032499
 31
0.0
  0
ARC
  5
198
330
1F
100
AcDbEntity
  8
26
  6
Continuous
 62
     7
370
     9
100
AcDbCircle
 10
438.0226639218953
 20
253.0848707032499
 30
0.0
 40
0.3000000000000114
100
AcDbArc
 50
269.9999999999998
 51
0.0
  0
LINE
  5
199
330
1F
100
AcDbEntity
  8
26
  6
Continuous
 62
     7
370
     9
100
AcDbLine
 10
434.8226639218953
 20
252.7848707032499
 30
0.0
 11
431.5257876708943
 21
252.7848707032499
 31
0.0
  0
LINE
  5
19A
330
1F
100
AcDbEntity
  8
26
  6
Continuous
 62
     7
370
     9
100
AcDbLine
 10
438.0226639218953
 20
252.7848707032499
 30
0.0
 11
431.5257876708943
 21
252.7848707032499
 31
0.0
  0
LINE
  5
19B
330
1F
100
AcDbEntity
  8
26
  6
Continuous
 62
     7
370
     9
100
AcDbLine
 10
434.8226639218953
 20
253.5810707032499
 30
0.0
 11
431.3226639218953
 21
253.5810707032499
 31
0.0
  0
ARC
  5
19C
330
1F
100
AcDbEntity
  8
26
  6
Continuous
 62
     7
370
     9
100
AcDbCircle
 10
434.8226639218953
 20
272.9427034563158
 30
0.0
 40
19.36163275306592
100
AcDbArc
 50
269.9999999999995
 51
280.4146062514556
  0
LINE
  5
19D
330
1F
100
AcDbEntity
  8
26
  6
Continuous
 62
     7
370
     9
100
AcDbLine
 10
274.670432639072
 20
163.4572484034123
 30
0.0
 11
266.8858229482455
 21
163.4572484034123
 31
0.0
  0
LINE
  5
19E
330
1F
100
AcDbEntity
  8
26
  6
Continuous
 62
     7
370
     9
100
AcDbLine
 10
274.6704326390721
 20
163.4572484034123
 30
0.0
 11
274.4204326390721
 21
163.4572484034123
 31
0.0
  0
ARC
  5
19F
330
1F
100
AcDbEntity
  8
26
  6
Continuous
 62
     7
370
     9
100
AcDbCircle
 10
238.170432639072
 20
143.4572484034123
 30
0.0
 40
0.5
100
AcDbArc
 50
89.99999999999991
 51
179.9999999999998
  0
LINE
  5
1A0
330
1F
100
AcDbEntity
  8
26
  6
Continuous
 62
     7
370
     9
100
AcDbLine
 10
238.170432639072
 20
143.9572484034124
 30
0.0
 11
246.7406080776685
 21
143.9572484034122
 31
0.0
  0
ARC
  5
1A1
330
1F
100
AcDbEntity
  8
26
  6
Continuous
 62
     7
370
     9
100
AcDbCircle
 10
238.170432639072
 20
114.4572484034121
 30
0.0
 40
0.5
100
AcDbArc
 50
179.9999999999998
 51
269.9999999999998
  0
LINE
  5
1A2
330
1F
100
AcDbEntity
  8
26
  6
Continuous
 62
     7
370
     9
100
AcDbLine
 10
238.170432639072
 20
113.9572484034123
 30
0.0
 11
266.6704326390721
 21
113.9572484034123
 31
0.0
  0
LINE
  5
1A3
330
1F
100
AcDbEntity
  8
26
  6
Continuous
 62
     7
370
     9
100
AcDbLine
 10
261.1740113881176
 20
115.4572484034122
 30
0.0
 11
268.6704326390721
 21
115.4572484034122
 31
0.0
  0
LINE
  5
1A4
330
1F
100
AcDbEntity
  8
26
  6
Continuous
 62
     7
370
     9
100
AcDbLine
 10
246.670432639072
 20
160.4572484034124
 30
0.0
 11
246.670432639072
 21
144.457248403412
 31
0.0
  0
LINE
  5
1A5
330
1F
100
AcDbEntity
  8
26
  6
Continuous
 62
     7
370
     9
100
AcDbLine
 10
274.6704326390721
 20
163.4572484034123
 30
0.0
 11
274.6704326390721
 21
121.4572484034122
 31
0.0
  0
ARC
  5
1A6
330
1F
100
AcDbEntity
  8
26
  6
Continuous
 62
     7
370
     9
100
AcDbCircle
 10
268.6704326390721
 20
121.4572484034122
 30
0.0
 40
6.0
100
AcDbArc
 50
269.9999999999998
 51
0.0
  0
LINE
  5
1A7
330
1F
100
AcDbEntity
  8
26
  6
Continuous
 62
     7
370
     9
100
AcDbLine
 10
246.670432639072
 20
144.4572484034123
 30
0.0
 11
249.2904836622954
 21
125.7893848629459
 31
0.0
  0
LINE
  5
1A8
330
1F
100
AcDbEntity
  8
26
  6
Continuous
 62
     7
370
     9
100
AcDbLine
 10
235.670432639072
 20
143.9572484034123
 30
0.0
 11
235.670432639072
 21
142.4572484034122
 31
0.0
  0
LINE
  5
1A9
330
1F
100
AcDbEntity
  8
26
  6
Continuous
 62
     7
370
     9
100
AcDbLine
 10
219.670432639072
 20
142.4572484034122
 30
0.0
 11
235.670432639072
 21
142.4572484034122
 31
0.0
  0
LINE
  5
1AA
330
1F
100
AcDbEntity
  8
26
  6
Continuous
 62
     7
370
     9
100
AcDbLine
 10
235.670432639072
 20
115.4572484034122
 30
0.0
 11
235.670432639072
 21
113.9572484034123
 31
0.0
  0
LINE
  5
1AB
330
1F
100
AcDbEntity
  8
26
  6
Continuous
 62
     7
370
     9
100
AcDbLine
 10
219.670432639072
 20
142.4572484034122
 30
0.0
 11
219.670432639072
 21
115.4572484034122
 31
0.0
  0
LINE
  5
1AC
330
1F
100
AcDbEntity
  8
26
  6
Continuous
 62
     7
370
     9
100
AcDbLine
 10
235.670432639072
 20
143.9572484034123
 30
0.0
 11
237.670432639072
 21
143.9572484034122
 31
0.0
  0
LINE
  5
1AD
330
1F
100
AcDbEntity
  8
26
  6
Continuous
 62
     7
370
     9
100
AcDbLine
 10
219.670432639072
 20
115.4572484034122
 30
0.0
 11
235.670432639072
 21
115.4572484034122
 31
0.0
  0
LINE
  5
1AE
330
1F
100
AcDbEntity
  8
26
  6
Continuous
 62
     7
370
     9
100
AcDbLine
 10
235.670432639072
 20
113.9572484034123
 30
0.0
 11
237.670432639072
 21
113.9572484034123
 31
0.0
  0
ARC
  5
1AF
330
1F
100
AcDbEntity
  8
26
  6
Continuous
 62
     7
370
     9
100
AcDbCircle
 10
250.1345342542098
 20
143.9572484034124
 30
0.0
 40
2.0
100
AcDbArc
 50
210.0000000000063
 51
210.2767209215591
  0
LINE
  5
1B0
330
1F
100
AcDbEntity
  8
26
  6
Continuous
 62
     7
370
     9
100
AcDbLine
 10
238.4704326390719
 20
162.9572484034124
 30
0.0
 11
238.4704326390719
 21
160.9572484034124
 31
0.0
  0
ARC
  5
1B1
330
1F
100
AcDbEntity
  8
26
  6
Continuous
 62
     7
370
     9
100
AcDbCircle
 10
238.9704326390719
 20
160.9572484034124
 30
0.0
 40
0.5
100
AcDbArc
 50
179.9999999999998
 51
269.9999999999998
  0
ARC
  5
1B2
330
1F
100
AcDbEntity
  8
26
  6
Continuous
 62
     7
370
     9
100
AcDbCircle
 10
238.9704326390719
 20
162.9572484034124
 30
0.0
 40
0.5
100
AcDbArc
 50
89.99999999999991
 51
179.9999999999998
  0
LINE
  5
1B3
330
1F
100
AcDbEntity
  8
26
  6
Continuous
 62
     7
370
     9
100
AcDbLine
 10
238.9704326390719
 20
163.4572484034124
 30
0.0
 11
254.4550423298987
 21
163.4572484034124
 31
0.0
  0
LINE
  5
1B4
330
1F
100
AcDbEntity
  8
26
  6
Continuous
 62
     7
370
     9
100
AcDbLine
 10
248.258056812619
 20
159.8794171468467
 30
0.0
 11
259.5828084655252
 21
166.4177655621577
 31
0.0
  0
ARC
  5
1B5
330
1F
100
AcDbEntity
  8
26
  6
Continuous
 62
     7
370
     9
100
AcDbCircle
 10
260.6704326390722
 20
151.4572484034123
 30
0.0
 40
15.0
100
AcDbArc
 50
85.84193276316756
 51
94.15806723683247
  0
LINE
  5
1B6
330
1F
100
AcDbEntity
  8
26
  6
Continuous
 62
     7
370
     9
100
AcDbLine
 10
259.5828084655252
 20
136.4967312446669
 30
0.0
 11
248.258056812619
 21
143.0350796599779
 31
0.0
  0
ARC
  5
1B7
330
1F
100
AcDbEntity
  8
26
  6
Continuous
 62
     7
370
     9
100
AcDbCircle
 10
260.6704326390722
 20
151.4572484034123
 30
0.0
 40
15.0
100
AcDbArc
 50
265.841932763167
 51
274.1580672368316
  0
ARC
  5
1B8
330
1F
100
AcDbEntity
  8
26
  6
Continuous
 62
     7
370
     9
100
AcDbCircle
 10
260.6704326390722
 20
151.4572484034123
 30
0.0
 40
15.0
100
AcDbArc
 50
205.8419327631668
 51
214.158067236833
  0
LINE
  5
1B9
330
1F
100
AcDbEntity
  8
26
  6
Continuous
 62
     7
370
     9
100
AcDbLine
 10
247.1704326390721
 20
144.9188999881013
 30
0.0
 11
247.1704326390721
 21
157.9955968187233
 31
0.0
  0
ARC
  5
1BA
330
1F
100
AcDbEntity
  8
26
  6
Continuous
 62
     7
370
     9
100
AcDbCircle
 10
260.6704326390722
 20
151.4572484034123
 30
0.0
 40
15.0
100
AcDbArc
 50
145.8419327631663
 51
154.1580672368326
  0
LINE
  5
1BB
330
1F
100
AcDbEntity
  8
26
  6
Continuous
 62
     7
370
     9
100
AcDbLine
 10
247.127132639072
 20
160.4572484034124
 30
0.0
 11
238.9704326390719
 21
160.4572484034124
 31
0.0
  0
LINE
  5
1BC
330
1F
100
AcDbEntity
  8
26
  6
Continuous
 62
     7
370
     9
100
AcDbLine
 10
247.127132639072
 20
160.4572484034124
 30
0.0
 11
247.127132639072
 21
163.4572484034123
 31
0.0
  0
LINE
  5
1BD
330
1F
100
AcDbEntity
  8
26
  6
Continuous
 62
     7
370
     9
100
AcDbLine
 10
273.0828084655252
 20
159.8794171468467
 30
0.0
 11
261.758056812619
 21
166.4177655621577
 31
0.0
  0
ARC
  5
1BE
330
1F
100
AcDbEntity
  8
26
  6
Continuous
 62
     7
370
     9
100
AcDbCircle
 10
260.6704326390722
 20
151.4572484034123
 30
0.0
 40
15.0
100
AcDbArc
 50
25.84193276316746
 51
34.15806723683365
  0
LINE
  5
1BF
330
1F
100
AcDbEntity
  8
26
  6
Continuous
 62
     7
370
     9
100
AcDbLine
 10
274.1704326390721
 20
144.9188999881013
 30
0.0
 11
274.1704326390721
 21
157.9955968187233
 31
0.0
  0
ARC
  5
1C0
330
1F
100
AcDbEntity
  8
26
  6
Continuous
 62
     7
370
     9
100
AcDbCircle
 10
260.6704326390722
 20
151.4572484034123
 30
0.0
 40
15.0
100
AcDbArc
 50
325.8419327631656
 51
334.1580672368317
  0
LINE
  5
1C1
330
1F
100
AcDbEntity
  8
26
  6
Continuous
 62
     7
370
     9
100
AcDbLine
 10
261.758056812619
 20
136.4967312446669
 30
0.0
 11
273.0828084655251
 21
143.0350796599779
 31
0.0
  0
CIRCLE
  5
1C2
330
1F
100
AcDbEntity
  8
26
  6
Continuous
 62
     7
370
     9
100
AcDbCircle
 10
260.6704326390722
 20
151.4572484034123
 30
0.0
 40
4.75
  0
CIRCLE
  5
1C3
330
1F
100
AcDbEntity
  8
26
  6
Continuous
 62
     7
370
     9
100
AcDbCircle
 10
260.6704326390722
 20
151.4572484034123
 30
0.0
 40
8.000000000000057
  0
CIRCLE
  5
1C4
330
1F
100
AcDbEntity
  8
26
  6
Continuous
 62
     7
370
     9
100
AcDbCircle
 10
260.6704326390722
 20
151.4572484034123
 30
0.0
 40
8.752434041133483
  0
CIRCLE
  5
1C5
330
1F
100
AcDbEntity
  8
26
  6
Continuous
 62
     7
370
     9
100
AcDbCircle
 10
260.6704326390722
 20
151.4572484034123
 30
0.0
 40
11.0
  0
CIRCLE
  5
1C6
330
1F
100
AcDbEntity
  8
26
  6
Continuous
 62
     7
370
     9
100
AcDbCircle
 10
260.6704326390722
 20
151.4572484034123
 30
0.0
 40
13.5
  0
LINE
  5
1C7
330
1F
100
AcDbEntity
  8
26
  6
Continuous
 62
     7
370
     9
100
AcDbLine
 10
237.670432639072
 20
143.9572484034122
 30
0.0
 11
237.670432639072
 21
113.9572484034123
 31
0.0
  0
LINE
  5
1C8
330
1F
100
AcDbEntity
  8
26
  6
Continuous
 62
     7
370
     9
100
AcDbLine
 10
246.670432639072
 20
144.457248403412
 30
0.0
 11
247.4039334776506
 21
144.457248403412
 31
0.0
  0
LINE
  5
1C9
330
1F
100
AcDbEntity
  8
26
  6
Continuous
 62
     7
370
     9
100
AcDbLine
 10
246.9204326390721
 20
164.5572484034123
 30
0.0
 11
246.9204326390721
 21
163.4572484034125
 31
0.0
  0
LINE
  5
1CA
330
1F
100
AcDbEntity
  8
26
  6
Continuous
 62
     7
370
     9
100
AcDbLine
 10
274.4204326390721
 20
164.5572484034123
 30
0.0
 11
274.4204326390721
 21
163.4572484034123
 31
0.0
  0
ARC
  5
1CB
330
1F
100
AcDbEntity
  8
26
  6
Continuous
 62
     7
370
     9
100
AcDbCircle
 10
266.6704326390721
 20
115.9572484034123
 30
0.0
 40
2.0
100
AcDbArc
 50
269.9999999999998
 51
322.9381658537183
  0
ARC
  5
1CC
330
1F
100
AcDbEntity
  8
26
  6
Continuous
 62
     7
370
     9
100
AcDbCircle
 10
269.8623748816122
 20
113.5465421333976
 30
0.0
 40
2.0
100
AcDbArc
 50
98.56856122538937
 51
142.938165853719
  0
LINE
  5
1CD
330
1F
100
AcDbEntity
  8
26
  6
Continuous
 62
     7
370
     9
100
AcDbLine
 10
220.5364580428565
 20
141.3696242298653
 30
0.0
 11
235.670432639072
 21
141.3696242298653
 31
0.0
  0
LINE
  5
1CE
330
1F
100
AcDbEntity
  8
26
  6
Continuous
 62
     7
370
     9
100
AcDbLine
 10
235.670432639072
 20
141.3696242298653
 30
0.0
 11
235.670432639072
 21
130.0448725769592
 31
0.0
  0
LINE
  5
1CF
330
1F
100
AcDbEntity
  8
26
  6
Continuous
 62
     7
370
     9
100
AcDbLine
 10
220.5364580428565
 20
142.4572484034122
 30
0.0
 11
220.5364580428565
 21
141.3696242298653
 31
0.0
  0
ARC
  5
1D0
330
1F
100
AcDbEntity
  8
26
  6
Continuous
 62
     7
370
     9
100
AcDbCircle
 10
238.6147383468565
 20
135.7072484034123
 30
0.0
 40
18.94430570778454
100
AcDbArc
 50
162.6086979539724
 51
197.3913020460269
  0
LINE
  5
1D1
330
1F
100
AcDbEntity
  8
26
  6
Continuous
 62
     7
370
     9
100
AcDbLine
 10
220.5364580428565
 20
130.0448725769592
 30
0.0
 11
235.670432639072
 21
130.0448725769592
 31
0.0
  0
LINE
  5
1D2
330
1F
100
AcDbEntity
  8
26
  6
Continuous
 62
     7
370
     9
100
AcDbLine
 10
220.5364580428565
 20
130.0448725769592
 30
0.0
 11
220.5364580428565
 21
127.8696242298653
 31
0.0
  0
ARC
  5
1D3
330
1F
100
AcDbEntity
  8
26
  6
Continuous
 62
     7
370
     9
100
AcDbCircle
 10
238.6147383468563
 20
122.2072484034123
 30
0.0
 40
18.94430570778439
100
AcDbArc
 50
162.6086979539724
 51
197.3913020460269
  0
LINE
  5
1D4
330
1F
100
AcDbEntity
  8
26
  6
Continuous
 62
     7
370
     9
100
AcDbLine
 10
220.5364580428565
 20
127.8696242298653
 30
0.0
 11
235.670432639072
 21
127.8696242298653
 31
0.0
  0
LINE
  5
1D5
330
1F
100
AcDbEntity
  8
26
  6
Continuous
 62
     7
370
     9
100
AcDbLine
 10
235.670432639072
 20
127.8696242298653
 30
0.0
 11
235.670432639072
 21
116.5448725769592
 31
0.0
  0
LINE
  5
1D6
330
1F
100
AcDbEntity
  8
26
  6
Continuous
 62
     7
370
     9
100
AcDbLine
 10
220.5364580428565
 20
116.5448725769592
 30
0.0
 11
220.5364580428565
 21
115.4572484034122
 31
0.0
  0
LINE
  5
1D7
330
1F
100
AcDbEntity
  8
26
  6
Continuous
 62
     7
370
     9
100
AcDbLine
 10
220.5364580428565
 20
116.5448725769592
 30
0.0
 11
235.670432639072
 21
116.5448725769592
 31
0.0
  0
ARC
  5
1D8
330
1F
100
AcDbEntity
  8
26
  6
Continuous
 62
     7
370
     9
100
AcDbCircle
 10
243.070432639072
 20
140.5572484034123
 30
0.0
 40
6.5
100
AcDbArc
 50
63.61220003875648
 51
116.3877999612405
  0
ARC
  5
1D9
330
1F
100
AcDbEntity
  8
26
  6
Continuous
 62
     7
370
     9
100
AcDbCircle
 10
241.070432639072
 20
144.5883772775616
 30
0.0
 40
2.0
100
AcDbArc
 50
116.3877999612401
 51
179.9999999999998
  0
LINE
  5
1DA
330
1F
100
AcDbEntity
  8
26
  6
Continuous
 62
     7
370
     9
100
AcDbLine
 10
239.070432639072
 20
144.5883772775616
 30
0.0
 11
239.070432639072
 21
143.9572484034123
 31
0.0
  0
ARC
  5
1DB
330
1F
100
AcDbEntity
  8
26
  6
Continuous
 62
     7
370
     9
100
AcDbCircle
 10
245.070432639072
 20
144.5883772775616
 30
0.0
 40
2.0
100
AcDbArc
 50
36.86989764584337
 51
63.61220003875624
  0
LINE
  5
1DC
330
1F
100
AcDbEntity
  8
26
  6
Continuous
 62
     7
370
     9
100
AcDbLine
 10
471.9153111179192
 20
163.4572484034124
 30
0.0
 11
485.9153111179192
 21
163.4572484034124
 31
0.0
  0
LINE
  5
1DD
330
1F
100
AcDbEntity
  8
26
  6
Continuous
 62
     7
370
     9
100
AcDbLine
 10
499.6653111179192
 20
163.4572484034124
 30
0.0
 11
507.915311117919
 21
163.4572484034125
 31
0.0
  0
LINE
  5
1DE
330
1F
100
AcDbEntity
  8
26
  6
Continuous
 62
     7
370
     9
100
AcDbLine
 10
471.9153111179192
 20
163.4572484034124
 30
0.0
 11
472.1653111179191
 21
163.4572484034124
 31
0.0
  0
ARC
  5
1DF
330
1F
100
AcDbEntity
  8
26
  6
Continuous
 62
     7
370
     9
100
AcDbCircle
 10
508.4153111179192
 20
143.4572484034124
 30
0.0
 40
0.5
100
AcDbArc
 50
0.0
 51
89.99999999999991
  0
LINE
  5
1E0
330
1F
100
AcDbEntity
  8
26
  6
Continuous
 62
     7
370
     9
100
AcDbLine
 10
508.4153111179192
 20
143.9572484034125
 30
0.0
 11
499.8451356793227
 21
143.9572484034122
 31
0.0
  0
ARC
  5
1E1
330
1F
100
AcDbEntity
  8
26
  6
Continuous
 62
     7
370
     9
100
AcDbCircle
 10
508.4153111179192
 20
114.4572484034122
 30
0.0
 40
0.5
100
AcDbArc
 50
269.9999999999998
 51
0.0
  0
LINE
  5
1E2
330
1F
100
AcDbEntity
  8
26
  6
Continuous
 62
     7
370
     9
100
AcDbLine
 10
508.4153111179192
 20
113.9572484034123
 30
0.0
 11
479.9153111179192
 21
113.9572484034123
 31
0.0
  0
LINE
  5
1E3
330
1F
100
AcDbEntity
  8
26
  6
Continuous
 62
     7
370
     9
100
AcDbLine
 10
490.6986094626947
 20
115.4572484034123
 30
0.0
 11
477.9153111179192
 21
115.4572484034123
 31
0.0
  0
LINE
  5
1E4
330
1F
100
AcDbEntity
  8
26
  6
Continuous
 62
     7
370
     9
100
AcDbLine
 10
499.9153111179191
 20
163.4572484034124
 30
0.0
 11
499.9153111179191
 21
144.4572484034121
 31
0.0
  0
LINE
  5
1E5
330
1F
100
AcDbEntity
  8
26
  6
Continuous
 62
     7
370
     9
100
AcDbLine
 10
471.9153111179192
 20
163.4572484034124
 30
0.0
 11
471.9153111179192
 21
121.4572484034123
 31
0.0
  0
LINE
  5
1E6
330
1F
100
AcDbEntity
  8
26
  6
Continuous
 62
     7
370
     9
100
AcDbLine
 10
508.9153111179192
 20
143.9572484034123
 30
0.0
 11
508.9153111179192
 21
113.9572484034123
 31
0.0
  0
LINE
  5
1E7
330
1F
100
AcDbEntity
  8
26
  6
Continuous
 62
     7
370
     9
100
AcDbLine
 10
508.9153111179192
 20
143.4572484034124
 30
0.0
 11
508.9153111179192
 21
114.4572484034122
 31
0.0
  0
ARC
  5
1E8
330
1F
100
AcDbEntity
  8
26
  6
Continuous
 62
     7
370
     9
100
AcDbCircle
 10
477.9153111179192
 20
121.4572484034123
 30
0.0
 40
6.0
100
AcDbArc
 50
179.9999999999997
 51
269.9999999999998
  0
LINE
  5
1E9
330
1F
100
AcDbEntity
  8
26
  6
Continuous
 62
     7
370
     9
100
AcDbLine
 10
526.0492857141348
 20
142.4572484034124
 30
0.0
 11
526.0492857141348
 21
141.3696242298654
 31
0.0
  0
LINE
  5
1EA
330
1F
100
AcDbEntity
  8
26
  6
Continuous
 62
     7
370
     9
100
AcDbLine
 10
510.9153111179193
 20
143.9572484034124
 30
0.0
 11
510.9153111179193
 21
142.4572484034124
 31
0.0
  0
LINE
  5
1EB
330
1F
100
AcDbEntity
  8
26
  6
Continuous
 62
     7
370
     9
100
AcDbLine
 10
526.9153111179191
 20
142.4572484034124
 30
0.0
 11
510.9153111179193
 21
142.4572484034124
 31
0.0
  0
LINE
  5
1EC
330
1F
100
AcDbEntity
  8
26
  6
Continuous
 62
     7
370
     9
100
AcDbLine
 10
526.0492857141348
 20
141.3696242298654
 30
0.0
 11
510.9153111179193
 21
141.3696242298654
 31
0.0
  0
LINE
  5
1ED
330
1F
100
AcDbEntity
  8
26
  6
Continuous
 62
     7
370
     9
100
AcDbLine
 10
526.0492857141348
 20
116.5448725769593
 30
0.0
 11
526.0492857141348
 21
115.4572484034123
 31
0.0
  0
LINE
  5
1EE
330
1F
100
AcDbEntity
  8
26
  6
Continuous
 62
     7
370
     9
100
AcDbLine
 10
510.9153111179193
 20
115.4572484034123
 30
0.0
 11
510.9153111179193
 21
113.9572484034123
 31
0.0
  0
LINE
  5
1EF
330
1F
100
AcDbEntity
  8
26
  6
Continuous
 62
     7
370
     9
100
AcDbLine
 10
526.9153111179191
 20
142.4572484034124
 30
0.0
 11
526.9153111179191
 21
115.4572484034123
 31
0.0
  0
ARC
  5
1F0
330
1F
100
AcDbEntity
  8
26
  6
Continuous
 62
     7
370
     9
100
AcDbCircle
 10
507.9710054101347
 20
135.7072484034124
 30
0.0
 40
18.94430570778445
100
AcDbArc
 50
342.6086979539716
 51
17.39130204602761
  0
LINE
  5
1F1
330
1F
100
AcDbEntity
  8
26
  6
Continuous
 62
     7
370
     9
100
AcDbLine
 10
510.9153111179193
 20
143.9572484034124
 30
0.0
 11
508.9153111179192
 21
143.9572484034123
 31
0.0
  0
LINE
  5
1F2
330
1F
100
AcDbEntity
  8
26
  6
Continuous
 62
     7
370
     9
100
AcDbLine
 10
510.9153111179193
 20
141.3696242298654
 30
0.0
 11
510.9153111179193
 21
130.0448725769593
 31
0.0
  0
ARC
  5
1F3
330
1F
100
AcDbEntity
  8
26
  6
Continuous
 62
     7
370
     9
100
AcDbCircle
 10
507.9710054101349
 20
122.2072484034123
 30
0.0
 40
18.94430570778434
100
AcDbArc
 50
342.6086979539716
 51
17.39130204602759
  0
LINE
  5
1F4
330
1F
100
AcDbEntity
  8
26
  6
Continuous
 62
     7
370
     9
100
AcDbLine
 10
526.9153111179191
 20
115.4572484034123
 30
0.0
 11
510.9153111179193
 21
115.4572484034123
 31
0.0
  0
LINE
  5
1F5
330
1F
100
AcDbEntity
  8
26
  6
Continuous
 62
     7
370
     9
100
AcDbLine
 10
526.0492857141348
 20
116.5448725769593
 30
0.0
 11
510.9153111179193
 21
116.5448725769593
 31
0.0
  0
LINE
  5
1F6
330
1F
100
AcDbEntity
  8
26
  6
Continuous
 62
     7
370
     9
100
AcDbLine
 10
510.9153111179193
 20
113.9572484034123
 30
0.0
 11
508.9153111179192
 21
113.9572484034123
 31
0.0
  0
LINE
  5
1F7
330
1F
100
AcDbEntity
  8
26
  6
Continuous
 62
     7
370
     9
100
AcDbLine
 10
510.9153111179193
 20
127.8696242298654
 30
0.0
 11
510.9153111179193
 21
116.5448725769593
 31
0.0
  0
LINE
  5
1F8
330
1F
100
AcDbEntity
  8
26
  6
Continuous
 62
     7
370
     9
100
AcDbLine
 10
526.0492857141348
 20
130.0448725769593
 30
0.0
 11
510.9153111179193
 21
130.0448725769593
 31
0.0
  0
LINE
  5
1F9
330
1F
100
AcDbEntity
  8
26
  6
Continuous
 62
     7
370
     9
100
AcDbLine
 10
526.0492857141348
 20
130.0448725769593
 30
0.0
 11
526.0492857141348
 21
127.8696242298654
 31
0.0
  0
LINE
  5
1FA
330
1F
100
AcDbEntity
  8
26
  6
Continuous
 62
     7
370
     9
100
AcDbLine
 10
526.0492857141348
 20
127.8696242298654
 30
0.0
 11
510.9153111179193
 21
127.8696242298654
 31
0.0
  0
LINE
  5
1FB
330
1F
100
AcDbEntity
  8
26
  6
Continuous
 62
     7
370
     9
100
AcDbLine
 10
472.1653111179191
 20
163.4572484034124
 30
0.0
 11
472.1653111179191
 21
166.5572484034124
 31
0.0
  0
ARC
  5
1FC
330
1F
100
AcDbEntity
  8
26
  6
Continuous
 62
     7
370
     9
100
AcDbCircle
 10
479.9153111179192
 20
115.9572484034123
 30
0.0
 40
2.0
100
AcDbArc
 50
217.0618341462783
 51
269.9999999999998
  0
ARC
  5
1FD
330
1F
100
AcDbEntity
  8
26
  6
Continuous
 62
     7
370
     9
100
AcDbCircle
 10
476.723368875379
 20
113.5465421333977
 30
0.0
 40
2.0
100
AcDbArc
 50
37.06183414627903
 51
81.43143877461061
  0
LINE
  5
1FE
330
1F
100
AcDbEntity
  8
26
  6
Continuous
 62
     7
370
     9
100
AcDbLine
 10
499.9153111179193
 20
144.4572484034121
 30
0.0
 11
496.5701978870093
 21
120.6233166331792
 31
0.0
  0
ARC
  5
1FF
330
1F
100
AcDbEntity
  8
26
  6
Continuous
 62
     7
370
     9
100
AcDbCircle
 10
490.6284340240982
 20
121.4572484034123
 30
0.0
 40
6.0
100
AcDbArc
 50
269.9999999999998
 51
352.0106732336001
  0
LINE
  5
200
330
1F
100
AcDbEntity
  8
26
  6
Continuous
 62
     7
370
     9
100
AcDbLine
 10
507.5153111179192
 20
144.5883772775616
 30
0.0
 11
507.5153111179192
 21
143.9572484034124
 31
0.0
  0
ARC
  5
201
330
1F
100
AcDbEntity
  8
26
  6
Continuous
 62
     7
370
     9
100
AcDbCircle
 10
505.5153111179192
 20
144.5883772775616
 30
0.0
 40
2.0
100
AcDbArc
 50
0.0
 51
63.61220003875624
  0
LINE
  5
202
330
1F
100
AcDbEntity
  8
26
  6
Continuous
 62
     7
370
     9
100
AcDbLine
 10
507.5153111179192
 20
143.9572484034124
 30
0.0
 11
499.8451356793229
 21
143.9572484034124
 31
0.0
  0
ARC
  5
203
330
1F
100
AcDbEntity
  8
26
  6
Continuous
 62
     7
370
     9
100
AcDbCircle
 10
501.5153111179192
 20
144.5883772775616
 30
0.0
 40
2.0
100
AcDbArc
 50
116.3877999612401
 51
143.1301023541567
  0
ARC
  5
204
330
1F
100
AcDbEntity
  8
26
  6
Continuous
 62
     7
370
     9
100
AcDbCircle
 10
503.5153111179192
 20
140.5572484034123
 30
0.0
 40
6.5
100
AcDbArc
 50
63.61220003875671
 51
116.3877999612405
  0
LINE
  5
205
330
1F
100
AcDbEntity
  8
26
  6
Continuous
 62
     7
370
     9
100
AcDbLine
 10
485.9153111179192
 20
166.5572484034124
 30
0.0
 11
470.0653111179192
 21
166.5572484034124
 31
0.0
  0
LINE
  5
206
330
1F
100
AcDbEntity
  8
26
  6
Continuous
 62
     7
370
     9
100
AcDbLine
 10
470.0653111179192
 20
181.0572484034125
 30
0.0
 11
470.0653111179192
 21
166.5572484034124
 31
0.0
  0
LINE
  5
207
330
1F
100
AcDbEntity
  8
26
  6
Continuous
 62
     7
370
     9
100
AcDbLine
 10
485.9153111179192
 20
195.7572484034124
 30
0.0
 11
474.4358736436294
 21
195.7572484034124
 31
0.0
  0
ARC
  5
208
330
1F
100
AcDbEntity
  8
26
  6
Continuous
 62
     7
370
     9
100
AcDbCircle
 10
554.612142876804
 20
172.2917912256695
 30
0.0
 40
85.0
100
AcDbArc
 50
165.0118084405356
 51
174.0809632179293
  0
ARC
  5
209
330
1F
100
AcDbEntity
  8
26
  6
Continuous
 62
     7
370
     9
100
AcDbCircle
 10
474.4358736436294
 20
193.7572484034124
 30
0.0
 40
2.0
100
AcDbArc
 50
89.99999999999991
 51
165.0118084405357
  0
ARC
  5
20A
330
1F
100
AcDbEntity
  8
26
  6
Continuous
 62
     7
370
     9
100
AcDbCircle
 10
497.394748592209
 20
193.7572484034124
 30
0.0
 40
2.0
100
AcDbArc
 50
14.98819155946433
 51
89.99999999999991
  0
LINE
  5
20B
330
1F
100
AcDbEntity
  8
26
  6
Continuous
 62
     7
370
     9
100
AcDbLine
 10
485.9153111179192
 20
166.5572484034124
 30
0.0
 11
501.7653111179191
 21
166.5572484034124
 31
0.0
  0
LINE
  5
20C
330
1F
100
AcDbEntity
  8
26
  6
Continuous
 62
     7
370
     9
100
AcDbLine
 10
501.7653111179191
 20
181.0572484034125
 30
0.0
 11
501.7653111179191
 21
166.5572484034124
 31
0.0
  0
ARC
  5
20D
330
1F
100
AcDbEntity
  8
26
  6
Continuous
 62
     7
370
     9
100
AcDbCircle
 10
417.2184793590345
 20
172.2917912256695
 30
0.0
 40
85.0
100
AcDbArc
 50
5.919036782070687
 51
14.98819155946433
  0
LINE
  5
20E
330
1F
100
AcDbEntity
  8
26
  6
Continuous
 62
     7
370
     9
100
AcDbLine
 10
485.9153111179192
 20
195.7572484034124
 30
0.0
 11
497.394748592209
 21
195.7572484034124
 31
0.0
  0
LINE
  5
20F
330
1F
100
AcDbEntity
  8
26
  6
Continuous
 62
     7
370
     9
100
AcDbLine
 10
480.1653111179192
 20
154.4572484034124
 30
0.0
 11
480.9805111179191
 21
154.4572484034124
 31
0.0
  0
ARC
  5
210
330
1F
100
AcDbEntity
  8
26
  6
Continuous
 62
     7
370
     9
100
AcDbCircle
 10
480.1653111179192
 20
154.1572484034124
 30
0.0
 40
0.3000000000000114
100
AcDbArc
 50
89.99999999999991
 51
179.9999999999998
  0
LINE
  5
211
330
1F
100
AcDbEntity
  8
26
  6
Continuous
 62
     7
370
     9
100
AcDbLine
 10
480.6653111179191
 20
141.4572484034123
 30
0.0
 11
480.6653111179191
 21
140.4572484034123
 31
0.0
  0
LINE
  5
212
330
1F
100
AcDbEntity
  8
26
  6
Continuous
 62
     7
370
     9
100
AcDbLine
 10
480.9691586952125
 20
139.4572484034123
 30
0.0
 11
480.1653111179192
 21
140.4572484034123
 31
0.0
  0
LINE
  5
213
330
1F
100
AcDbEntity
  8
26
  6
Continuous
 62
     7
370
     9
100
AcDbLine
 10
479.8653111179191
 20
142.2072484034123
 30
0.0
 11
480.6653111179191
 21
141.4572484034123
 31
0.0
  0
LINE
  5
214
330
1F
100
AcDbEntity
  8
26
  6
Continuous
 62
     7
370
     9
100
AcDbLine
 10
479.8653111179191
 20
144.4572484034124
 30
0.0
 11
480.9805111179191
 21
144.4572484034124
 31
0.0
  0
ARC
  5
215
330
1F
100
AcDbEntity
  8
26
  6
Continuous
 62
     7
370
     9
100
AcDbCircle
 10
480.8056993211214
 20
126.9572484034123
 30
0.0
 40
0.5
100
AcDbArc
 50
89.99999999999991
 51
194.0362434679372
  0
ARC
  5
216
330
1F
100
AcDbEntity
  8
26
  6
Continuous
 62
     7
370
     9
100
AcDbCircle
 10
481.8056993211214
 20
122.9572484034123
 30
0.0
 40
0.5
100
AcDbArc
 50
194.0362434679166
 51
269.9999999999998
  0
LINE
  5
217
330
1F
100
AcDbEntity
  8
26
  6
Continuous
 62
     7
370
     9
100
AcDbLine
 10
481.3206280710486
 20
122.8359805908942
 30
0.0
 11
480.3206280710487
 21
126.835980590894
 31
0.0
  0
LINE
  5
218
330
1F
100
AcDbEntity
  8
26
  6
Continuous
 62
     7
370
     9
100
AcDbLine
 10
479.8653111179191
 20
154.1572484034124
 30
0.0
 11
479.8653111179191
 21
142.2072484034123
 31
0.0
  0
ARC
  5
219
330
1F
100
AcDbEntity
  8
26
  6
Continuous
 62
     7
370
     9
100
AcDbCircle
 10
485.9153111179191
 20
151.4572484034124
 30
0.0
 40
8.5
100
AcDbArc
 50
89.99999999999991
 51
224.6213213640802
  0
ARC
  5
21A
330
1F
100
AcDbEntity
  8
26
  6
Continuous
 62
     7
370
     9
100
AcDbCircle
 10
485.9153111179191
 20
151.4572484034124
 30
0.0
 40
10.0
100
AcDbArc
 50
89.99999999999991
 51
232.7711581249252
  0
ARC
  5
21B
330
1F
100
AcDbEntity
  8
26
  6
Continuous
 62
     7
370
     9
100
AcDbCircle
 10
485.9153111179192
 20
151.4572484034124
 30
0.0
 40
6.050000000000011
100
AcDbArc
 50
89.99999999999991
 51
150.2730117288757
  0
LINE
  5
21C
330
1F
100
AcDbEntity
  8
26
  6
Continuous
 62
     7
370
     9
100
AcDbLine
 10
480.9805111179191
 20
154.4572484034124
 30
0.0
 11
480.9805111179191
 21
144.4572484034124
 31
0.0
  0
ARC
  5
21D
330
1F
100
AcDbEntity
  8
26
  6
Continuous
 62
     7
370
     9
100
AcDbCircle
 10
486.1653111179192
 20
136.4572484034123
 30
0.0
 40
6.0
100
AcDbArc
 50
149.9999999999993
 51
209.9999999999997
  0
LINE
  5
21E
330
1F
100
AcDbEntity
  8
26
  6
Continuous
 62
     7
370
     9
100
AcDbLine
 10
480.9691586952125
 20
139.4572484034123
 30
0.0
 11
485.9153111179192
 21
139.4572484034123
 31
0.0
  0
LINE
  5
21F
330
1F
100
AcDbEntity
  8
26
  6
Continuous
 62
     7
370
     9
100
AcDbLine
 10
480.1653111179192
 20
140.4572484034123
 30
0.0
 11
485.9153111179192
 21
140.4572484034123
 31
0.0
  0
LINE
  5
220
330
1F
100
AcDbEntity
  8
26
  6
Continuous
 62
     7
370
     9
100
AcDbLine
 10
480.6653111179191
 20
141.4572484034123
 30
0.0
 11
485.9153111179192
 21
141.4572484034123
 31
0.0
  0
LINE
  5
221
330
1F
100
AcDbEntity
  8
26
  6
Continuous
 62
     7
370
     9
100
AcDbLine
 10
479.8653111179191
 20
142.2072484034123
 30
0.0
 11
485.9153111179192
 21
142.2072484034123
 31
0.0
  0
ARC
  5
222
330
1F
100
AcDbEntity
  8
26
  6
Continuous
 62
     7
370
     9
100
AcDbCircle
 10
486.1653111179192
 20
130.4572484034123
 30
0.0
 40
6.0
100
AcDbArc
 50
149.9999999999993
 51
209.9999999999997
  0
LINE
  5
223
330
1F
100
AcDbEntity
  8
26
  6
Continuous
 62
     7
370
     9
100
AcDbLine
 10
480.8056993211214
 20
127.4572484034123
 30
0.0
 11
485.9153111179192
 21
127.4572484034123
 31
0.0
  0
LINE
  5
224
330
1F
100
AcDbEntity
  8
26
  6
Continuous
 62
     7
370
     9
100
AcDbLine
 10
481.8056993211214
 20
122.4572484034123
 30
0.0
 11
485.9153111179192
 21
122.4572484034123
 31
0.0
  0
ARC
  5
225
330
1F
100
AcDbEntity
  8
26
  6
Continuous
 62
     7
370
     9
100
AcDbCircle
 10
513.773042859771
 20
180.0841258008874
 30
0.0
 40
42.5
100
AcDbArc
 50
160.4948927639196
 51
173.6668690538286
  0
LINE
  5
226
330
1F
100
AcDbEntity
  8
26
  6
Continuous
 62
     7
370
     9
100
AcDbLine
 10
474.8579129246735
 20
181.0572484034125
 30
0.0
 11
485.9153111179192
 21
181.0572484034125
 31
0.0
  0
ARC
  5
227
330
1F
100
AcDbEntity
  8
26
  6
Continuous
 62
     7
370
     9
100
AcDbCircle
 10
474.8579129246735
 20
184.4031743125631
 30
0.0
 40
3.345925909150651
100
AcDbArc
 50
173.6668690538287
 51
269.9999999999998
  0
ARC
  5
228
330
1F
100
AcDbEntity
  8
26
  6
Continuous
 62
     7
370
     9
100
AcDbCircle
 10
332.1892192578228
 20
139.7463904467906
 30
0.0
 40
6.668066699988174
100
AcDbArc
 50
178.7800826408957
 51
181.219917359102
  0
LINE
  5
229
330
1F
100
AcDbEntity
  8
26
  6
Continuous
 62
     7
370
     9
100
AcDbLine
 10
418.0226639218951
 20
163.4572484034123
 30
0.0
 11
418.0226639218951
 21
162.9572484034123
 31
0.0
  0
LINE
  5
22A
330
1F
100
AcDbEntity
  8
26
  6
Continuous
 62
     7
370
     9
100
AcDbLine
 10
418.0226639218951
 20
163.4572484034123
 30
0.0
 11
390.0226639218952
 21
163.4572484034123
 31
0.0
  0
LINE
  5
22B
330
1F
100
AcDbEntity
  8
26
  6
Continuous
 62
     7
370
     9
100
AcDbLine
 10
418.0226639218952
 20
163.4572484034123
 30
0.0
 11
418.0226639218952
 21
162.4572484034123
 31
0.0
  0
ARC
  5
22C
330
1F
100
AcDbEntity
  8
26
  6
Continuous
 62
     7
370
     9
100
AcDbCircle
 10
419.0226639218952
 20
162.4572484034123
 30
0.0
 40
1.0
100
AcDbArc
 50
179.9999999999998
 51
269.9999999999998
  0
LINE
  5
22D
330
1F
100
AcDbEntity
  8
26
  6
Continuous
 62
     7
370
     9
100
AcDbLine
 10
362.0226639218952
 20
163.4572484034122
 30
0.0
 11
376.0226639218954
 21
163.4572484034123
 31
0.0
  0
ARC
  5
22E
330
1F
100
AcDbEntity
  8
26
  6
Continuous
 62
     7
370
     9
100
AcDbCircle
 10
332.1892192578228
 20
139.7463904467906
 30
0.0
 40
6.668066699988174
100
AcDbArc
 50
178.7800826408957
 51
181.219917359102
  0
LINE
  5
22F
330
1F
100
AcDbEntity
  8
26
  6
Continuous
 62
     7
370
     9
100
AcDbLine
 10
416.5226639218952
 20
139.4572484034123
 30
0.0
 11
416.5226639218952
 21
121.9572484034124
 31
0.0
  0
LINE
  5
230
330
1F
100
AcDbEntity
  8
26
  6
Continuous
 62
     7
370
     9
100
AcDbLine
 10
417.0226639218951
 20
131.873446890508
 30
0.0
 11
417.0226639218951
 21
118.0410499163167
 31
0.0
  0
LINE
  5
231
330
1F
100
AcDbEntity
  8
26
  6
Continuous
 62
     7
370
     9
100
AcDbLine
 10
416.5226639218952
 20
133.3358869137735
 30
0.0
 11
416.5226639218952
 21
132.9572484034123
 31
0.0
  0
ARC
  5
232
330
1F
100
AcDbEntity
  8
26
  6
Continuous
 62
     7
370
     9
100
AcDbCircle
 10
426.5226639218952
 20
160.9572484034123
 30
0.0
 40
0.5
100
AcDbArc
 50
0.0
 51
89.99999999999991
  0
ARC
  5
233
330
1F
100
AcDbEntity
  8
26
  6
Continuous
 62
     7
370
     9
100
AcDbCircle
 10
426.5226639218952
 20
141.9572484034123
 30
0.0
 40
0.5
100
AcDbArc
 50
269.9999999999998
 51
0.0
  0
LINE
  5
234
330
1F
100
AcDbEntity
  8
26
  6
Continuous
 62
     7
370
     9
100
AcDbLine
 10
427.0226639218952
 20
160.9572484034123
 30
0.0
 11
427.0226639218952
 21
141.9572484034123
 31
0.0
  0
LINE
  5
235
330
1F
100
AcDbEntity
  8
26
  6
Continuous
 62
     7
370
     9
100
AcDbLine
 10
426.5226639218952
 20
141.4572484034123
 30
0.0
 11
418.5226639218951
 21
141.4572484034123
 31
0.0
  0
LINE
  5
236
330
1F
100
AcDbEntity
  8
26
  6
Continuous
 62
     7
370
     9
100
AcDbLine
 10
426.5226639218952
 20
161.4572484034123
 30
0.0
 11
419.0226639218952
 21
161.4572484034123
 31
0.0
  0
LINE
  5
237
330
1F
100
AcDbEntity
  8
26
  6
Continuous
 62
     7
370
     9
100
AcDbLine
 10
390.0226639218952
 20
163.4572484034123
 30
0.0
 11
390.0226639218952
 21
145.2053252126843
 31
0.0
  0
LINE
  5
238
330
1F
100
AcDbEntity
  8
26
  6
Continuous
 62
     7
370
     9
100
AcDbLine
 10
376.0226639218954
 20
163.4572484034123
 30
0.0
 11
376.0226639218953
 21
145.2053252126843
 31
0.0
  0
LINE
  5
239
330
1F
100
AcDbEntity
  8
26
  6
Continuous
 62
     7
370
     9
100
AcDbLine
 10
349.5226639218953
 20
134.4572484034123
 30
0.0
 11
349.5226639218953
 21
127.4572484034123
 31
0.0
  0
LINE
  5
23A
330
1F
100
AcDbEntity
  8
26
  6
Continuous
 62
     7
370
     9
100
AcDbLine
 10
348.2726639218954
 20
163.4572484034123
 30
0.0
 11
348.0226639218954
 21
163.4572484034123
 31
0.0
  0
ARC
  5
23B
330
1F
100
AcDbEntity
  8
26
  6
Continuous
 62
     7
370
     9
100
AcDbCircle
 10
418.5226639218951
 20
139.4572484034123
 30
0.0
 40
2.0
100
AcDbArc
 50
89.99999999999991
 51
179.9999999999998
  0
LINE
  5
23C
330
1F
100
AcDbEntity
  8
26
  6
Continuous
 62
     7
370
     9
100
AcDbLine
 10
347.0226639218954
 20
161.9572484034123
 30
0.0
 11
345.8510910466415
 21
161.9572484034123
 31
0.0
  0
ARC
  5
23D
330
1F
100
AcDbEntity
  8
26
  6
Continuous
 62
     7
370
     9
100
AcDbCircle
 10
347.0226639218954
 20
162.9572484034123
 30
0.0
 40
1.0
100
AcDbArc
 50
269.9999999999998
 51
0.0
  0
ARC
  5
23E
330
1F
100
AcDbEntity
  8
26
  6
Continuous
 62
     7
370
     9
100
AcDbCircle
 10
416.5226639218952
 20
131.873446890508
 30
0.0
 40
0.5
100
AcDbArc
 50
0.0
 51
89.99999999999991
  0
LINE
  5
23F
330
1F
100
AcDbEntity
  8
26
  6
Continuous
 62
     7
370
     9
100
AcDbLine
 10
416.5226639218952
 20
117.5410499163167
 30
0.0
 11
415.0683640230534
 21
117.5410499163167
 31
0.0
  0
ARC
  5
240
330
1F
100
AcDbEntity
  8
26
  6
Continuous
 62
     7
370
     9
100
AcDbCircle
 10
416.5226639218952
 20
118.0410499163167
 30
0.0
 40
0.5
100
AcDbArc
 50
269.9999999999998
 51
0.0
  0
LINE
  5
241
330
1F
100
AcDbEntity
  8
26
  6
Continuous
 62
     7
370
     9
100
AcDbLine
 10
361.5226639218953
 20
115.4572484034123
 30
0.0
 11
410.5226639218951
 21
115.4572484034123
 31
0.0
  0
ARC
  5
242
330
1F
100
AcDbEntity
  8
26
  6
Continuous
 62
     7
370
     9
100
AcDbCircle
 10
361.5226639218953
 20
127.4572484034123
 30
0.0
 40
12.0
100
AcDbArc
 50
179.9999999999998
 51
269.9999999999994
  0
ARC
  5
243
330
1F
100
AcDbEntity
  8
26
  6
Continuous
 62
     7
370
     9
100
AcDbCircle
 10
410.5226639218951
 20
121.4572484034124
 30
0.0
 40
6.0
100
AcDbArc
 50
269.9999999999998
 51
319.2545380843387
  0
ARC
  5
244
330
1F
100
AcDbEntity
  8
26
  6
Continuous
 62
     7
370
     9
100
AcDbCircle
 10
427.820622893028
 20
151.4572484034124
 30
0.0
 40
14.00000000000006
100
AcDbArc
 50
134.4153085971932
 51
220.1815163412763
  0
ARC
  5
245
330
1F
100
AcDbEntity
  8
26
  6
Continuous
 62
     7
370
     9
100
AcDbCircle
 10
420.5843373359665
 20
117.5410499163167
 30
0.0
 40
6.000000000000057
100
AcDbArc
 50
132.6054176565425
 51
175.1864471970341
  0
LINE
  5
246
330
1F
100
AcDbEntity
  8
26
  6
Continuous
 62
     7
370
     9
100
AcDbLine
 10
376.0226639218953
 20
163.4572484034121
 30
0.0
 11
375.7726639218954
 21
163.4572484034121
 31
0.0
  0
LINE
  5
247
330
1F
100
AcDbEntity
  8
26
  6
Continuous
 62
     7
370
     9
100
AcDbLine
 10
362.0226639218952
 20
163.4572484034121
 30
0.0
 11
348.0226639218954
 21
163.4572484034121
 31
0.0
  0
ARC
  5
248
330
1F
100
AcDbEntity
  8
26
  6
Continuous
 62
     7
370
     9
100
AcDbCircle
 10
383.0226639218953
 20
128.9572484034123
 30
0.0
 40
15.0
100
AcDbArc
 50
64.40287982985484
 51
115.5971201701452
  0
LINE
  5
249
330
1F
100
AcDbEntity
  8
26
  6
Continuous
 62
     7
370
     9
100
AcDbLine
 10
440.0726639218952
 20
141.4572484034123
 30
0.0
 11
440.0726639218952
 21
140.4572484034123
 31
0.0
  0
LINE
  5
24A
330
1F
100
AcDbEntity
  8
26
  6
Continuous
 62
     7
370
     9
100
AcDbLine
 10
439.7688163446018
 20
139.4572484034123
 30
0.0
 11
440.5726639218952
 21
140.4572484034123
 31
0.0
  0
ARC
  5
24B
330
1F
100
AcDbEntity
  8
26
  6
Continuous
 62
     7
370
     9
100
AcDbCircle
 10
434.5726639218952
 20
136.4572484034123
 30
0.0
 40
6.0
100
AcDbArc
 50
329.9999999999987
 51
30.00000000000074
  0
LINE
  5
24C
330
1F
100
AcDbEntity
  8
26
  6
Continuous
 62
     7
370
     9
100
AcDbLine
 10
439.4173469687657
 20
122.8359805908942
 30
0.0
 11
440.4173469687657
 21
126.835980590894
 31
0.0
  0
ARC
  5
24D
330
1F
100
AcDbEntity
  8
26
  6
Continuous
 62
     7
370
     9
100
AcDbCircle
 10
434.5726639218952
 20
130.4572484034123
 30
0.0
 40
6.0
100
AcDbArc
 50
329.9999999999985
 51
30.00000000000074
  0
ARC
  5
24E
330
1F
100
AcDbEntity
  8
26
  6
Continuous
 62
     7
370
     9
100
AcDbCircle
 10
437.8226639218952
 20
144.9572484034123
 30
0.0
 40
0.5
100
AcDbArc
 50
269.9999999999998
 51
0.0
  0
LINE
  5
24F
330
1F
100
AcDbEntity
  8
26
  6
Continuous
 62
     7
370
     9
100
AcDbLine
 10
440.8726639218953
 20
142.2072484034124
 30
0.0
 11
440.0726639218952
 21
141.4572484034123
 31
0.0
  0
ARC
  5
250
330
1F
100
AcDbEntity
  8
26
  6
Continuous
 62
     7
370
     9
100
AcDbCircle
 10
439.932275718693
 20
126.9572484034123
 30
0.0
 40
0.5
100
AcDbArc
 50
345.9637565320605
 51
89.99999999999991
  0
ARC
  5
251
330
1F
100
AcDbEntity
  8
26
  6
Continuous
 62
     7
370
     9
100
AcDbCircle
 10
438.932275718693
 20
122.9572484034123
 30
0.0
 40
0.5
100
AcDbArc
 50
269.9999999999998
 51
345.9637565320826
  0
LINE
  5
252
330
1F
100
AcDbEntity
  8
26
  6
Continuous
 62
     7
370
     9
100
AcDbLine
 10
429.8765114991887
 20
139.4572484034123
 30
0.0
 11
429.0726639218953
 21
140.4572484034123
 31
0.0
  0
LINE
  5
253
330
1F
100
AcDbEntity
  8
26
  6
Continuous
 62
     7
370
     9
100
AcDbLine
 10
430.2279808750248
 20
122.8359805908942
 30
0.0
 11
429.2279808750248
 21
126.8359805908942
 31
0.0
  0
ARC
  5
254
330
1F
100
AcDbEntity
  8
26
  6
Continuous
 62
     7
370
     9
100
AcDbCircle
 10
435.0726639218952
 20
130.4572484034123
 30
0.0
 40
6.0
100
AcDbArc
 50
149.9999999999993
 51
209.9999999999997
  0
ARC
  5
255
330
1F
100
AcDbEntity
  8
26
  6
Continuous
 62
     7
370
     9
100
AcDbCircle
 10
435.0726639218952
 20
136.4572484034123
 30
0.0
 40
6.0
100
AcDbArc
 50
149.9999999999993
 51
209.9999999999997
  0
LINE
  5
256
330
1F
100
AcDbEntity
  8
26
  6
Continuous
 62
     7
370
     9
100
AcDbLine
 10
428.7726639218952
 20
143.629791315451
 30
0.0
 11
428.7726639218952
 21
142.2072484034123
 31
0.0
  0
LINE
  5
257
330
1F
100
AcDbEntity
  8
26
  6
Continuous
 62
     7
370
     9
100
AcDbLine
 10
429.5726639218952
 20
141.4572484034123
 30
0.0
 11
429.5726639218952
 21
140.4572484034123
 31
0.0
  0
LINE
  5
258
330
1F
100
AcDbEntity
  8
26
  6
Continuous
 62
     7
370
     9
100
AcDbLine
 10
429.5726639218953
 20
141.4572484034123
 30
0.0
 11
428.7726639218952
 21
142.2072484034123
 31
0.0
  0
ARC
  5
259
330
1F
100
AcDbEntity
  8
26
  6
Continuous
 62
     7
370
     9
100
AcDbCircle
 10
428.2726639218952
 20
143.629791315451
 30
0.0
 40
0.5
100
AcDbArc
 50
0.0
 51
148.0615510833272
  0
ARC
  5
25A
330
1F
100
AcDbEntity
  8
26
  6
Continuous
 62
     7
370
     9
100
AcDbCircle
 10
429.7130521250975
 20
126.9572484034123
 30
0.0
 40
0.5
100
AcDbArc
 50
89.99999999999991
 51
194.0362434679198
  0
ARC
  5
25B
330
1F
100
AcDbEntity
  8
26
  6
Continuous
 62
     7
370
     9
100
AcDbCircle
 10
430.7130521250975
 20
122.9572484034123
 30
0.0
 40
0.5
100
AcDbArc
 50
194.0362434679135
 51
269.9999999999998
  0
LINE
  5
25C
330
1F
100
AcDbEntity
  8
26
  6
Continuous
 62
     7
370
     9
100
AcDbLine
 10
439.6886862110669
 20
155.991166619415
 30
0.0
 11
438.0053211056604
 21
154.4226905085328
 31
0.0
  0
ARC
  5
25D
330
1F
100
AcDbEntity
  8
26
  6
Continuous
 62
     7
370
     9
100
AcDbCircle
 10
431.8226639218953
 20
153.9572484034123
 30
0.0
 40
0.5
100
AcDbArc
 50
89.99999999999991
 51
179.9999999999998
  0
ARC
  5
25E
330
1F
100
AcDbEntity
  8
26
  6
Continuous
 62
     7
370
     9
100
AcDbCircle
 10
431.5257876708942
 20
162.5072484034123
 30
0.0
 40
5.0
100
AcDbArc
 50
218.6821874534885
 51
269.9999999999998
  0
LINE
  5
25F
330
1F
100
AcDbEntity
  8
26
  6
Continuous
 62
     7
370
     9
100
AcDbLine
 10
438.932275718693
 20
122.4572484034123
 30
0.0
 11
430.7130521250975
 21
122.4572484034123
 31
0.0
  0
LINE
  5
260
330
1F
100
AcDbEntity
  8
26
  6
Continuous
 62
     7
370
     9
100
AcDbLine
 10
439.932275718693
 20
127.4572484034123
 30
0.0
 11
429.7130521250975
 21
127.4572484034123
 31
0.0
  0
LINE
  5
261
330
1F
100
AcDbEntity
  8
26
  6
Continuous
 62
     7
370
     9
100
AcDbLine
 10
440.8726639218953
 20
155.0072484034123
 30
0.0
 11
440.8726639218953
 21
142.2072484034124
 31
0.0
  0
LINE
  5
262
330
1F
100
AcDbEntity
  8
26
  6
Continuous
 62
     7
370
     9
100
AcDbLine
 10
439.7688163446018
 20
139.4572484034123
 30
0.0
 11
429.8765114991887
 21
139.4572484034123
 31
0.0
  0
LINE
  5
263
330
1F
100
AcDbEntity
  8
26
  6
Continuous
 62
     7
370
     9
100
AcDbLine
 10
440.5726639218952
 20
140.4572484034123
 30
0.0
 11
429.0726639218953
 21
140.4572484034123
 31
0.0
  0
LINE
  5
264
330
1F
100
AcDbEntity
  8
26
  6
Continuous
 62
     7
370
     9
100
AcDbLine
 10
440.0726639218952
 20
141.4572484034123
 30
0.0
 11
429.5726639218953
 21
141.4572484034123
 31
0.0
  0
LINE
  5
265
330
1F
100
AcDbEntity
  8
26
  6
Continuous
 62
     7
370
     9
100
AcDbLine
 10
440.8726639218953
 20
142.2072484034123
 30
0.0
 11
428.7726639218952
 21
142.2072484034124
 31
0.0
  0
LINE
  5
266
330
1F
100
AcDbEntity
  8
26
  6
Continuous
 62
     7
370
     9
100
AcDbLine
 10
439.7688163446018
 20
133.4572484034123
 30
0.0
 11
429.8765114991887
 21
133.4572484034123
 31
0.0
  0
LINE
  5
267
330
1F
100
AcDbEntity
  8
26
  6
Continuous
 62
     7
370
     9
100
AcDbLine
 10
438.3226639218952
 20
153.9572484034123
 30
0.0
 11
438.3226639218952
 21
144.9572484034123
 31
0.0
  0
LINE
  5
268
330
1F
100
AcDbEntity
  8
26
  6
Continuous
 62
     7
370
     9
100
AcDbLine
 10
431.8226639218953
 20
144.4572484034123
 30
0.0
 11
437.8226639218952
 21
144.4572484034123
 31
0.0
  0
ARC
  5
269
330
1F
100
AcDbEntity
  8
26
  6
Continuous
 62
     7
370
     9
100
AcDbCircle
 10
431.8226639218953
 20
144.9572484034123
 30
0.0
 40
0.5
100
AcDbArc
 50
179.9999999999998
 51
269.9999999999998
  0
LINE
  5
26A
330
1F
100
AcDbEntity
  8
26
  6
Continuous
 62
     7
370
     9
100
AcDbLine
 10
431.3226639218953
 20
147.7885148136576
 30
0.0
 11
429.3360278881839
 21
145.7061038572307
 31
0.0
  0
LINE
  5
26B
330
1F
100
AcDbEntity
  8
26
  6
Continuous
 62
     7
370
     9
100
AcDbLine
 10
427.6226639218953
 20
143.5322484034124
 30
0.0
 11
427.8483554806095
 21
143.8942952788499
 31
0.0
  0
LINE
  5
26C
330
1F
100
AcDbEntity
  8
26
  6
Continuous
 62
     7
370
     9
100
AcDbLine
 10
431.3226639218953
 20
153.9572484034123
 30
0.0
 11
431.3226639218953
 21
144.9572484034123
 31
0.0
  0
ARC
  5
26D
330
1F
100
AcDbEntity
  8
26
  6
Continuous
 62
     7
370
     9
100
AcDbCircle
 10
437.8226639218952
 20
153.9572484034123
 30
0.0
 40
0.5
100
AcDbArc
 50
0.0
 51
89.99999999999991
  0
ARC
  5
26E
330
1F
100
AcDbEntity
  8
26
  6
Continuous
 62
     7
370
     9
100
AcDbCircle
 10
438.3726639218953
 20
155.0072484034123
 30
0.0
 40
2.5
100
AcDbArc
 50
0.0
 51
89.99999999999991
  0
LINE
  5
26F
330
1F
100
AcDbEntity
  8
26
  6
Continuous
 62
     7
370
     9
100
AcDbLine
 10
431.8226639218953
 20
154.4572484034123
 30
0.0
 11
437.8226639218952
 21
154.4572484034123
 31
0.0
  0
LINE
  5
270
330
1F
100
AcDbEntity
  8
26
  6
Continuous
 62
     7
370
     9
100
AcDbLine
 10
438.3726639218953
 20
157.5072484034123
 30
0.0
 11
431.5257876708942
 21
157.5072484034123
 31
0.0
  0
LINE
  5
271
330
1F
100
AcDbEntity
  8
26
  6
Continuous
 62
     7
370
     9
100
AcDbLine
 10
427.6226639218953
 20
159.3822484034123
 30
0.0
 11
427.6226639218953
 21
143.5322484034124
 31
0.0
  0
LINE
  5
272
330
1F
100
AcDbEntity
  8
26
  6
Continuous
 62
     7
370
     9
100
AcDbLine
 10
427.6226638960972
 20
159.3822484034123
 30
0.0
 11
427.0226639218953
 21
159.3822484034123
 31
0.0
  0
LINE
  5
273
330
1F
100
AcDbEntity
  8
26
  6
Continuous
 62
     7
370
     9
100
AcDbLine
 10
427.0226639218952
 20
143.5322484034124
 30
0.0
 11
427.6226639218953
 21
143.5322484034124
 31
0.0
  0
LINE
  5
274
330
1F
100
AcDbEntity
  8
6
  6
Continuous
 62
     2
370
     9
100
AcDbLine
 10
414.0226639218952
 20
129.4572484034123
 30
0.0
 11
414.0226639218952
 21
122.4572484034123
 31
0.0
  0
ARC
  5
275
330
1F
100
AcDbEntity
  8
6
  6
Continuous
 62
     2
370
     9
100
AcDbCircle
 10
412.5226639218952
 20
129.4572484034123
 30
0.0
 40
1.5
100
AcDbArc
 50
0.0
 51
89.99999999999991
  0
ARC
  5
276
330
1F
100
AcDbEntity
  8
6
  6
Continuous
 62
     2
370
     9
100
AcDbCircle
 10
412.5226639218952
 20
122.4572484034123
 30
0.0
 40
1.5
100
AcDbArc
 50
269.9999999999998
 51
0.0
  0
LINE
  5
277
330
1F
100
AcDbEntity
  8
6
  6
Continuous
 62
     2
370
     9
100
AcDbLine
 10
388.5226639218953
 20
129.4572484034123
 30
0.0
 11
388.5226639218953
 21
122.4572484034123
 31
0.0
  0
ARC
  5
278
330
1F
100
AcDbEntity
  8
6
  6
Continuous
 62
     2
370
     9
100
AcDbCircle
 10
390.0226639218953
 20
129.4572484034123
 30
0.0
 40
1.5
100
AcDbArc
 50
89.99999999999991
 51
179.9999999999998
  0
ARC
  5
279
330
1F
100
AcDbEntity
  8
6
  6
Continuous
 62
     2
370
     9
100
AcDbCircle
 10
390.0226639218953
 20
122.4572484034123
 30
0.0
 40
1.5
100
AcDbArc
 50
179.9999999999998
 51
269.9999999999998
  0
LINE
  5
27A
330
1F
100
AcDbEntity
  8
6
  6
Continuous
 62
     2
370
     9
100
AcDbLine
 10
412.5226639218952
 20
130.9572484034124
 30
0.0
 11
390.0226639218953
 21
130.9572484034124
 31
0.0
  0
LINE
  5
27B
330
1F
100
AcDbEntity
  8
6
  6
Continuous
 62
     2
370
     9
100
AcDbLine
 10
412.5226639218952
 20
120.9572484034123
 30
0.0
 11
390.0226639218953
 21
120.9572484034123
 31
0.0
  0
LINE
  5
27C
330
1F
100
AcDbEntity
  8
26
  6
Continuous
 62
     7
370
     9
100
AcDbLine
 10
390.0226639218952
 20
144.4572484034123
 30
0.0
 11
397.7697639218953
 21
144.4572484034123
 31
0.0
  0
LINE
  5
27D
330
1F
100
AcDbEntity
  8
26
  6
Continuous
 62
     7
370
     9
100
AcDbLine
 10
376.0226639218954
 20
144.4572484034123
 30
0.0
 11
368.2755639218953
 21
144.4572484034123
 31
0.0
  0
LINE
  5
27E
330
1F
100
AcDbEntity
  8
26
  6
Continuous
 62
     7
370
     9
100
AcDbLine
 10
417.7726639218951
 20
163.4572484034123
 30
0.0
 11
417.7726639218951
 21
166.5572484034124
 31
0.0
  0
LINE
  5
27F
330
1F
100
AcDbEntity
  8
26
  6
Continuous
 62
     7
370
     9
100
AcDbLine
 10
390.2726639218952
 20
163.4572484034123
 30
0.0
 11
390.2726639218952
 21
166.5572484034124
 31
0.0
  0
LINE
  5
280
330
1F
100
AcDbEntity
  8
26
  6
Continuous
 62
     7
370
     9
100
AcDbLine
 10
348.2726639218954
 20
163.4572484034123
 30
0.0
 11
348.2726639218954
 21
164.5572484034125
 31
0.0
  0
LINE
  5
281
330
1F
100
AcDbEntity
  8
26
  6
Continuous
 62
     7
370
     9
100
AcDbLine
 10
375.7726639218954
 20
163.4572484034123
 30
0.0
 11
375.7726639218954
 21
164.5572484034125
 31
0.0
  0
LINE
  5
282
330
1F
100
AcDbEntity
  8
26
  6
Continuous
 62
     7
370
     9
100
AcDbLine
 10
348.0226639218954
 20
162.9572484034123
 30
0.0
 11
348.0226639218954
 21
163.4572484034121
 31
0.0
  0
LINE
  5
283
330
1F
100
AcDbEntity
  8
26
  6
Continuous
 62
     7
370
     9
100
AcDbLine
 10
325.5226639218953
 20
164.9572484034123
 30
0.0
 11
325.5226639218953
 21
137.9572484034123
 31
0.0
  0
LINE
  5
284
330
1F
100
AcDbEntity
  8
26
  6
Continuous
 62
     7
370
     9
100
AcDbLine
 10
344.4368774842684
 20
162.5430348410392
 30
0.0
 11
340.5226639218953
 21
166.4572484034123
 31
0.0
  0
LINE
  5
285
330
1F
100
AcDbEntity
  8
26
  6
Continuous
 62
     7
370
     9
100
AcDbLine
 10
326.5498024928812
 20
159.8794171468467
 30
0.0
 11
345.8009435197484
 21
159.8794171468467
 31
0.0
  0
LINE
  5
286
330
1F
100
AcDbEntity
  8
26
  6
Continuous
 62
     7
370
     9
100
AcDbLine
 10
326.5498024928812
 20
157.9955968187233
 30
0.0
 11
342.5226639218952
 21
157.9955968187233
 31
0.0
  0
LINE
  5
287
330
1F
100
AcDbEntity
  8
26
  6
Continuous
 62
     7
370
     9
100
AcDbLine
 10
326.5498024928812
 20
166.4572484034123
 30
0.0
 11
340.5226639218953
 21
166.4572484034123
 31
0.0
  0
LINE
  5
288
330
1F
100
AcDbEntity
  8
26
  6
Continuous
 62
     7
370
     9
100
AcDbLine
 10
325.5226639218953
 20
164.9572484034123
 30
0.0
 11
326.5498024928812
 21
166.4572484034123
 31
0.0
  0
ARC
  5
289
330
1F
100
AcDbEntity
  8
26
  6
Continuous
 62
     7
370
     9
100
AcDbCircle
 10
331.2387931646786
 20
163.1485913545022
 30
0.0
 40
5.716129242783325
100
AcDbArc
 50
145.1157099204539
 51
214.884290079545
  0
LINE
  5
28A
330
1F
100
AcDbEntity
  8
26
  6
Continuous
 62
     7
370
     9
100
AcDbLine
 10
326.5498024928812
 20
166.4572484034123
 30
0.0
 11
326.5498024928812
 21
166.4177655621577
 31
0.0
  0
LINE
  5
28B
330
1F
100
AcDbEntity
  8
26
  6
Continuous
 62
     7
370
     9
100
AcDbLine
 10
326.5498024928812
 20
143.035079659978
 30
0.0
 11
354.6584546087648
 21
143.035079659978
 31
0.0
  0
LINE
  5
28C
330
1F
100
AcDbEntity
  8
26
  6
Continuous
 62
     7
370
     9
100
AcDbLine
 10
326.5498024928812
 20
144.9188999881013
 30
0.0
 11
342.5226639218952
 21
144.9188999881013
 31
0.0
  0
ARC
  5
28D
330
1F
100
AcDbEntity
  8
26
  6
Continuous
 62
     7
370
     9
100
AcDbCircle
 10
346.846473036549
 20
151.4572484034123
 30
0.0
 40
21.32380911465373
100
AcDbArc
 50
162.1442276914254
 51
197.8557723085738
  0
LINE
  5
28E
330
1F
100
AcDbEntity
  8
26
  6
Continuous
 62
     7
370
     9
100
AcDbLine
 10
326.5498024928812
 20
159.8794171468467
 30
0.0
 11
326.5498024928812
 21
157.9955968187233
 31
0.0
  0
ARC
  5
28F
330
1F
100
AcDbEntity
  8
26
  6
Continuous
 62
     7
370
     9
100
AcDbCircle
 10
331.2387931646786
 20
139.7659054523224
 30
0.0
 40
5.716129242783325
100
AcDbArc
 50
145.1157099204539
 51
214.884290079545
  0
LINE
  5
290
330
1F
100
AcDbEntity
  8
26
  6
Continuous
 62
     7
370
     9
100
AcDbLine
 10
326.5498024928812
 20
136.4572484034123
 30
0.0
 11
347.5226639218953
 21
136.4572484034123
 31
0.0
  0
LINE
  5
291
330
1F
100
AcDbEntity
  8
26
  6
Continuous
 62
     7
370
     9
100
AcDbLine
 10
325.5226639218953
 20
137.9572484034123
 30
0.0
 11
326.5498024928812
 21
136.4572484034123
 31
0.0
  0
LINE
  5
292
330
1F
100
AcDbEntity
  8
26
  6
Continuous
 62
     7
370
     9
100
AcDbLine
 10
326.5498024928812
 20
144.9188999881013
 30
0.0
 11
326.5498024928812
 21
143.035079659978
 31
0.0
  0
LINE
  5
293
330
1F
100
AcDbEntity
  8
26
  6
Continuous
 62
     7
370
     9
100
AcDbLine
 10
326.5498024928812
 20
136.4967312446669
 30
0.0
 11
326.5498024928812
 21
136.4572484034123
 31
0.0
  0
ARC
  5
294
330
1F
100
AcDbEntity
  8
26
  6
Continuous
 62
     7
370
     9
100
AcDbCircle
 10
358.3145646783468
 20
140.4291087864105
 30
0.0
 40
4.489791201690821
100
AcDbArc
 50
142.4458382197358
 51
144.5198132058211
  0
ARC
  5
295
330
1F
100
AcDbEntity
  8
26
  6
Continuous
 62
     7
370
     9
100
AcDbCircle
 10
358.3145646783468
 20
134.8866308833963
 30
0.0
 40
8.931089424335255
100
AcDbArc
 50
114.1651949585742
 51
169.8713165265952
  0
ARC
  5
296
330
1F
100
AcDbEntity
  8
26
  6
Continuous
 62
     7
370
     9
100
AcDbCircle
 10
347.5226639218953
 20
134.4572484034123
 30
0.0
 40
2.0
100
AcDbArc
 50
0.0
 51
89.99999999999991
  0
LINE
  5
297
330
1F
100
AcDbEntity
  8
26
  6
Continuous
 62
     7
370
     9
100
AcDbLine
 10
390.8476696895591
 20
140.1373484034124
 30
0.0
 11
375.1976581542314
 21
140.1373484034124
 31
0.0
  0
LINE
  5
298
330
1F
100
AcDbEntity
  8
26
  6
Continuous
 62
     7
370
     9
100
AcDbLine
 10
397.7697639218952
 20
136.8616484034123
 30
0.0
 11
368.2755639218953
 21
136.8616484034123
 31
0.0
  0
ARC
  5
299
330
1F
100
AcDbEntity
  8
26
  6
Continuous
 62
     7
370
     9
100
AcDbCircle
 10
368.2755639218953
 20
145.8132616542198
 30
0.0
 40
8.951613250807497
100
AcDbArc
 50
269.9999999999993
 51
320.6492571458281
  0
ARC
  5
29A
330
1F
100
AcDbEntity
  8
26
  6
Continuous
 62
     7
370
     9
100
AcDbCircle
 10
397.7697639218952
 20
145.8132616542198
 30
0.0
 40
8.951613250807497
100
AcDbArc
 50
219.3507428541705
 51
269.9999999999993
  0
ARC
  5
29B
330
1F
100
AcDbEntity
  8
26
  6
Continuous
 62
     7
370
     9
100
AcDbCircle
 10
391.0226639218953
 20
141.1219178619317
 30
0.0
 40
1.0
100
AcDbArc
 50
179.9999999999998
 51
259.9216775343209
  0
LINE
  5
29C
330
1F
100
AcDbEntity
  8
26
  6
Continuous
 62
     7
370
     9
100
AcDbLine
 10
376.0226639218953
 20
141.6063590440858
 30
0.0
 11
376.0226639218953
 21
141.1199409756644
 31
0.0
  0
ARC
  5
29D
330
1F
100
AcDbEntity
  8
26
  6
Continuous
 62
     7
370
     9
100
AcDbCircle
 10
375.0226639218953
 20
141.1219178619317
 30
0.0
 40
1.0
100
AcDbArc
 50
280.0783224656784
 51
0.0
  0
ARC
  5
29E
330
1F
100
AcDbEntity
  8
26
  6
Continuous
 62
     7
370
     9
100
AcDbCircle
 10
345.8510910466415
 20
163.9572484034123
 30
0.0
 40
2.0
100
AcDbArc
 50
224.999999999999
 51
269.9999999999998
  0
ARC
  5
29F
330
1F
100
AcDbEntity
  8
26
  6
Continuous
 62
     7
370
     9
100
AcDbCircle
 10
415.0683640230534
 20
118.0055531172524
 30
0.0
 40
0.4645032009357806
100
AcDbArc
 50
175.1864471970334
 51
269.9999999999998
  0
LINE
  5
2A0
330
1F
100
AcDbEntity
  8
26
  6
Continuous
 62
     7
370
     9
100
AcDbLine
 10
342.5226639218952
 20
157.9955968187233
 30
0.0
 11
342.5226639218952
 21
144.9188999881014
 31
0.0
  0
LINE
  5
2A1
330
1F
100
AcDbEntity
  8
26
  6
Continuous
 62
     7
370
     9
100
AcDbLine
 10
355.7179038154362
 20
152.777701536512
 30
0.0
 11
355.7179038154362
 21
143.1656864275239
 31
0.0
  0
LINE
  5
2A2
330
1F
100
AcDbEntity
  8
26
  6
Continuous
 62
     7
370
     9
100
AcDbLine
 10
343.5226639218938
 20
159.7488103793008
 30
0.0
 11
345.7867728104584
 21
159.7488103793008
 31
0.0
  0
LINE
  5
2A3
330
1F
100
AcDbEntity
  8
26
  6
Continuous
 62
     7
370
     9
100
AcDbLine
 10
343.5226639218938
 20
159.7488103793008
 30
0.0
 11
343.5226639218938
 21
143.1656864275239
 31
0.0
  0
ARC
  5
2A4
330
1F
100
AcDbEntity
  8
26
  6
Continuous
 62
     7
370
     9
100
AcDbCircle
 10
344.5595428163931
 20
157.9955968187233
 30
0.0
 40
2.036878894497931
100
AcDbArc
 50
120.600757474983
 51
179.9999999999998
  0
LINE
  5
2A5
330
1F
100
AcDbEntity
  8
26
  6
Continuous
 62
     7
370
     9
100
AcDbLine
 10
343.5226639218938
 20
143.1656864275239
 30
0.0
 11
355.7179038154362
 21
143.1656864275239
 31
0.0
  0
ARC
  5
2A6
330
1F
100
AcDbEntity
  8
26
  6
Continuous
 62
     7
370
     9
100
AcDbCircle
 10
344.5595428163931
 20
144.9188999881014
 30
0.0
 40
2.036878894497931
100
AcDbArc
 50
179.9999999999998
 51
239.3992425250162
  0
ARC
  5
2A7
330
1F
100
AcDbEntity
  8
26
  6
Continuous
 62
     7
370
     9
100
AcDbCircle
 10
373.502101396185
 20
191.7572484034124
 30
0.0
 40
2.0
100
AcDbArc
 50
14.98819155946433
 51
89.99999999999991
  0
ARC
  5
2A8
330
1F
100
AcDbEntity
  8
26
  6
Continuous
 62
     7
370
     9
100
AcDbCircle
 10
293.3258321630106
 20
170.2917912256695
 30
0.0
 40
85.0
100
AcDbArc
 50
5.919036782070687
 51
14.98819155946432
  0
ARC
  5
2A9
330
1F
100
AcDbEntity
  8
26
  6
Continuous
 62
     7
370
     9
100
AcDbCircle
 10
373.0800621151409
 20
182.4031743125631
 30
0.0
 40
3.345925909150651
100
AcDbArc
 50
269.9999999999998
 51
6.333130946171366
  0
ARC
  5
2AA
330
1F
100
AcDbEntity
  8
26
  6
Continuous
 62
     7
370
     9
100
AcDbCircle
 10
334.1649321800435
 20
178.0841258008874
 30
0.0
 40
42.5
100
AcDbArc
 50
6.333130946171361
 51
19.50510723608037
  0
ARC
  5
2AB
330
1F
100
AcDbEntity
  8
26
  6
Continuous
 62
     7
370
     9
100
AcDbCircle
 10
350.5432264476053
 20
191.7572484034124
 30
0.0
 40
2.0
100
AcDbArc
 50
89.99999999999991
 51
165.0118084405357
  0
ARC
  5
2AC
330
1F
100
AcDbEntity
  8
26
  6
Continuous
 62
     7
370
     9
100
AcDbCircle
 10
430.71949568078
 20
170.2917912256695
 30
0.0
 40
85.0
100
AcDbArc
 50
165.0118084405356
 51
174.0809632179293
  0
LINE
  5
2AD
330
1F
100
AcDbEntity
  8
26
  6
Continuous
 62
     7
370
     9
100
AcDbLine
 10
377.8726639218952
 20
179.0572484034125
 30
0.0
 11
377.8726639218952
 21
164.5572484034125
 31
0.0
  0
LINE
  5
2AE
330
1F
100
AcDbEntity
  8
26
  6
Continuous
 62
     7
370
     9
100
AcDbLine
 10
373.0800621151409
 20
179.0572484034125
 30
0.0
 11
362.0226639218952
 21
179.0572484034125
 31
0.0
  0
LINE
  5
2AF
330
1F
100
AcDbEntity
  8
26
  6
Continuous
 62
     7
370
     9
100
AcDbLine
 10
373.502101396185
 20
193.7572484034125
 30
0.0
 11
350.5432264476053
 21
193.7572484034125
 31
0.0
  0
LINE
  5
2B0
330
1F
100
AcDbEntity
  8
26
  6
Continuous
 62
     7
370
     9
100
AcDbLine
 10
346.1726639218952
 20
179.0572484034125
 30
0.0
 11
346.1726639218952
 21
164.5572484034125
 31
0.0
  0
LINE
  5
2B1
330
1F
100
AcDbEntity
  8
26
  6
Continuous
 62
     7
370
     9
100
AcDbLine
 10
387.0226639218953
 20
144.5883772775616
 30
0.0
 11
387.0226639218953
 21
143.9572484034123
 31
0.0
  0
ARC
  5
2B2
330
1F
100
AcDbEntity
  8
26
  6
Continuous
 62
     7
370
     9
100
AcDbCircle
 10
381.0226639218953
 20
144.5883772775616
 30
0.0
 40
2.0
100
AcDbArc
 50
116.3877999612401
 51
179.9999999999998
  0
ARC
  5
2B3
330
1F
100
AcDbEntity
  8
26
  6
Continuous
 62
     7
370
     9
100
AcDbCircle
 10
385.0226639218953
 20
144.5883772775616
 30
0.0
 40
2.0
100
AcDbArc
 50
0.0
 51
63.61220003875624
  0
LINE
  5
2B4
330
1F
100
AcDbEntity
  8
26
  6
Continuous
 62
     7
370
     9
100
AcDbLine
 10
387.0226639218953
 20
143.9572484034123
 30
0.0
 11
379.0226639218953
 21
143.9572484034123
 31
0.0
  0
LINE
  5
2B5
330
1F
100
AcDbEntity
  8
26
  6
Continuous
 62
     7
370
     9
100
AcDbLine
 10
379.0226639218953
 20
144.5883772775616
 30
0.0
 11
379.0226639218953
 21
143.9572484034123
 31
0.0
  0
ARC
  5
2B6
330
1F
100
AcDbEntity
  8
26
  6
Continuous
 62
     7
370
     9
100
AcDbCircle
 10
383.0226639218953
 20
140.5572484034123
 30
0.0
 40
6.5
100
AcDbArc
 50
63.61220003875671
 51
116.3877999612405
  0
LINE
  5
2B7
330
1F
100
AcDbEntity
  8
26
  6
Continuous
 62
     7
370
     9
100
AcDbLine
 10
380.6726639218953
 20
143.9572484034123
 30
0.0
 11
380.7585899874863
 21
143.7853962722303
 31
0.0
  0
LINE
  5
2B8
330
1F
100
AcDbEntity
  8
26
  6
Continuous
 62
     7
370
     9
100
AcDbLine
 10
385.3726639218952
 20
143.9572484034123
 30
0.0
 11
385.2867378563042
 21
143.7853962722303
 31
0.0
  0
LINE
  5
2B9
330
1F
100
AcDbEntity
  8
26
  6
Continuous
 62
     7
370
     9
100
AcDbLine
 10
346.1726639218952
 20
164.5572484034125
 30
0.0
 11
362.0226639218952
 21
164.5572484034125
 31
0.0
  0
LINE
  5
2BA
330
1F
100
AcDbEntity
  8
26
  6
Continuous
 62
     7
370
     9
100
AcDbLine
 10
362.0226639218952
 20
164.5572484034125
 30
0.0
 11
377.8726639218952
 21
164.5572484034125
 31
0.0
  0
LINE
  5
2BB
330
1F
100
AcDbEntity
  8
26
  6
Continuous
 62
     7
370
     9
100
AcDbLine
 10
251.6537598757395
 20
241.3348707032499
 30
0.0
 11
260.5447545197232
 21
241.3348707032499
 31
0.0
  0
ARC
  5
2BC
330
1F
100
AcDbEntity
  8
26
  6
Continuous
 62
     7
370
     9
100
AcDbCircle
 10
235.5447545197233
 20
244.5829475125218
 30
0.0
 40
2.0
100
AcDbArc
 50
179.9999999999998
 51
287.1046351766411
  0
ARC
  5
2BD
330
1F
100
AcDbEntity
  8
26
  6
Continuous
 62
     7
370
     9
100
AcDbCircle
 10
245.5447545197232
 20
244.5829475125218
 30
0.0
 40
2.0
100
AcDbArc
 50
252.8953648233549
 51
0.0
  0
ARC
  5
2BE
330
1F
100
AcDbEntity
  8
26
  6
Continuous
 62
     7
370
     9
100
AcDbCircle
 10
247.5447545197231
 20
205.5928707032521
 30
0.0
 40
38.24199999999766
100
AcDbArc
 50
70.12675827866235
 51
89.99999999999991
  0
LINE
  5
2BF
330
1F
100
AcDbEntity
  8
26
  6
Continuous
 62
     7
370
     9
100
AcDbLine
 10
229.4357491637068
 20
241.3348707032499
 30
0.0
 11
220.5447545197232
 21
241.3348707032499
 31
0.0
  0
ARC
  5
2C0
330
1F
100
AcDbEntity
  8
26
  6
Continuous
 62
     7
370
     9
100
AcDbCircle
 10
233.5447545197233
 20
205.5928707032521
 30
0.0
 40
38.24199999999763
100
AcDbArc
 50
89.99999999999991
 51
109.8732417213376
  0
ARC
  5
2C1
330
1F
100
AcDbEntity
  8
26
  6
Continuous
 62
     7
370
     9
100
AcDbCircle
 10
261.1740113881176
 20
127.4572484034123
 30
0.0
 40
12.0
100
AcDbArc
 50
187.9893267663969
 51
269.9999999999994
  0
ARC
  5
2C2
330
1F
100
AcDbEntity
  8
26
  6
Continuous
 62
     7
370
     9
100
AcDbCircle
 10
262.6704326390721
 20
127.4572484034123
 30
0.0
 40
12.0
100
AcDbArc
 50
269.9999999999994
 51
0.0
  0
LINE
  5
2C3
330
1F
100
AcDbEntity
  8
26
  6
Continuous
 62
     7
370
     9
100
AcDbLine
 10
472.9153111179192
 20
144.4572484034121
 30
0.0
 11
478.5052484861692
 21
144.4572484034121
 31
0.0
  0
ARC
  5
2C4
330
1F
100
AcDbEntity
  8
26
  6
Continuous
 62
     7
370
     9
100
AcDbCircle
 10
485.9153111179191
 20
133.9572484034125
 30
0.0
 40
17.49999999999989
100
AcDbArc
 50
126.7298604146644
 51
137.9753724206221
  0
ARC
  5
2C5
330
1F
100
AcDbEntity
  8
26
  6
Continuous
 62
     7
370
     9
100
AcDbCircle
 10
507.915311117919
 20
160.9456220866832
 30
0.0
 40
0.5
100
AcDbArc
 50
271.3478872801964
 51
0.0
  0
LINE
  5
2C6
330
1F
100
AcDbEntity
  8
26
  6
Continuous
 62
     7
370
     9
100
AcDbLine
 10
499.9153111179191
 20
160.2572484034125
 30
0.0
 11
507.9270725684871
 21
160.4457604375436
 31
0.0
  0
ARC
  5
2C7
330
1F
100
AcDbEntity
  8
26
  6
Continuous
 62
     7
370
     9
100
AcDbCircle
 10
501.9153111179192
 20
158.3037536703302
 30
0.0
 40
2.0
100
AcDbArc
 50
91.34788728020003
 51
179.9999999999998
  0
LINE
  5
2C8
330
1F
100
AcDbEntity
  8
26
  6
Continuous
 62
     7
370
     9
100
AcDbLine
 10
508.415311117919
 20
162.9572484034125
 30
0.0
 11
508.415311117919
 21
160.9456220866832
 31
0.0
  0
ARC
  5
2C9
330
1F
100
AcDbEntity
  8
26
  6
Continuous
 62
     7
370
     9
100
AcDbCircle
 10
507.915311117919
 20
162.9572484034125
 30
0.0
 40
0.5
100
AcDbArc
 50
0.0
 51
89.99999999999991
  0
ARC
  5
2CA
330
1F
100
AcDbEntity
  8
26
  6
Continuous
 62
     7
370
     9
100
AcDbCircle
 10
378.0226639218954
 20
145.2053252126843
 30
0.0
 40
2.0
100
AcDbArc
 50
179.9999999999998
 51
287.1046351766411
  0
ARC
  5
2CB
330
1F
100
AcDbEntity
  8
26
  6
Continuous
 62
     7
370
     9
100
AcDbCircle
 10
388.0226639218952
 20
145.2053252126843
 30
0.0
 40
2.0
100
AcDbArc
 50
252.8953648233549
 51
0.0
  0
ARC
  5
2CC
330
1F
100
AcDbEntity
  8
26
  6
Continuous
 62
     7
370
     9
100
AcDbCircle
 10
487.9153111179191
 20
124.9572484034124
 30
0.0
 40
8.0
100
AcDbArc
 50
156.0494667064556
 51
255.5224878140693
  0
ARC
  5
2CD
330
1F
100
AcDbEntity
  8
26
  6
Continuous
 62
     7
370
     9
100
AcDbCircle
 10
377.0226639218953
 20
141.6063590440858
 30
0.0
 40
1.0
100
AcDbArc
 50
115.3769335251529
 51
179.9999999999998
  0
ARC
  5
2CE
330
1F
100
AcDbEntity
  8
26
  6
Continuous
 62
     7
370
     9
100
AcDbCircle
 10
389.0226639218953
 20
141.6063590440858
 30
0.0
 40
1.0
100
AcDbArc
 50
0.0
 51
64.62306647484641
  0
LINE
  5
2CF
330
1F
100
AcDbEntity
  8
26
  6
Continuous
 62
     7
370
     9
100
AcDbLine
 10
390.0226639218953
 20
141.6063590440858
 30
0.0
 11
390.0226639218953
 21
141.1199409756644
 31
0.0
  0
LINE
  5
2D0
330
1F
100
AcDbEntity
  8
26
  6
Continuous
 62
     7
370
     9
100
AcDbLine
 10
326.5498024928814
 20
259.922494876797
 30
0.0
 11
335.0226639218953
 21
259.922494876797
 31
0.0
  0
LINE
  5
2D1
330
1F
100
AcDbEntity
  8
26
  6
Continuous
 62
     7
370
     9
100
AcDbLine
 10
339.5226639218953
 20
259.922494876797
 30
0.0
 11
340.5621467631501
 21
259.922494876797
 31
0.0
  0
LINE
  5
2D2
330
1F
100
AcDbEntity
  8
26
  6
Continuous
 62
     7
370
     9
100
AcDbLine
 10
326.5498024928814
 20
257.7472465297031
 30
0.0
 11
335.0226639218953
 21
257.7472465297031
 31
0.0
  0
LINE
  5
2D3
330
1F
100
AcDbEntity
  8
26
  6
Continuous
 62
     7
370
     9
100
AcDbLine
 10
339.5226639218953
 20
257.7472465297031
 30
0.0
 11
340.5621467631501
 21
257.7472465297031
 31
0.0
  0
CIRCLE
  5
2D4
330
1F
100
AcDbEntity
  8
26
  6
Continuous
 62
     7
370
     9
100
AcDbCircle
 10
361.8726639218952
 20
279.4348707032502
 30
0.0
 40
4.0
  0
LINE
  5
2D5
330
1F
100
AcDbEntity
  8
26
  6
Continuous
 62
     7
370
     9
100
AcDbLine
 10
359.0596186708531
 20
274.4054475339353
 30
0.0
 11
359.1098969290291
 21
276.5422735064165
 31
0.0
  0
LINE
  5
2D6
330
1F
100
AcDbEntity
  8
26
  6
Continuous
 62
     7
370
     9
100
AcDbLine
 10
364.9857091729376
 20
274.4054475339353
 30
0.0
 11
364.9281114286261
 21
276.8533516671763
 31
0.0
  0
ARC
  5
2D7
330
1F
100
AcDbEntity
  8
26
  6
Continuous
 62
     7
370
     9
100
AcDbCircle
 10
369.0226639218961
 20
274.8348707032499
 30
0.0
 40
2.0
100
AcDbArc
 50
280.570425305994
 51
0.0
  0
ARC
  5
2D8
330
1F
100
AcDbEntity
  8
26
  6
Continuous
 62
     7
370
     9
100
AcDbCircle
 10
354.1863317549903
 20
258.8348707032499
 30
0.0
 40
21.83633216690583
100
AcDbArc
 50
33.00312392060236
 51
39.74470968801216
  0
ARC
  5
2D9
330
1F
100
AcDbEntity
  8
26
  6
Continuous
 62
     7
370
     9
100
AcDbCircle
 10
397.0226639218946
 20
274.8348707032499
 30
0.0
 40
2.0
100
AcDbArc
 50
179.9999999999998
 51
259.4295746940053
  0
ARC
  5
2DA
330
1F
100
AcDbEntity
  8
26
  6
Continuous
 62
     7
370
     9
100
AcDbCircle
 10
411.8589960888004
 20
258.8348707032499
 30
0.0
 40
21.83633216690583
100
AcDbArc
 50
140.2552903119878
 51
146.9968760793977
  0
LINE
  5
2DB
330
1F
100
AcDbEntity
  8
26
  6
Continuous
 62
     7
370
     9
100
AcDbLine
 10
246.2913135281643
 20
231.372478242499
 30
0.0
 11
241.4337329735025
 21
234.773792764334
 31
0.0
  0
ARC
  5
2DC
330
1F
100
AcDbEntity
  8
26
  6
Continuous
 62
     7
370
     9
100
AcDbCircle
 10
209.7467955485905
 20
235.3705849889644
 30
0.0
 40
15.46428571428555
100
AcDbArc
 50
59.77952787925371
 51
89.65751256181466
  0
ARC
  5
2DD
330
1F
100
AcDbEntity
  8
26
  6
Continuous
 62
     7
370
     9
100
AcDbCircle
 10
219.5447545197232
 20
239.5491564175358
 30
0.0
 40
7.785714285714192
100
AcDbArc
 50
102.3708218193473
 51
139.2373527412782
  0
LINE
  5
2DE
330
1F
100
AcDbEntity
  8
26
  6
Continuous
 62
     7
370
     9
100
AcDbLine
 10
213.0447545197232
 20
242.8348707032498
 30
0.0
 11
213.0447545197232
 21
220.8348707032498
 31
0.0
  0
ARC
  5
2DF
330
1F
100
AcDbEntity
  8
26
  6
Continuous
 62
     7
370
     9
100
AcDbCircle
 10
262.0447545197232
 20
226.8348707032497
 30
0.0
 40
12.0
100
AcDbArc
 50
269.9999999999994
 51
0.0
  0
LINE
  5
2E0
330
1F
100
AcDbEntity
  8
26
  6
Continuous
 62
     7
370
     9
100
AcDbLine
 10
258.7447545197232
 20
266.2069849231481
 30
0.0
 11
258.7447545197232
 21
265.2348707032497
 31
0.0
  0
ARC
  5
2E1
330
1F
100
AcDbEntity
  8
26
  6
Continuous
 62
     7
370
     9
100
AcDbCircle
 10
261.5447545197232
 20
262.6348707032497
 30
0.0
 40
5.0
100
AcDbArc
 50
63.25631604959768
 51
116.7436839504023
  0
ARC
  5
2E2
330
1F
100
AcDbEntity
  8
26
  6
Continuous
 62
     7
370
     9
100
AcDbCircle
 10
259.7447545197232
 20
266.2069849231481
 30
0.0
 40
1.0
100
AcDbArc
 50
116.7436839504023
 51
179.9999999999998
  0
ARC
  5
2E3
330
1F
100
AcDbEntity
  8
26
  6
Continuous
 62
     7
370
     9
100
AcDbCircle
 10
263.3447545197232
 20
266.2069849231481
 30
0.0
 40
1.0
100
AcDbArc
 50
0.0
 51
63.25631604959768
  0
LINE
  5
2E4
330
1F
100
AcDbEntity
  8
26
  6
Continuous
 62
     7
370
     9
100
AcDbLine
 10
264.3447545197232
 20
266.2069849231481
 30
0.0
 11
264.3447545197232
 21
265.2348707032497
 31
0.0
  0
LINE
  5
2E5
330
1F
100
AcDbEntity
  8
26
  6
Continuous
 62
     7
370
     9
100
AcDbLine
 10
260.0447545197233
 20
259.2348707032499
 30
0.0
 11
263.0447545197232
 21
259.2348707032499
 31
0.0
  0
LINE
  5
2E6
330
1F
100
AcDbEntity
  8
26
  6
Continuous
 62
     7
370
     9
100
AcDbLine
 10
260.0447545197233
 20
259.8348707032497
 30
0.0
 11
260.0447545197233
 21
259.2348707032499
 31
0.0
  0
LINE
  5
2E7
330
1F
100
AcDbEntity
  8
26
  6
Continuous
 62
     7
370
     9
100
AcDbLine
 10
263.0447545197232
 20
259.8348707032497
 30
0.0
 11
263.0447545197232
 21
259.2348707032499
 31
0.0
  0
ARC
  5
2E8
330
1F
100
AcDbEntity
  8
26
  6
Continuous
 62
     7
370
     9
100
AcDbCircle
 10
239.2704326390721
 20
166.8293626233108
 30
0.0
 40
1.0
100
AcDbArc
 50
116.7436839504023
 51
179.9999999999998
  0
LINE
  5
2E9
330
1F
100
AcDbEntity
  8
26
  6
Continuous
 62
     7
370
     9
100
AcDbLine
 10
238.2704326390721
 20
166.8293626233108
 30
0.0
 11
238.2704326390721
 21
165.8572484034125
 31
0.0
  0
LINE
  5
2EA
330
1F
100
AcDbEntity
  8
26
  6
Continuous
 62
     7
370
     9
100
AcDbLine
 10
244.0732326390721
 20
165.8572484034125
 30
0.0
 11
236.0732326390721
 21
165.8572484034125
 31
0.0
  0
ARC
  5
2EB
330
1F
100
AcDbEntity
  8
26
  6
Continuous
 62
     7
370
     9
100
AcDbCircle
 10
241.0704326390721
 20
163.2572484034124
 30
0.0
 40
5.0
100
AcDbArc
 50
63.25631604959768
 51
116.7436839504023
  0
LINE
  5
2EC
330
1F
100
AcDbEntity
  8
26
  6
Continuous
 62
     7
370
     9
100
AcDbLine
 10
243.8704326390721
 20
166.8293626233108
 30
0.0
 11
243.8704326390721
 21
165.8572484034125
 31
0.0
  0
ARC
  5
2ED
330
1F
100
AcDbEntity
  8
26
  6
Continuous
 62
     7
370
     9
100
AcDbCircle
 10
242.8704326390721
 20
166.8293626233108
 30
0.0
 40
1.0
100
AcDbArc
 50
0.0
 51
63.25631604959768
  0
LINE
  5
2EE
330
1F
100
AcDbEntity
  8
26
  6
Continuous
 62
     7
370
     9
100
AcDbLine
 10
239.570432639072
 20
159.8572484034126
 30
0.0
 11
242.570432639072
 21
159.8572484034126
 31
0.0
  0
LINE
  5
2EF
330
1F
100
AcDbEntity
  8
26
  6
Continuous
 62
     7
370
     9
100
AcDbLine
 10
239.570432639072
 20
160.4243072269419
 30
0.0
 11
239.570432639072
 21
159.8572484034126
 31
0.0
  0
LINE
  5
2F0
330
1F
100
AcDbEntity
  8
26
  6
Continuous
 62
     7
370
     9
100
AcDbLine
 10
242.570432639072
 20
160.3537189916478
 30
0.0
 11
242.570432639072
 21
159.8572484034126
 31
0.0
  0
LINE
  5
2F1
330
1F
100
AcDbEntity
  8
26
  6
Continuous
 62
     7
370
     9
100
AcDbLine
 10
502.7153111179192
 20
165.8572484034126
 30
0.0
 11
508.3153111179192
 21
165.8572484034126
 31
0.0
  0
LINE
  5
2F2
330
1F
100
AcDbEntity
  8
26
  6
Continuous
 62
     7
370
     9
100
AcDbLine
 10
508.3153111179192
 20
166.8293626233109
 30
0.0
 11
508.3153111179192
 21
165.8572484034126
 31
0.0
  0
LINE
  5
2F3
330
1F
100
AcDbEntity
  8
26
  6
Continuous
 62
     7
370
     9
100
AcDbLine
 10
502.7153111179191
 20
166.8293626233109
 30
0.0
 11
502.7153111179191
 21
165.8572484034126
 31
0.0
  0
ARC
  5
2F4
330
1F
100
AcDbEntity
  8
26
  6
Continuous
 62
     7
370
     9
100
AcDbCircle
 10
507.3153111179192
 20
166.8293626233109
 30
0.0
 40
1.0
100
AcDbArc
 50
0.0
 51
63.25631604959768
  0
ARC
  5
2F5
330
1F
100
AcDbEntity
  8
26
  6
Continuous
 62
     7
370
     9
100
AcDbCircle
 10
503.7153111179191
 20
166.8293626233109
 30
0.0
 40
1.0
100
AcDbArc
 50
116.7436839504023
 51
179.9999999999998
  0
ARC
  5
2F6
330
1F
100
AcDbEntity
  8
26
  6
Continuous
 62
     7
370
     9
100
AcDbCircle
 10
505.515311117919
 20
163.2572484034126
 30
0.0
 40
5.0
100
AcDbArc
 50
63.25631604959768
 51
116.7436839504023
  0
LINE
  5
2F7
330
1F
100
AcDbEntity
  8
26
  6
Continuous
 62
     7
370
     9
100
AcDbLine
 10
504.0153111179191
 20
159.8572484034127
 30
0.0
 11
507.0153111179191
 21
159.8572484034127
 31
0.0
  0
LINE
  5
2F8
330
1F
100
AcDbEntity
  8
26
  6
Continuous
 62
     7
370
     9
100
AcDbLine
 10
504.0153111179191
 20
160.3537189916479
 30
0.0
 11
504.0153111179191
 21
159.8572484034127
 31
0.0
  0
LINE
  5
2F9
330
1F
100
AcDbEntity
  8
26
  6
Continuous
 62
     7
370
     9
100
AcDbLine
 10
507.0153111179191
 20
160.424307226942
 30
0.0
 11
507.0153111179191
 21
159.8572484034127
 31
0.0
  0
ARC
  5
2FA
330
1F
100
AcDbEntity
  8
26
  6
Continuous
 62
     7
370
     9
100
AcDbCircle
 10
383.0226639218953
 20
128.9572484034123
 30
0.0
 40
15.10000000000002
100
AcDbArc
 50
243.3853519616768
 51
296.6146480383214
  0
LINE
  5
2FB
330
1F
100
AcDbEntity
  8
26
  6
Continuous
 62
     7
370
     9
100
AcDbLine
 10
381.5377396814036
 20
277.9197949437417
 30
0.0
 11
384.5075881623871
 21
274.9499464627582
 31
0.0
  0
LINE
  5
2FC
330
1F
100
AcDbEntity
  8
26
  6
Continuous
 62
     7
370
     9
100
AcDbLine
 10
384.5075881623871
 20
277.9197949437417
 30
0.0
 11
381.5377396814036
 21
274.9499464627582
 31
0.0
  0
POINT
  5
2FD
330
1F
100
AcDbEntity
  8
6
  6
Continuous
 62
     2
370
     9
100
AcDbPoint
 10
261.5447545197232
 20
235.8348707032499
 30
0.0
  0
LINE
  5
2FE
330
1F
100
AcDbEntity
  8
6
  6
Continuous
 62
     2
370
     9
100
AcDbLine
 10
257.6006768279847
 20
234.2148707032499
 30
0.0
 11
258.4688322114616
 21
237.4548707032499
 31
0.0
  0
LINE
  5
2FF
330
1F
100
AcDbEntity
  8
6
  6
Continuous
 62
     2
370
     9
100
AcDbLine
 10
258.4688322114616
 20
237.4548707032499
 30
0.0
 11
258.9160715213989
 21
237.45487070325
 31
0.0
  0
LINE
  5
300
330
1F
100
AcDbEntity
  8
6
  6
Continuous
 62
     2
370
     9
100
AcDbLine
 10
258.9160715213989
 20
237.45487070325
 30
0.0
 11
258.5523079968097
 21
236.0972867475432
 31
0.0
  0
LINE
  5
301
330
1F
100
AcDbEntity
  8
6
  6
Continuous
 62
     2
370
     9
100
AcDbLine
 10
258.5523079968097
 20
236.0972867475432
 30
0.0
 11
259.9098919525165
 21
237.45487070325
 31
0.0
  0
LINE
  5
302
330
1F
100
AcDbEntity
  8
6
  6
Continuous
 62
     2
370
     9
100
AcDbLine
 10
259.9098919525165
 20
237.45487070325
 30
0.0
 11
260.5208322114616
 21
237.4548707032499
 31
0.0
  0
LINE
  5
303
330
1F
100
AcDbEntity
  8
6
  6
Continuous
 62
     2
370
     9
100
AcDbLine
 10
260.5208322114616
 20
237.4548707032499
 30
0.0
 11
258.7845214445079
 21
235.7185599362963
 31
0.0
  0
LINE
  5
304
330
1F
100
AcDbEntity
  8
6
  6
Continuous
 62
     2
370
     9
100
AcDbLine
 10
258.7845214445079
 20
235.7185599362963
 30
0.0
 11
259.6526768279847
 21
234.2148707032499
 31
0.0
  0
LINE
  5
305
330
1F
100
AcDbEntity
  8
6
  6
Continuous
 62
     2
370
     9
100
AcDbLine
 10
259.6526768279847
 20
234.2148707032499
 30
0.0
 11
259.1538461954049
 21
234.2148707032499
 31
0.0
  0
LINE
  5
306
330
1F
100
AcDbEntity
  8
6
  6
Continuous
 62
     2
370
     9
100
AcDbLine
 10
259.1538461954049
 20
234.2148707032499
 30
0.0
 11
258.4682754956382
 21
235.4023139874265
 31
0.0
  0
LINE
  5
307
330
1F
100
AcDbEntity
  8
6
  6
Continuous
 62
     2
370
     9
100
AcDbLine
 10
258.4682754956382
 20
235.4023139874265
 30
0.0
 11
258.3286883418411
 21
235.2627268336294
 31
0.0
  0
LINE
  5
308
330
1F
100
AcDbEntity
  8
6
  6
Continuous
 62
     2
370
     9
100
AcDbLine
 10
258.3286883418411
 20
235.2627268336294
 30
0.0
 11
258.0479161379219
 21
234.2148707032499
 31
0.0
  0
LINE
  5
309
330
1F
100
AcDbEntity
  8
6
  6
Continuous
 62
     2
370
     9
100
AcDbLine
 10
258.0479161379219
 20
234.2148707032499
 30
0.0
 11
257.6006768279847
 21
234.2148707032499
 31
0.0
  0
ARC
  5
30A
330
1F
100
AcDbEntity
  8
6
  6
Continuous
 62
     2
370
     9
100
AcDbCircle
 10
261.3599144131105
 20
235.1450380340949
 30
0.0
 40
0.9301673308449381
100
AcDbArc
 50
180.9823603666986
 51
74.99999999999686
  0
ARC
  5
30B
330
1F
100
AcDbEntity
  8
6
  6
Continuous
 62
     2
370
     9
100
AcDbCircle
 10
261.7295946263359
 20
236.524703372405
 30
0.0
 40
0.9301673308449381
100
AcDbArc
 50
0.0
 51
254.9999999999965
  0
ARC
  5
30C
330
1F
100
AcDbEntity
  8
6
  6
Continuous
 62
     2
370
     9
100
AcDbCircle
 10
261.3599144131105
 20
235.1450380340949
 30
0.0
 40
0.4981673308449217
100
AcDbArc
 50
179.9999999999998
 51
74.99999999999673
  0
ARC
  5
30D
330
1F
100
AcDbEntity
  8
6
  6
Continuous
 62
     2
370
     9
100
AcDbCircle
 10
261.7295946263359
 20
236.524703372405
 30
0.0
 40
0.4981673308449217
100
AcDbArc
 50
0.0
 51
254.9999999999955
  0
LINE
  5
30E
330
1F
100
AcDbEntity
  8
6
  6
Continuous
 62
     2
370
     9
100
AcDbLine
 10
260.42988379748
 20
235.1290907032499
 30
0.0
 11
260.8620024006423
 21
235.1290907032499
 31
0.0
  0
LINE
  5
30F
330
1F
100
AcDbEntity
  8
6
  6
Continuous
 62
     2
370
     9
100
AcDbLine
 10
262.2277619571809
 20
236.524703372405
 30
0.0
 11
262.6597619571808
 21
236.524703372405
 31
0.0
  0
LINE
  5
310
330
1F
100
AcDbEntity
  8
6
  6
Continuous
 62
     2
370
     9
100
AcDbLine
 10
263.4368322114617
 20
237.4548707032499
 30
0.0
 11
263.8840715213988
 21
237.4548707032499
 31
0.0
  0
LINE
  5
311
330
1F
100
AcDbEntity
  8
6
  6
Continuous
 62
     2
370
     9
100
AcDbLine
 10
263.8840715213988
 20
237.4548707032499
 30
0.0
 11
263.5203079968097
 21
236.0972867475432
 31
0.0
  0
LINE
  5
312
330
1F
100
AcDbEntity
  8
6
  6
Continuous
 62
     2
370
     9
100
AcDbLine
 10
263.5203079968097
 20
236.0972867475432
 30
0.0
 11
264.8778919525164
 21
237.45487070325
 31
0.0
  0
LINE
  5
313
330
1F
100
AcDbEntity
  8
6
  6
Continuous
 62
     2
370
     9
100
AcDbLine
 10
264.8778919525164
 20
237.45487070325
 30
0.0
 11
265.4888322114616
 21
237.45487070325
 31
0.0
  0
LINE
  5
314
330
1F
100
AcDbEntity
  8
6
  6
Continuous
 62
     2
370
     9
100
AcDbLine
 10
265.4888322114616
 20
237.45487070325
 30
0.0
 11
263.752521444508
 21
235.7185599362963
 31
0.0
  0
LINE
  5
315
330
1F
100
AcDbEntity
  8
6
  6
Continuous
 62
     2
370
     9
100
AcDbLine
 10
263.752521444508
 20
235.7185599362963
 30
0.0
 11
264.6206768279848
 21
234.2148707032499
 31
0.0
  0
LINE
  5
316
330
1F
100
AcDbEntity
  8
6
  6
Continuous
 62
     2
370
     9
100
AcDbLine
 10
264.6206768279848
 20
234.2148707032499
 30
0.0
 11
264.1218461954049
 21
234.2148707032499
 31
0.0
  0
LINE
  5
317
330
1F
100
AcDbEntity
  8
6
  6
Continuous
 62
     2
370
     9
100
AcDbLine
 10
264.1218461954049
 20
234.2148707032499
 30
0.0
 11
263.4362754956382
 21
235.4023139874265
 31
0.0
  0
LINE
  5
318
330
1F
100
AcDbEntity
  8
6
  6
Continuous
 62
     2
370
     9
100
AcDbLine
 10
263.4362754956382
 20
235.4023139874265
 30
0.0
 11
263.2966883418411
 21
235.2627268336294
 31
0.0
  0
LINE
  5
319
330
1F
100
AcDbEntity
  8
6
  6
Continuous
 62
     2
370
     9
100
AcDbLine
 10
263.2966883418411
 20
235.2627268336294
 30
0.0
 11
263.0159161379219
 21
234.2148707032499
 31
0.0
  0
LINE
  5
31A
330
1F
100
AcDbEntity
  8
6
  6
Continuous
 62
     2
370
     9
100
AcDbLine
 10
263.0159161379219
 20
234.2148707032499
 30
0.0
 11
262.5686768279848
 21
234.2148707032499
 31
0.0
  0
LINE
  5
31B
330
1F
100
AcDbEntity
  8
6
  6
Continuous
 62
     2
370
     9
100
AcDbLine
 10
262.5686768279848
 20
234.2148707032499
 30
0.0
 11
263.4368322114617
 21
237.4548707032499
 31
0.0
  0
ARC
  5
31C
330
1F
100
AcDbEntity
  8
6
  6
Continuous
 62
     2
370
     9
100
AcDbCircle
 10
261.5447545197232
 20
235.8348707032499
 30
0.0
 40
2.267999999999972
100
AcDbArc
 50
240.8110175641772
 51
299.1889824358217
  0
LINE
  5
31D
330
1F
100
AcDbEntity
  8
6
  6
Continuous
 62
     2
370
     9
100
AcDbLine
 10
262.6508395074163
 20
233.8548707032499
 30
0.0
 11
263.3804015446166
 21
233.8548707032499
 31
0.0
  0
ARC
  5
31E
330
1F
100
AcDbEntity
  8
6
  6
Continuous
 62
     2
370
     9
100
AcDbCircle
 10
261.5447545197232
 20
235.8348707032499
 30
0.0
 40
2.699999999999989
100
AcDbArc
 50
227.1665719339327
 51
312.8334280660662
  0
LINE
  5
31F
330
1F
100
AcDbEntity
  8
6
  6
Continuous
 62
     2
370
     9
100
AcDbLine
 10
259.7091074948297
 20
233.8548707032499
 30
0.0
 11
260.4386695320301
 21
233.8548707032499
 31
0.0
  0
ARC
  5
320
330
1F
100
AcDbEntity
  8
6
  6
Continuous
 62
     2
370
     9
100
AcDbCircle
 10
261.5447545197232
 20
235.8348707032499
 30
0.0
 40
2.267999999999972
100
AcDbArc
 50
60.81101756417791
 51
119.1889824358221
  0
LINE
  5
321
330
1F
100
AcDbEntity
  8
6
  6
Continuous
 62
     2
370
     9
100
AcDbLine
 10
260.4386695320301
 20
237.8148707032499
 30
0.0
 11
259.7091074948297
 21
237.8148707032499
 31
0.0
  0
ARC
  5
322
330
1F
100
AcDbEntity
  8
6
  6
Continuous
 62
     2
370
     9
100
AcDbCircle
 10
261.5447545197232
 20
235.8348707032499
 30
0.0
 40
2.699999999999989
100
AcDbArc
 50
47.16657193393301
 51
132.8334280660666
  0
LINE
  5
323
330
1F
100
AcDbEntity
  8
6
  6
Continuous
 62
     2
370
     9
100
AcDbLine
 10
263.3804015446166
 20
237.8148707032499
 30
0.0
 11
262.6508395074163
 21
237.8148707032499
 31
0.0
  0
CIRCLE
  5
324
330
1F
100
AcDbEntity
  8
6
  6
Continuous
 62
     2
370
     9
100
AcDbCircle
 10
260.1280845971586
 20
234.3768707032499
 30
0.0
 40
0.1619999999999777
  0
CIRCLE
  5
325
330
1F
100
AcDbEntity
  8
6
  6
Continuous
 62
     2
370
     9
100
AcDbCircle
 10
262.3477993383851
 20
234.3768707032499
 30
0.0
 40
0.1619999999999777
  0
ARC
  5
326
330
1F
100
AcDbEntity
  8
6
  6
Continuous
 62
     2
370
     9
100
AcDbCircle
 10
264.9436091658694
 20
234.3768707032499
 30
0.0
 40
0.1619999999999777
100
AcDbArc
 50
57.69553575759083
 51
34.28817095655823
  0
CIRCLE
  5
327
330
1F
100
AcDbEntity
  8
6
  6
Continuous
 62
     2
370
     9
100
AcDbCircle
 10
264.9436091658694
 20
234.3768707032499
 30
0.0
 40
0.1619999999999777
  0
LINE
  5
328
330
1F
100
AcDbEntity
  8
26
  6
Continuous
 62
     7
370
     9
100
AcDbLine
 10
277.3947545197232
 20
279.4348707032498
 30
0.0
 11
277.3947545197232
 21
265.9348707032498
 31
0.0
  0
LINE
  5
329
330
1F
100
AcDbEntity
  8
26
  6
Continuous
 62
     7
370
     9
100
AcDbLine
 10
264.3447545197232
 20
265.9348707032498
 30
0.0
 11
277.3947545197232
 21
265.9348707032498
 31
0.0
  0
LINE
  5
32A
330
1F
100
AcDbEntity
  8
26
  6
Continuous
 62
     7
370
     9
100
AcDbLine
 10
276.3947545197232
 20
280.4348707032498
 30
0.0
 11
271.5192313333284
 21
280.4348707032498
 31
0.0
  0
ARC
  5
32B
330
1F
100
AcDbEntity
  8
26
  6
Continuous
 62
     7
370
     9
100
AcDbCircle
 10
271.5192313333284
 20
284.4348707032499
 30
0.0
 40
4.0
100
AcDbArc
 50
184.0856167799733
 51
269.9999999999998
  0
ARC
  5
32C
330
1F
100
AcDbEntity
  8
26
  6
Continuous
 62
     7
370
     9
100
AcDbCircle
 10
276.3947545197232
 20
279.4348707032498
 30
0.0
 40
1.0
100
AcDbArc
 50
0.0
 51
89.99999999999991
  0
LINE
  5
32D
330
1F
100
AcDbEntity
  8
26
  6
Continuous
 62
     7
370
     9
100
AcDbLine
 10
246.6947545197232
 20
280.4348707032498
 30
0.0
 11
251.570277706118
 21
280.4348707032498
 31
0.0
  0
ARC
  5
32E
330
1F
100
AcDbEntity
  8
26
  6
Continuous
 62
     7
370
     9
100
AcDbCircle
 10
251.570277706118
 20
284.4348707032499
 30
0.0
 40
4.0
100
AcDbArc
 50
269.9999999999993
 51
355.9143832200251
  0
ARC
  5
32F
330
1F
100
AcDbEntity
  8
26
  6
Continuous
 62
     7
370
     9
100
AcDbCircle
 10
246.6947545197232
 20
279.4348707032498
 30
0.0
 40
1.0
100
AcDbArc
 50
89.99999999999991
 51
179.9999999999998
  0
LINE
  5
330
330
1F
100
AcDbEntity
  8
26
  6
Continuous
 62
     7
370
     9
100
AcDbLine
 10
245.6947545197232
 20
279.4348707032498
 30
0.0
 11
245.6947545197232
 21
265.9348707032498
 31
0.0
  0
LINE
  5
331
330
1F
100
AcDbEntity
  8
26
  6
Continuous
 62
     7
370
     9
100
AcDbLine
 10
258.7447545197232
 20
265.9348707032498
 30
0.0
 11
245.6947545197232
 21
265.9348707032498
 31
0.0
  0
LINE
  5
332
330
1F
100
AcDbEntity
  8
26
  6
Continuous
 62
     7
370
     9
100
AcDbLine
 10
265.8136353163219
 20
295.1348707032498
 30
0.0
 11
261.5447545197232
 21
295.1348707032498
 31
0.0
  0
ARC
  5
333
330
1F
100
AcDbEntity
  8
26
  6
Continuous
 62
     7
370
     9
100
AcDbCircle
 10
265.8136353163219
 20
294.1348707032498
 30
0.0
 40
1.0
100
AcDbArc
 50
4.085616779971164
 51
89.99999999999991
  0
LINE
  5
334
330
1F
100
AcDbEntity
  8
26
  6
Continuous
 62
     7
370
     9
100
AcDbLine
 10
257.2758737231245
 20
295.1348707032498
 30
0.0
 11
261.5447545197232
 21
295.1348707032498
 31
0.0
  0
ARC
  5
335
330
1F
100
AcDbEntity
  8
26
  6
Continuous
 62
     7
370
     9
100
AcDbCircle
 10
257.2758737231245
 20
294.1348707032498
 30
0.0
 40
1.0
100
AcDbArc
 50
89.99999999999991
 51
175.9143832200288
  0
LINE
  5
336
330
1F
100
AcDbEntity
  8
26
  6
Continuous
 62
     7
370
     9
100
AcDbLine
 10
266.8110940161526
 20
294.2061177532376
 30
0.0
 11
267.5293965340054
 21
284.1498825032982
 31
0.0
  0
LINE
  5
337
330
1F
100
AcDbEntity
  8
26
  6
Continuous
 62
     7
370
     9
100
AcDbLine
 10
256.2784150232937
 20
294.2061177532376
 30
0.0
 11
255.5601125054409
 21
284.1498825032982
 31
0.0
  0
LINE
  5
338
330
1F
100
AcDbEntity
  8
26
  6
Continuous
 62
     7
370
     9
100
AcDbLine
 10
203.6947545197232
 20
279.4348707032498
 30
0.0
 11
203.6947545197232
 21
265.9348707032498
 31
0.0
  0
LINE
  5
339
330
1F
100
AcDbEntity
  8
26
  6
Continuous
 62
     7
370
     9
100
AcDbLine
 10
219.5447545197232
 20
265.9348707032498
 30
0.0
 11
203.6947545197232
 21
265.9348707032498
 31
0.0
  0
LINE
  5
33A
330
1F
100
AcDbEntity
  8
26
  6
Continuous
 62
     7
370
     9
100
AcDbLine
 10
204.6947545197232
 20
280.4348707032498
 30
0.0
 11
209.570277706118
 21
280.4348707032498
 31
0.0
  0
ARC
  5
33B
330
1F
100
AcDbEntity
  8
26
  6
Continuous
 62
     7
370
     9
100
AcDbCircle
 10
209.570277706118
 20
284.4348707032499
 30
0.0
 40
4.0
100
AcDbArc
 50
269.9999999999993
 51
355.9143832200251
  0
ARC
  5
33C
330
1F
100
AcDbEntity
  8
26
  6
Continuous
 62
     7
370
     9
100
AcDbCircle
 10
204.6947545197232
 20
279.4348707032498
 30
0.0
 40
1.0
100
AcDbArc
 50
89.99999999999991
 51
179.9999999999998
  0
LINE
  5
33D
330
1F
100
AcDbEntity
  8
26
  6
Continuous
 62
     7
370
     9
100
AcDbLine
 10
234.3947545197234
 20
280.4348707032498
 30
0.0
 11
229.5192313333284
 21
280.4348707032498
 31
0.0
  0
ARC
  5
33E
330
1F
100
AcDbEntity
  8
26
  6
Continuous
 62
     7
370
     9
100
AcDbCircle
 10
229.5192313333284
 20
284.4348707032499
 30
0.0
 40
4.0
100
AcDbArc
 50
184.0856167799733
 51
269.9999999999993
  0
ARC
  5
33F
330
1F
100
AcDbEntity
  8
26
  6
Continuous
 62
     7
370
     9
100
AcDbCircle
 10
234.3947545197234
 20
279.4348707032498
 30
0.0
 40
1.0
100
AcDbArc
 50
0.0
 51
89.99999999999991
  0
LINE
  5
340
330
1F
100
AcDbEntity
  8
26
  6
Continuous
 62
     7
370
     9
100
AcDbLine
 10
235.3947545197233
 20
279.4348707032498
 30
0.0
 11
235.3947545197233
 21
265.9348707032498
 31
0.0
  0
LINE
  5
341
330
1F
100
AcDbEntity
  8
26
  6
Continuous
 62
     7
370
     9
100
AcDbLine
 10
219.5447545197232
 20
265.9348707032498
 30
0.0
 11
235.3947545197233
 21
265.9348707032498
 31
0.0
  0
LINE
  5
342
330
1F
100
AcDbEntity
  8
26
  6
Continuous
 62
     7
370
     9
100
AcDbLine
 10
215.2758737231245
 20
295.1348707032498
 30
0.0
 11
219.5447545197232
 21
295.1348707032498
 31
0.0
  0
ARC
  5
343
330
1F
100
AcDbEntity
  8
26
  6
Continuous
 62
     7
370
     9
100
AcDbCircle
 10
215.2758737231245
 20
294.1348707032498
 30
0.0
 40
1.0
100
AcDbArc
 50
89.99999999999991
 51
175.9143832200287
  0
LINE
  5
344
330
1F
100
AcDbEntity
  8
26
  6
Continuous
 62
     7
370
     9
100
AcDbLine
 10
223.8136353163219
 20
295.1348707032498
 30
0.0
 11
219.5447545197232
 21
295.1348707032498
 31
0.0
  0
ARC
  5
345
330
1F
100
AcDbEntity
  8
26
  6
Continuous
 62
     7
370
     9
100
AcDbCircle
 10
223.8136353163219
 20
294.1348707032498
 30
0.0
 40
1.0
100
AcDbArc
 50
4.08561677997128
 51
89.99999999999991
  0
LINE
  5
346
330
1F
100
AcDbEntity
  8
26
  6
Continuous
 62
     7
370
     9
100
AcDbLine
 10
214.2784150232938
 20
294.2061177532376
 30
0.0
 11
213.560112505441
 21
284.1498825032982
 31
0.0
  0
LINE
  5
347
330
1F
100
AcDbEntity
  8
26
  6
Continuous
 62
     7
370
     9
100
AcDbLine
 10
224.8110940161527
 20
294.2061177532376
 30
0.0
 11
225.5293965340055
 21
284.1498825032982
 31
0.0
  0
LINE
  5
348
330
1F
100
AcDbEntity
  8
26
  6
Continuous
 62
     7
370
     9
100
AcDbLine
 10
244.8204326390721
 20
178.0572484034124
 30
0.0
 11
244.8204326390721
 21
164.5572484034123
 31
0.0
  0
LINE
  5
349
330
1F
100
AcDbEntity
  8
26
  6
Continuous
 62
     7
370
     9
100
AcDbLine
 10
256.3602982182244
 20
164.5572484034123
 30
0.0
 11
244.8204326390721
 21
164.5572484034123
 31
0.0
  0
LINE
  5
34A
330
1F
100
AcDbEntity
  8
26
  6
Continuous
 62
     7
370
     9
100
AcDbLine
 10
245.8204326390721
 20
179.0572484034123
 30
0.0
 11
250.695955825467
 21
179.0572484034123
 31
0.0
  0
ARC
  5
34B
330
1F
100
AcDbEntity
  8
26
  6
Continuous
 62
     7
370
     9
100
AcDbCircle
 10
250.695955825467
 20
183.0572484034124
 30
0.0
 40
4.0
100
AcDbArc
 50
269.9999999999993
 51
355.9143832200247
  0
ARC
  5
34C
330
1F
100
AcDbEntity
  8
26
  6
Continuous
 62
     7
370
     9
100
AcDbCircle
 10
245.8204326390721
 20
178.0572484034124
 30
0.0
 40
1.0
100
AcDbArc
 50
89.99999999999991
 51
179.9999999999998
  0
LINE
  5
34D
330
1F
100
AcDbEntity
  8
26
  6
Continuous
 62
     7
370
     9
100
AcDbLine
 10
275.5204326390721
 20
179.0572484034123
 30
0.0
 11
270.6449094526774
 21
179.0572484034123
 31
0.0
  0
ARC
  5
34E
330
1F
100
AcDbEntity
  8
26
  6
Continuous
 62
     7
370
     9
100
AcDbCircle
 10
270.6449094526774
 20
183.0572484034124
 30
0.0
 40
4.0
100
AcDbArc
 50
184.0856167799737
 51
269.9999999999998
  0
ARC
  5
34F
330
1F
100
AcDbEntity
  8
26
  6
Continuous
 62
     7
370
     9
100
AcDbCircle
 10
275.5204326390721
 20
178.0572484034124
 30
0.0
 40
1.0
100
AcDbArc
 50
0.0
 51
89.99999999999991
  0
LINE
  5
350
330
1F
100
AcDbEntity
  8
26
  6
Continuous
 62
     7
370
     9
100
AcDbLine
 10
276.5204326390722
 20
178.0572484034124
 30
0.0
 11
276.5204326390722
 21
164.5572484034123
 31
0.0
  0
LINE
  5
351
330
1F
100
AcDbEntity
  8
26
  6
Continuous
 62
     7
370
     9
100
AcDbLine
 10
264.9805670599197
 20
164.5572484034123
 30
0.0
 11
276.5204326390722
 21
164.5572484034123
 31
0.0
  0
LINE
  5
352
330
1F
100
AcDbEntity
  8
26
  6
Continuous
 62
     7
370
     9
100
AcDbLine
 10
256.4015518424735
 20
193.7572484034124
 30
0.0
 11
260.6704326390722
 21
193.7572484034123
 31
0.0
  0
ARC
  5
353
330
1F
100
AcDbEntity
  8
26
  6
Continuous
 62
     7
370
     9
100
AcDbCircle
 10
256.4015518424735
 20
192.7572484034123
 30
0.0
 40
1.0
100
AcDbArc
 50
89.99999999999991
 51
175.9143832200287
  0
LINE
  5
354
330
1F
100
AcDbEntity
  8
26
  6
Continuous
 62
     7
370
     9
100
AcDbLine
 10
264.9393134356709
 20
193.7572484034124
 30
0.0
 11
260.6704326390722
 21
193.7572484034123
 31
0.0
  0
ARC
  5
355
330
1F
100
AcDbEntity
  8
26
  6
Continuous
 62
     7
370
     9
100
AcDbCircle
 10
264.9393134356709
 20
192.7572484034123
 30
0.0
 40
1.0
100
AcDbArc
 50
4.085616779971164
 51
89.99999999999991
  0
LINE
  5
356
330
1F
100
AcDbEntity
  8
26
  6
Continuous
 62
     7
370
     9
100
AcDbLine
 10
255.4040931426427
 20
192.8284954534002
 30
0.0
 11
254.6857906247899
 21
182.7722602034608
 31
0.0
  0
LINE
  5
357
330
1F
100
AcDbEntity
  8
26
  6
Continuous
 62
     7
370
     9
100
AcDbLine
 10
265.9367721355017
 20
192.8284954534002
 30
0.0
 11
266.6550746533544
 21
182.7722602034608
 31
0.0
  0
LINE
  5
358
330
1F
100
AcDbEntity
  8
26
  6
Continuous
 62
     7
370
     9
100
AcDbLine
 10
419.8726639218952
 20
180.0572484034124
 30
0.0
 11
419.8726639218952
 21
166.5572484034124
 31
0.0
  0
LINE
  5
359
330
1F
100
AcDbEntity
  8
26
  6
Continuous
 62
     7
370
     9
100
AcDbLine
 10
404.0226639218952
 20
166.5572484034124
 30
0.0
 11
419.8726639218952
 21
166.5572484034124
 31
0.0
  0
LINE
  5
35A
330
1F
100
AcDbEntity
  8
26
  6
Continuous
 62
     7
370
     9
100
AcDbLine
 10
418.8726639218952
 20
181.0572484034124
 30
0.0
 11
413.9971407355004
 21
181.0572484034124
 31
0.0
  0
ARC
  5
35B
330
1F
100
AcDbEntity
  8
26
  6
Continuous
 62
     7
370
     9
100
AcDbCircle
 10
413.9971407355004
 20
185.0572484034124
 30
0.0
 40
4.0
100
AcDbArc
 50
184.0856167799737
 51
269.9999999999998
  0
ARC
  5
35C
330
1F
100
AcDbEntity
  8
26
  6
Continuous
 62
     7
370
     9
100
AcDbCircle
 10
418.8726639218952
 20
180.0572484034124
 30
0.0
 40
1.0
100
AcDbArc
 50
0.0
 51
89.99999999999991
  0
LINE
  5
35D
330
1F
100
AcDbEntity
  8
26
  6
Continuous
 62
     7
370
     9
100
AcDbLine
 10
389.1726639218953
 20
181.0572484034124
 30
0.0
 11
394.0481871082901
 21
181.0572484034124
 31
0.0
  0
ARC
  5
35E
330
1F
100
AcDbEntity
  8
26
  6
Continuous
 62
     7
370
     9
100
AcDbCircle
 10
394.0481871082901
 20
185.0572484034124
 30
0.0
 40
4.0
100
AcDbArc
 50
269.9999999999998
 51
355.9143832200247
  0
ARC
  5
35F
330
1F
100
AcDbEntity
  8
26
  6
Continuous
 62
     7
370
     9
100
AcDbCircle
 10
389.1726639218953
 20
180.0572484034124
 30
0.0
 40
1.0
100
AcDbArc
 50
89.99999999999991
 51
179.9999999999998
  0
LINE
  5
360
330
1F
100
AcDbEntity
  8
26
  6
Continuous
 62
     7
370
     9
100
AcDbLine
 10
388.1726639218953
 20
180.0572484034124
 30
0.0
 11
388.1726639218953
 21
166.5572484034124
 31
0.0
  0
LINE
  5
361
330
1F
100
AcDbEntity
  8
26
  6
Continuous
 62
     7
370
     9
100
AcDbLine
 10
404.0226639218952
 20
166.5572484034124
 30
0.0
 11
388.1726639218953
 21
166.5572484034124
 31
0.0
  0
LINE
  5
362
330
1F
100
AcDbEntity
  8
26
  6
Continuous
 62
     7
370
     9
100
AcDbLine
 10
408.2915447184939
 20
195.7572484034124
 30
0.0
 11
404.0226639218952
 21
195.7572484034123
 31
0.0
  0
ARC
  5
363
330
1F
100
AcDbEntity
  8
26
  6
Continuous
 62
     7
370
     9
100
AcDbCircle
 10
408.2915447184939
 20
194.7572484034123
 30
0.0
 40
1.0
100
AcDbArc
 50
4.085616779971164
 51
89.99999999999991
  0
LINE
  5
364
330
1F
100
AcDbEntity
  8
26
  6
Continuous
 62
     7
370
     9
100
AcDbLine
 10
399.7537831252966
 20
195.7572484034124
 30
0.0
 11
404.0226639218952
 21
195.7572484034123
 31
0.0
  0
ARC
  5
365
330
1F
100
AcDbEntity
  8
26
  6
Continuous
 62
     7
370
     9
100
AcDbCircle
 10
399.7537831252966
 20
194.7572484034123
 30
0.0
 40
1.0
100
AcDbArc
 50
89.99999999999991
 51
175.9143832200288
  0
LINE
  5
366
330
1F
100
AcDbEntity
  8
26
  6
Continuous
 62
     7
370
     9
100
AcDbLine
 10
409.2890034183247
 20
194.8284954534002
 30
0.0
 11
410.0073059361775
 21
184.7722602034608
 31
0.0
  0
LINE
  5
367
330
1F
100
AcDbEntity
  8
26
  6
Continuous
 62
     7
370
     9
100
AcDbLine
 10
398.7563244254658
 20
194.8284954534002
 30
0.0
 11
398.038021907613
 21
184.7722602034608
 31
0.0
  0
CIRCLE
  5
368
330
1F
100
AcDbEntity
  8
26
  6
Continuous
 62
     7
370
     9
100
AcDbCircle
 10
362.0226639218953
 20
278.4348707032499
 30
0.0
 40
2.800000000000011
  0
POLYLINE
  5
369
330
1F
100
AcDbEntity
  8
6
  6
Continuous
 62
     2
370
     9
100
AcDb2dPolyline
 66
     1
 10
0.0
 20
0.0
 30
0.0
  0
VERTEX
  5
36B
330
369
100
AcDbEntity
  8
6
  6
Continuous
 62
     2
370
     9
100
AcDbVertex
100
AcDb2dVertex
 10
223.045
 20
250.435
 30
0.0
  0
VERTEX
  5
36C
330
369
100
AcDbEntity
  8
6
  6
Continuous
 62
     2
370
     9
100
AcDbVertex
100
AcDb2dVertex
 10
223.041
 20
250.464
 30
0.0
  0
VERTEX
  5
36D
330
369
100
AcDbEntity
  8
6
  6
Continuous
 62
     2
370
     9
100
AcDbVertex
100
AcDb2dVertex
 10
223.028
 20
250.494
 30
0.0
  0
VERTEX
  5
36E
330
369
100
AcDbEntity
  8
6
  6
Continuous
 62
     2
370
     9
100
AcDbVertex
100
AcDb2dVertex
 10
223.007
 20
250.523
 30
0.0
  0
VERTEX
  5
36F
330
369
100
AcDbEntity
  8
6
  6
Continuous
 62
     2
370
     9
100
AcDbVertex
100
AcDb2dVertex
 10
222.978
 20
250.552
 30
0.0
  0
VERTEX
  5
370
330
369
100
AcDbEntity
  8
6
  6
Continuous
 62
     2
370
     9
100
AcDbVertex
100
AcDb2dVertex
 10
222.94
 20
250.581
 30
0.0
  0
VERTEX
  5
371
330
369
100
AcDbEntity
  8
6
  6
Continuous
 62
     2
370
     9
100
AcDbVertex
100
AcDb2dVertex
 10
222.894
 20
250.609
 30
0.0
  0
VERTEX
  5
372
330
369
100
AcDbEntity
  8
6
  6
Continuous
 62
     2
370
     9
100
AcDbVertex
100
AcDb2dVertex
 10
222.84
 20
250.637
 30
0.0
  0
VERTEX
  5
373
330
369
100
AcDbEntity
  8
6
  6
Continuous
 62
     2
370
     9
100
AcDbVertex
100
AcDb2dVertex
 10
222.778
 20
250.664
 30
0.0
  0
VERTEX
  5
374
330
369
100
AcDbEntity
  8
6
  6
Continuous
 62
     2
370
     9
100
AcDbVertex
100
AcDb2dVertex
 10
222.709
 20
250.691
 30
0.0
  0
VERTEX
  5
375
330
369
100
AcDbEntity
  8
6
  6
Continuous
 62
     2
370
     9
100
AcDbVertex
100
AcDb2dVertex
 10
222.631
 20
250.718
 30
0.0
  0
VERTEX
  5
376
330
369
100
AcDbEntity
  8
6
  6
Continuous
 62
     2
370
     9
100
AcDbVertex
100
AcDb2dVertex
 10
222.547
 20
250.743
 30
0.0
  0
VERTEX
  5
377
330
369
100
AcDbEntity
  8
6
  6
Continuous
 62
     2
370
     9
100
AcDbVertex
100
AcDb2dVertex
 10
222.455
 20
250.768
 30
0.0
  0
VERTEX
  5
378
330
369
100
AcDbEntity
  8
6
  6
Continuous
 62
     2
370
     9
100
AcDbVertex
100
AcDb2dVertex
 10
222.356
 20
250.792
 30
0.0
  0
VERTEX
  5
379
330
369
100
AcDbEntity
  8
6
  6
Continuous
 62
     2
370
     9
100
AcDbVertex
100
AcDb2dVertex
 10
222.25
 20
250.816
 30
0.0
  0
VERTEX
  5
37A
330
369
100
AcDbEntity
  8
6
  6
Continuous
 62
     2
370
     9
100
AcDbVertex
100
AcDb2dVertex
 10
222.138
 20
250.838
 30
0.0
  0
VERTEX
  5
37B
330
369
100
AcDbEntity
  8
6
  6
Continuous
 62
     2
370
     9
100
AcDbVertex
100
AcDb2dVertex
 10
222.02
 20
250.859
 30
0.0
  0
VERTEX
  5
37C
330
369
100
AcDbEntity
  8
6
  6
Continuous
 62
     2
370
     9
100
AcDbVertex
100
AcDb2dVertex
 10
221.895
 20
250.879
 30
0.0
  0
VERTEX
  5
37D
330
369
100
AcDbEntity
  8
6
  6
Continuous
 62
     2
370
     9
100
AcDbVertex
100
AcDb2dVertex
 10
221.765
 20
250.899
 30
0.0
  0
VERTEX
  5
37E
330
369
100
AcDbEntity
  8
6
  6
Continuous
 62
     2
370
     9
100
AcDbVertex
100
AcDb2dVertex
 10
221.63
 20
250.917
 30
0.0
  0
VERTEX
  5
37F
330
369
100
AcDbEntity
  8
6
  6
Continuous
 62
     2
370
     9
100
AcDbVertex
100
AcDb2dVertex
 10
221.489
 20
250.934
 30
0.0
  0
VERTEX
  5
380
330
369
100
AcDbEntity
  8
6
  6
Continuous
 62
     2
370
     9
100
AcDbVertex
100
AcDb2dVertex
 10
221.344
 20
250.95
 30
0.0
  0
VERTEX
  5
381
330
369
100
AcDbEntity
  8
6
  6
Continuous
 62
     2
370
     9
100
AcDbVertex
100
AcDb2dVertex
 10
221.195
 20
250.964
 30
0.0
  0
VERTEX
  5
382
330
369
100
AcDbEntity
  8
6
  6
Continuous
 62
     2
370
     9
100
AcDbVertex
100
AcDb2dVertex
 10
221.041
 20
250.977
 30
0.0
  0
VERTEX
  5
383
330
369
100
AcDbEntity
  8
6
  6
Continuous
 62
     2
370
     9
100
AcDbVertex
100
AcDb2dVertex
 10
220.884
 20
250.989
 30
0.0
  0
VERTEX
  5
384
330
369
100
AcDbEntity
  8
6
  6
Continuous
 62
     2
370
     9
100
AcDbVertex
100
AcDb2dVertex
 10
220.724
 20
251.0
 30
0.0
  0
VERTEX
  5
385
330
369
100
AcDbEntity
  8
6
  6
Continuous
 62
     2
370
     9
100
AcDbVertex
100
AcDb2dVertex
 10
220.561
 20
251.009
 30
0.0
  0
VERTEX
  5
386
330
369
100
AcDbEntity
  8
6
  6
Continuous
 62
     2
370
     9
100
AcDbVertex
100
AcDb2dVertex
 10
220.395
 20
251.017
 30
0.0
  0
VERTEX
  5
387
330
369
100
AcDbEntity
  8
6
  6
Continuous
 62
     2
370
     9
100
AcDbVertex
100
AcDb2dVertex
 10
220.228
 20
251.023
 30
0.0
  0
VERTEX
  5
388
330
369
100
AcDbEntity
  8
6
  6
Continuous
 62
     2
370
     9
100
AcDbVertex
100
AcDb2dVertex
 10
220.058
 20
251.028
 30
0.0
  0
VERTEX
  5
389
330
369
100
AcDbEntity
  8
6
  6
Continuous
 62
     2
370
     9
100
AcDbVertex
100
AcDb2dVertex
 10
219.888
 20
251.032
 30
0.0
  0
VERTEX
  5
38A
330
369
100
AcDbEntity
  8
6
  6
Continuous
 62
     2
370
     9
100
AcDbVertex
100
AcDb2dVertex
 10
219.716
 20
251.034
 30
0.0
  0
VERTEX
  5
38B
330
369
100
AcDbEntity
  8
6
  6
Continuous
 62
     2
370
     9
100
AcDbVertex
100
AcDb2dVertex
 10
219.545
 20
251.035
 30
0.0
  0
VERTEX
  5
38C
330
369
100
AcDbEntity
  8
6
  6
Continuous
 62
     2
370
     9
100
AcDbVertex
100
AcDb2dVertex
 10
219.373
 20
251.034
 30
0.0
  0
VERTEX
  5
38D
330
369
100
AcDbEntity
  8
6
  6
Continuous
 62
     2
370
     9
100
AcDbVertex
100
AcDb2dVertex
 10
219.202
 20
251.032
 30
0.0
  0
VERTEX
  5
38E
330
369
100
AcDbEntity
  8
6
  6
Continuous
 62
     2
370
     9
100
AcDbVertex
100
AcDb2dVertex
 10
219.031
 20
251.028
 30
0.0
  0
VERTEX
  5
38F
330
369
100
AcDbEntity
  8
6
  6
Continuous
 62
     2
370
     9
100
AcDbVertex
100
AcDb2dVertex
 10
218.862
 20
251.023
 30
0.0
  0
VERTEX
  5
390
330
369
100
AcDbEntity
  8
6
  6
Continuous
 62
     2
370
     9
100
AcDbVertex
100
AcDb2dVertex
 10
218.694
 20
251.017
 30
0.0
  0
VERTEX
  5
391
330
369
100
AcDbEntity
  8
6
  6
Continuous
 62
     2
370
     9
100
AcDbVertex
100
AcDb2dVertex
 10
218.529
 20
251.009
 30
0.0
  0
VERTEX
  5
392
330
369
100
AcDbEntity
  8
6
  6
Continuous
 62
     2
370
     9
100
AcDbVertex
100
AcDb2dVertex
 10
218.366
 20
251.0
 30
0.0
  0
VERTEX
  5
393
330
369
100
AcDbEntity
  8
6
  6
Continuous
 62
     2
370
     9
100
AcDbVertex
100
AcDb2dVertex
 10
218.205
 20
250.989
 30
0.0
  0
VERTEX
  5
394
330
369
100
AcDbEntity
  8
6
  6
Continuous
 62
     2
370
     9
100
AcDbVertex
100
AcDb2dVertex
 10
218.048
 20
250.977
 30
0.0
  0
VERTEX
  5
395
330
369
100
AcDbEntity
  8
6
  6
Continuous
 62
     2
370
     9
100
AcDbVertex
100
AcDb2dVertex
 10
217.895
 20
250.964
 30
0.0
  0
VERTEX
  5
396
330
369
100
AcDbEntity
  8
6
  6
Continuous
 62
     2
370
     9
100
AcDbVertex
100
AcDb2dVertex
 10
217.745
 20
250.95
 30
0.0
  0
VERTEX
  5
397
330
369
100
AcDbEntity
  8
6
  6
Continuous
 62
     2
370
     9
100
AcDbVertex
100
AcDb2dVertex
 10
217.6
 20
250.934
 30
0.0
  0
VERTEX
  5
398
330
369
100
AcDbEntity
  8
6
  6
Continuous
 62
     2
370
     9
100
AcDbVertex
100
AcDb2dVertex
 10
217.46
 20
250.917
 30
0.0
  0
VERTEX
  5
399
330
369
100
AcDbEntity
  8
6
  6
Continuous
 62
     2
370
     9
100
AcDbVertex
100
AcDb2dVertex
 10
217.324
 20
250.899
 30
0.0
  0
VERTEX
  5
39A
330
369
100
AcDbEntity
  8
6
  6
Continuous
 62
     2
370
     9
100
AcDbVertex
100
AcDb2dVertex
 10
217.194
 20
250.879
 30
0.0
  0
VERTEX
  5
39B
330
369
100
AcDbEntity
  8
6
  6
Continuous
 62
     2
370
     9
100
AcDbVertex
100
AcDb2dVertex
 10
217.07
 20
250.859
 30
0.0
  0
VERTEX
  5
39C
330
369
100
AcDbEntity
  8
6
  6
Continuous
 62
     2
370
     9
100
AcDbVertex
100
AcDb2dVertex
 10
216.951
 20
250.838
 30
0.0
  0
VERTEX
  5
39D
330
369
100
AcDbEntity
  8
6
  6
Continuous
 62
     2
370
     9
100
AcDbVertex
100
AcDb2dVertex
 10
216.839
 20
250.816
 30
0.0
  0
VERTEX
  5
39E
330
369
100
AcDbEntity
  8
6
  6
Continuous
 62
     2
370
     9
100
AcDbVertex
100
AcDb2dVertex
 10
216.734
 20
250.792
 30
0.0
  0
VERTEX
  5
39F
330
369
100
AcDbEntity
  8
6
  6
Continuous
 62
     2
370
     9
100
AcDbVertex
100
AcDb2dVertex
 10
216.635
 20
250.768
 30
0.0
  0
VERTEX
  5
3A0
330
369
100
AcDbEntity
  8
6
  6
Continuous
 62
     2
370
     9
100
AcDbVertex
100
AcDb2dVertex
 10
216.543
 20
250.743
 30
0.0
  0
VERTEX
  5
3A1
330
369
100
AcDbEntity
  8
6
  6
Continuous
 62
     2
370
     9
100
AcDbVertex
100
AcDb2dVertex
 10
216.458
 20
250.718
 30
0.0
  0
VERTEX
  5
3A2
330
369
100
AcDbEntity
  8
6
  6
Continuous
 62
     2
370
     9
100
AcDbVertex
100
AcDb2dVertex
 10
216.381
 20
250.691
 30
0.0
  0
VERTEX
  5
3A3
330
369
100
AcDbEntity
  8
6
  6
Continuous
 62
     2
370
     9
100
AcDbVertex
100
AcDb2dVertex
 10
216.311
 20
250.664
 30
0.0
  0
VERTEX
  5
3A4
330
369
100
AcDbEntity
  8
6
  6
Continuous
 62
     2
370
     9
100
AcDbVertex
100
AcDb2dVertex
 10
216.249
 20
250.637
 30
0.0
  0
VERTEX
  5
3A5
330
369
100
AcDbEntity
  8
6
  6
Continuous
 62
     2
370
     9
100
AcDbVertex
100
AcDb2dVertex
 10
216.195
 20
250.609
 30
0.0
  0
VERTEX
  5
3A6
330
369
100
AcDbEntity
  8
6
  6
Continuous
 62
     2
370
     9
100
AcDbVertex
100
AcDb2dVertex
 10
216.15
 20
250.581
 30
0.0
  0
VERTEX
  5
3A7
330
369
100
AcDbEntity
  8
6
  6
Continuous
 62
     2
370
     9
100
AcDbVertex
100
AcDb2dVertex
 10
216.112
 20
250.552
 30
0.0
  0
VERTEX
  5
3A8
330
369
100
AcDbEntity
  8
6
  6
Continuous
 62
     2
370
     9
100
AcDbVertex
100
AcDb2dVertex
 10
216.083
 20
250.523
 30
0.0
  0
VERTEX
  5
3A9
330
369
100
AcDbEntity
  8
6
  6
Continuous
 62
     2
370
     9
100
AcDbVertex
100
AcDb2dVertex
 10
216.062
 20
250.494
 30
0.0
  0
VERTEX
  5
3AA
330
369
100
AcDbEntity
  8
6
  6
Continuous
 62
     2
370
     9
100
AcDbVertex
100
AcDb2dVertex
 10
216.049
 20
250.464
 30
0.0
  0
VERTEX
  5
3AB
330
369
100
AcDbEntity
  8
6
  6
Continuous
 62
     2
370
     9
100
AcDbVertex
100
AcDb2dVertex
 10
216.045
 20
250.435
 30
0.0
  0
VERTEX
  5
3AC
330
369
100
AcDbEntity
  8
6
  6
Continuous
 62
     2
370
     9
100
AcDbVertex
100
AcDb2dVertex
 10
216.049
 20
250.405
 30
0.0
  0
VERTEX
  5
3AD
330
369
100
AcDbEntity
  8
6
  6
Continuous
 62
     2
370
     9
100
AcDbVertex
100
AcDb2dVertex
 10
216.062
 20
250.376
 30
0.0
  0
VERTEX
  5
3AE
330
369
100
AcDbEntity
  8
6
  6
Continuous
 62
     2
370
     9
100
AcDbVertex
100
AcDb2dVertex
 10
216.083
 20
250.347
 30
0.0
  0
VERTEX
  5
3AF
330
369
100
AcDbEntity
  8
6
  6
Continuous
 62
     2
370
     9
100
AcDbVertex
100
AcDb2dVertex
 10
216.112
 20
250.318
 30
0.0
  0
VERTEX
  5
3B0
330
369
100
AcDbEntity
  8
6
  6
Continuous
 62
     2
370
     9
100
AcDbVertex
100
AcDb2dVertex
 10
216.15
 20
250.289
 30
0.0
  0
VERTEX
  5
3B1
330
369
100
AcDbEntity
  8
6
  6
Continuous
 62
     2
370
     9
100
AcDbVertex
100
AcDb2dVertex
 10
216.195
 20
250.261
 30
0.0
  0
VERTEX
  5
3B2
330
369
100
AcDbEntity
  8
6
  6
Continuous
 62
     2
370
     9
100
AcDbVertex
100
AcDb2dVertex
 10
216.249
 20
250.233
 30
0.0
  0
VERTEX
  5
3B3
330
369
100
AcDbEntity
  8
6
  6
Continuous
 62
     2
370
     9
100
AcDbVertex
100
AcDb2dVertex
 10
216.311
 20
250.205
 30
0.0
  0
VERTEX
  5
3B4
330
369
100
AcDbEntity
  8
6
  6
Continuous
 62
     2
370
     9
100
AcDbVertex
100
AcDb2dVertex
 10
216.381
 20
250.178
 30
0.0
  0
VERTEX
  5
3B5
330
369
100
AcDbEntity
  8
6
  6
Continuous
 62
     2
370
     9
100
AcDbVertex
100
AcDb2dVertex
 10
216.458
 20
250.152
 30
0.0
  0
VERTEX
  5
3B6
330
369
100
AcDbEntity
  8
6
  6
Continuous
 62
     2
370
     9
100
AcDbVertex
100
AcDb2dVertex
 10
216.543
 20
250.126
 30
0.0
  0
VERTEX
  5
3B7
330
369
100
AcDbEntity
  8
6
  6
Continuous
 62
     2
370
     9
100
AcDbVertex
100
AcDb2dVertex
 10
216.635
 20
250.102
 30
0.0
  0
VERTEX
  5
3B8
330
369
100
AcDbEntity
  8
6
  6
Continuous
 62
     2
370
     9
100
AcDbVertex
100
AcDb2dVertex
 10
216.734
 20
250.077
 30
0.0
  0
VERTEX
  5
3B9
330
369
100
AcDbEntity
  8
6
  6
Continuous
 62
     2
370
     9
100
AcDbVertex
100
AcDb2dVertex
 10
216.839
 20
250.054
 30
0.0
  0
VERTEX
  5
3BA
330
369
100
AcDbEntity
  8
6
  6
Continuous
 62
     2
370
     9
100
AcDbVertex
100
AcDb2dVertex
 10
216.951
 20
250.032
 30
0.0
  0
VERTEX
  5
3BB
330
369
100
AcDbEntity
  8
6
  6
Continuous
 62
     2
370
     9
100
AcDbVertex
100
AcDb2dVertex
 10
217.07
 20
250.011
 30
0.0
  0
VERTEX
  5
3BC
330
369
100
AcDbEntity
  8
6
  6
Continuous
 62
     2
370
     9
100
AcDbVertex
100
AcDb2dVertex
 10
217.194
 20
249.99
 30
0.0
  0
VERTEX
  5
3BD
330
369
100
AcDbEntity
  8
6
  6
Continuous
 62
     2
370
     9
100
AcDbVertex
100
AcDb2dVertex
 10
217.324
 20
249.971
 30
0.0
  0
VERTEX
  5
3BE
330
369
100
AcDbEntity
  8
6
  6
Continuous
 62
     2
370
     9
100
AcDbVertex
100
AcDb2dVertex
 10
217.46
 20
249.953
 30
0.0
  0
VERTEX
  5
3BF
330
369
100
AcDbEntity
  8
6
  6
Continuous
 62
     2
370
     9
100
AcDbVertex
100
AcDb2dVertex
 10
217.6
 20
249.936
 30
0.0
  0
VERTEX
  5
3C0
330
369
100
AcDbEntity
  8
6
  6
Continuous
 62
     2
370
     9
100
AcDbVertex
100
AcDb2dVertex
 10
217.745
 20
249.92
 30
0.0
  0
VERTEX
  5
3C1
330
369
100
AcDbEntity
  8
6
  6
Continuous
 62
     2
370
     9
100
AcDbVertex
100
AcDb2dVertex
 10
217.895
 20
249.906
 30
0.0
  0
VERTEX
  5
3C2
330
369
100
AcDbEntity
  8
6
  6
Continuous
 62
     2
370
     9
100
AcDbVertex
100
AcDb2dVertex
 10
218.048
 20
249.892
 30
0.0
  0
VERTEX
  5
3C3
330
369
100
AcDbEntity
  8
6
  6
Continuous
 62
     2
370
     9
100
AcDbVertex
100
AcDb2dVertex
 10
218.205
 20
249.881
 30
0.0
  0
VERTEX
  5
3C4
330
369
100
AcDbEntity
  8
6
  6
Continuous
 62
     2
370
     9
100
AcDbVertex
100
AcDb2dVertex
 10
218.366
 20
249.87
 30
0.0
  0
VERTEX
  5
3C5
330
369
100
AcDbEntity
  8
6
  6
Continuous
 62
     2
370
     9
100
AcDbVertex
100
AcDb2dVertex
 10
218.529
 20
249.861
 30
0.0
  0
VERTEX
  5
3C6
330
369
100
AcDbEntity
  8
6
  6
Continuous
 62
     2
370
     9
100
AcDbVertex
100
AcDb2dVertex
 10
218.694
 20
249.853
 30
0.0
  0
VERTEX
  5
3C7
330
369
100
AcDbEntity
  8
6
  6
Continuous
 62
     2
370
     9
100
AcDbVertex
100
AcDb2dVertex
 10
218.862
 20
249.846
 30
0.0
  0
VERTEX
  5
3C8
330
369
100
AcDbEntity
  8
6
  6
Continuous
 62
     2
370
     9
100
AcDbVertex
100
AcDb2dVertex
 10
219.031
 20
249.841
 30
0.0
  0
VERTEX
  5
3C9
330
369
100
AcDbEntity
  8
6
  6
Continuous
 62
     2
370
     9
100
AcDbVertex
100
AcDb2dVertex
 10
219.202
 20
249.838
 30
0.0
  0
VERTEX
  5
3CA
330
369
100
AcDbEntity
  8
6
  6
Continuous
 62
     2
370
     9
100
AcDbVertex
100
AcDb2dVertex
 10
219.373
 20
249.836
 30
0.0
  0
VERTEX
  5
3CB
330
369
100
AcDbEntity
  8
6
  6
Continuous
 62
     2
370
     9
100
AcDbVertex
100
AcDb2dVertex
 10
219.545
 20
249.835
 30
0.0
  0
VERTEX
  5
3CC
330
369
100
AcDbEntity
  8
6
  6
Continuous
 62
     2
370
     9
100
AcDbVertex
100
AcDb2dVertex
 10
219.716
 20
249.836
 30
0.0
  0
VERTEX
  5
3CD
330
369
100
AcDbEntity
  8
6
  6
Continuous
 62
     2
370
     9
100
AcDbVertex
100
AcDb2dVertex
 10
219.888
 20
249.838
 30
0.0
  0
VERTEX
  5
3CE
330
369
100
AcDbEntity
  8
6
  6
Continuous
 62
     2
370
     9
100
AcDbVertex
100
AcDb2dVertex
 10
220.058
 20
249.841
 30
0.0
  0
VERTEX
  5
3CF
330
369
100
AcDbEntity
  8
6
  6
Continuous
 62
     2
370
     9
100
AcDbVertex
100
AcDb2dVertex
 10
220.228
 20
249.846
 30
0.0
  0
VERTEX
  5
3D0
330
369
100
AcDbEntity
  8
6
  6
Continuous
 62
     2
370
     9
100
AcDbVertex
100
AcDb2dVertex
 10
220.395
 20
249.853
 30
0.0
  0
VERTEX
  5
3D1
330
369
100
AcDbEntity
  8
6
  6
Continuous
 62
     2
370
     9
100
AcDbVertex
100
AcDb2dVertex
 10
220.561
 20
249.861
 30
0.0
  0
VERTEX
  5
3D2
330
369
100
AcDbEntity
  8
6
  6
Continuous
 62
     2
370
     9
100
AcDbVertex
100
AcDb2dVertex
 10
220.724
 20
249.87
 30
0.0
  0
VERTEX
  5
3D3
330
369
100
AcDbEntity
  8
6
  6
Continuous
 62
     2
370
     9
100
AcDbVertex
100
AcDb2dVertex
 10
220.884
 20
249.881
 30
0.0
  0
VERTEX
  5
3D4
330
369
100
AcDbEntity
  8
6
  6
Continuous
 62
     2
370
     9
100
AcDbVertex
100
AcDb2dVertex
 10
221.041
 20
249.892
 30
0.0
  0
VERTEX
  5
3D5
330
369
100
AcDbEntity
  8
6
  6
Continuous
 62
     2
370
     9
100
AcDbVertex
100
AcDb2dVertex
 10
221.195
 20
249.906
 30
0.0
  0
VERTEX
  5
3D6
330
369
100
AcDbEntity
  8
6
  6
Continuous
 62
     2
370
     9
100
AcDbVertex
100
AcDb2dVertex
 10
221.344
 20
249.92
 30
0.0
  0
VERTEX
  5
3D7
330
369
100
AcDbEntity
  8
6
  6
Continuous
 62
     2
370
     9
100
AcDbVertex
100
AcDb2dVertex
 10
221.489
 20
249.936
 30
0.0
  0
VERTEX
  5
3D8
330
369
100
AcDbEntity
  8
6
  6
Continuous
 62
     2
370
     9
100
AcDbVertex
100
AcDb2dVertex
 10
221.63
 20
249.953
 30
0.0
  0
VERTEX
  5
3D9
330
369
100
AcDbEntity
  8
6
  6
Continuous
 62
     2
370
     9
100
AcDbVertex
100
AcDb2dVertex
 10
221.765
 20
249.971
 30
0.0
  0
VERTEX
  5
3DA
330
369
100
AcDbEntity
  8
6
  6
Continuous
 62
     2
370
     9
100
AcDbVertex
100
AcDb2dVertex
 10
221.895
 20
249.99
 30
0.0
  0
VERTEX
  5
3DB
330
369
100
AcDbEntity
  8
6
  6
Continuous
 62
     2
370
     9
100
AcDbVertex
100
AcDb2dVertex
 10
222.02
 20
250.011
 30
0.0
  0
VERTEX
  5
3DC
330
369
100
AcDbEntity
  8
6
  6
Continuous
 62
     2
370
     9
100
AcDbVertex
100
AcDb2dVertex
 10
222.138
 20
250.032
 30
0.0
  0
VERTEX
  5
3DD
330
369
100
AcDbEntity
  8
6
  6
Continuous
 62
     2
370
     9
100
AcDbVertex
100
AcDb2dVertex
 10
222.25
 20
250.054
 30
0.0
  0
VERTEX
  5
3DE
330
369
100
AcDbEntity
  8
6
  6
Continuous
 62
     2
370
     9
100
AcDbVertex
100
AcDb2dVertex
 10
222.356
 20
250.077
 30
0.0
  0
VERTEX
  5
3DF
330
369
100
AcDbEntity
  8
6
  6
Continuous
 62
     2
370
     9
100
AcDbVertex
100
AcDb2dVertex
 10
222.455
 20
250.102
 30
0.0
  0
VERTEX
  5
3E0
330
369
100
AcDbEntity
  8
6
  6
Continuous
 62
     2
370
     9
100
AcDbVertex
100
AcDb2dVertex
 10
222.547
 20
250.126
 30
0.0
  0
VERTEX
  5
3E1
330
369
100
AcDbEntity
  8
6
  6
Continuous
 62
     2
370
     9
100
AcDbVertex
100
AcDb2dVertex
 10
222.631
 20
250.152
 30
0.0
  0
VERTEX
  5
3E2
330
369
100
AcDbEntity
  8
6
  6
Continuous
 62
     2
370
     9
100
AcDbVertex
100
AcDb2dVertex
 10
222.709
 20
250.178
 30
0.0
  0
VERTEX
  5
3E3
330
369
100
AcDbEntity
  8
6
  6
Continuous
 62
     2
370
     9
100
AcDbVertex
100
AcDb2dVertex
 10
222.778
 20
250.205
 30
0.0
  0
VERTEX
  5
3E4
330
369
100
AcDbEntity
  8
6
  6
Continuous
 62
     2
370
     9
100
AcDbVertex
100
AcDb2dVertex
 10
222.84
 20
250.233
 30
0.0
  0
VERTEX
  5
3E5
330
369
100
AcDbEntity
  8
6
  6
Continuous
 62
     2
370
     9
100
AcDbVertex
100
AcDb2dVertex
 10
222.894
 20
250.261
 30
0.0
  0
VERTEX
  5
3E6
330
369
100
AcDbEntity
  8
6
  6
Continuous
 62
     2
370
     9
100
AcDbVertex
100
AcDb2dVertex
 10
222.94
 20
250.289
 30
0.0
  0
VERTEX
  5
3E7
330
369
100
AcDbEntity
  8
6
  6
Continuous
 62
     2
370
     9
100
AcDbVertex
100
AcDb2dVertex
 10
222.978
 20
250.318
 30
0.0
  0
VERTEX
  5
3E8
330
369
100
AcDbEntity
  8
6
  6
Continuous
 62
     2
370
     9
100
AcDbVertex
100
AcDb2dVertex
 10
223.007
 20
250.347
 30
0.0
  0
VERTEX
  5
3E9
330
369
100
AcDbEntity
  8
6
  6
Continuous
 62
     2
370
     9
100
AcDbVertex
100
AcDb2dVertex
 10
223.028
 20
250.376
 30
0.0
  0
VERTEX
  5
3EA
330
369
100
AcDbEntity
  8
6
  6
Continuous
 62
     2
370
     9
100
AcDbVertex
100
AcDb2dVertex
 10
223.041
 20
250.405
 30
0.0
  0
VERTEX
  5
3EB
330
369
100
AcDbEntity
  8
6
  6
Continuous
 62
     2
370
     9
100
AcDbVertex
100
AcDb2dVertex
 10
223.045
 20
250.435
 30
0.0
  0
SEQEND
  5
36A
330
369
100
AcDbEntity
  8
6
  6
Continuous
370
     9
  0
CIRCLE
  5
3EC
330
1F
100
AcDbEntity
  8
6
  6
Continuous
 62
     2
370
     9
100
AcDbCircle
 10
219.5447545197232
 20
254.6848707032498
 30
0.0
 40
3.150000000000006
  0
CIRCLE
  5
3ED
330
1F
100
AcDbEntity
  8
6
  6
Continuous
 62
     2
370
     9
100
AcDbCircle
 10
218.744754519723
 20
256.1348707032499
 30
0.0
 40
1.050000000000011
  0
ARC
  5
3EE
330
1F
100
AcDbEntity
  8
26
  6
Continuous
 62
     7
370
     9
100
AcDbCircle
 10
362.0226639218954
 20
258.8348707032499
 30
0.0
 40
10.80000000000001
100
AcDbArc
 50
342.1742941314628
 51
17.8257058685365
  0
CIRCLE
  5
3EF
330
1F
100
AcDbEntity
  8
26
  6
Continuous
 62
     7
370
     9
100
AcDbCircle
 10
369.5226639218954
 20
258.8348707032499
 30
0.0
 40
2.5
  0
LINE
  5
3F0
330
1F
100
AcDbEntity
  8
26
  6
Continuous
 62
     7
370
     9
100
AcDbLine
 10
371.3521869536478
 20
254.8348707032499
 30
0.0
 11
352.6931408901429
 21
254.8348707032499
 31
0.0
  0
LINE
  5
3F1
330
1F
100
AcDbEntity
  8
26
  6
Continuous
 62
     7
370
     9
100
AcDbLine
 10
352.6931408901429
 20
262.8348707032499
 30
0.0
 11
371.3521869536478
 21
262.8348707032499
 31
0.0
  0
ARC
  5
3F2
330
1F
100
AcDbEntity
  8
26
  6
Continuous
 62
     7
370
     9
100
AcDbCircle
 10
371.3521869536478
 20
255.8348707032498
 30
0.0
 40
1.0
100
AcDbArc
 50
269.9999999999998
 51
342.1742941314632
  0
ARC
  5
3F3
330
1F
100
AcDbEntity
  8
26
  6
Continuous
 62
     7
370
     9
100
AcDbCircle
 10
352.6931408901429
 20
255.8348707032499
 30
0.0
 40
1.0
100
AcDbArc
 50
197.8257058685361
 51
269.9999999999998
  0
ARC
  5
3F4
330
1F
100
AcDbEntity
  8
26
  6
Continuous
 62
     7
370
     9
100
AcDbCircle
 10
352.6931408901429
 20
261.8348707032499
 30
0.0
 40
1.0
100
AcDbArc
 50
89.99999999999991
 51
162.1742941314635
  0
ARC
  5
3F5
330
1F
100
AcDbEntity
  8
26
  6
Continuous
 62
     7
370
     9
100
AcDbCircle
 10
371.3521869536478
 20
261.8348707032499
 30
0.0
 40
1.0
100
AcDbArc
 50
17.82570586853645
 51
89.99999999999991
  0
LINE
  5
3F6
330
1F
100
AcDbEntity
  8
26
  6
Continuous
 62
     7
370
     9
100
AcDbLine
 10
352.2226639218954
 20
258.3348707032499
 30
0.0
 11
351.2342442044391
 21
258.3348707032499
 31
0.0
  0
LINE
  5
3F7
330
1F
100
AcDbEntity
  8
26
  6
Continuous
 62
     7
370
     9
100
AcDbLine
 10
351.2342442044391
 20
259.3348707032498
 30
0.0
 11
352.2226639218954
 21
259.3348707032498
 31
0.0
  0
ARC
  5
3F8
330
1F
100
AcDbEntity
  8
26
  6
Continuous
 62
     7
370
     9
100
AcDbCircle
 10
362.0226639218954
 20
258.8348707032499
 30
0.0
 40
10.80000000000001
100
AcDbArc
 50
182.6535308674055
 51
197.8257058685356
  0
ARC
  5
3F9
330
1F
100
AcDbEntity
  8
26
  6
Continuous
 62
     7
370
     9
100
AcDbCircle
 10
362.0226639218954
 20
258.8348707032499
 30
0.0
 40
10.80000000000001
100
AcDbArc
 50
162.1742941314635
 51
177.3464691325939
  0
LINE
  5
3FA
330
1F
100
AcDbEntity
  8
26
  6
Continuous
 62
     7
370
     9
100
AcDbLine
 10
352.2226639218954
 20
258.3348707032499
 30
0.0
 11
352.2226639218954
 21
259.3348707032498
 31
0.0
  0
LINE
  5
3FB
330
1F
100
AcDbEntity
  8
26
  6
Continuous
 62
     7
370
     9
100
AcDbLine
 10
352.4726639218954
 20
257.5848707032498
 30
0.0
 11
351.2952457795836
 21
257.5848707032498
 31
0.0
  0
LINE
  5
3FC
330
1F
100
AcDbEntity
  8
26
  6
Continuous
 62
     7
370
     9
100
AcDbLine
 10
351.2952457795836
 20
260.0848707032499
 30
0.0
 11
352.4726639218954
 21
260.0848707032499
 31
0.0
  0
ARC
  5
3FD
330
1F
100
AcDbEntity
  8
26
  6
Continuous
 62
     7
370
     9
100
AcDbCircle
 10
352.4726639218954
 20
258.8348707032499
 30
0.0
 40
1.25
100
AcDbArc
 50
269.9999999999998
 51
0.0
  0
ARC
  5
3FE
330
1F
100
AcDbEntity
  8
26
  6
Continuous
 62
     7
370
     9
100
AcDbCircle
 10
352.4726639218954
 20
258.8348707032499
 30
0.0
 40
1.25
100
AcDbArc
 50
0.0
 51
89.99999999999991
  0
ARC
  5
3FF
330
1F
100
AcDbEntity
  8
26
  6
Continuous
 62
     7
370
     9
100
AcDbCircle
 10
404.0554382218953
 20
258.9138419093627
 30
0.0
 40
10.80000000000001
100
AcDbArc
 50
72.17429413146293
 51
107.8257058685368
  0
CIRCLE
  5
400
330
1F
100
AcDbEntity
  8
26
  6
Continuous
 62
     7
370
     9
100
AcDbCircle
 10
404.0554382218953
 20
266.4138419093628
 30
0.0
 40
2.5
  0
LINE
  5
401
330
1F
100
AcDbEntity
  8
26
  6
Continuous
 62
     7
370
     9
100
AcDbLine
 10
408.0554382218953
 20
268.2433649411152
 30
0.0
 11
408.0554382218953
 21
249.5843188776103
 31
0.0
  0
LINE
  5
402
330
1F
100
AcDbEntity
  8
26
  6
Continuous
 62
     7
370
     9
100
AcDbLine
 10
400.0554382218953
 20
249.5843188776103
 30
0.0
 11
400.0554382218953
 21
268.2433649411152
 31
0.0
  0
ARC
  5
403
330
1F
100
AcDbEntity
  8
26
  6
Continuous
 62
     7
370
     9
100
AcDbCircle
 10
407.0554382218952
 20
268.2433649411152
 30
0.0
 40
1.0
100
AcDbArc
 50
0.0
 51
72.17429413146355
  0
ARC
  5
404
330
1F
100
AcDbEntity
  8
26
  6
Continuous
 62
     7
370
     9
100
AcDbCircle
 10
407.0554382218952
 20
249.5843188776103
 30
0.0
 40
1.0
100
AcDbArc
 50
287.8257058685366
 51
0.0
  0
ARC
  5
405
330
1F
100
AcDbEntity
  8
26
  6
Continuous
 62
     7
370
     9
100
AcDbCircle
 10
401.0554382218953
 20
249.5843188776103
 30
0.0
 40
1.0
100
AcDbArc
 50
179.9999999999998
 51
252.1742941314627
  0
ARC
  5
406
330
1F
100
AcDbEntity
  8
26
  6
Continuous
 62
     7
370
     9
100
AcDbCircle
 10
401.0554382218953
 20
268.2433649411152
 30
0.0
 40
1.0
100
AcDbArc
 50
107.8257058685364
 51
179.9999999999998
  0
LINE
  5
407
330
1F
100
AcDbEntity
  8
26
  6
Continuous
 62
     7
370
     9
100
AcDbLine
 10
404.5554382218953
 20
249.1138419093628
 30
0.0
 11
404.5554382218953
 21
248.1254221919064
 31
0.0
  0
LINE
  5
408
330
1F
100
AcDbEntity
  8
26
  6
Continuous
 62
     7
370
     9
100
AcDbLine
 10
403.5554382218952
 20
248.1254221919064
 30
0.0
 11
403.5554382218952
 21
249.1138419093628
 31
0.0
  0
ARC
  5
409
330
1F
100
AcDbEntity
  8
26
  6
Continuous
 62
     7
370
     9
100
AcDbCircle
 10
404.0554382218953
 20
258.9138419093627
 30
0.0
 40
10.80000000000001
100
AcDbArc
 50
272.6535308674058
 51
287.8257058685361
  0
ARC
  5
40A
330
1F
100
AcDbEntity
  8
26
  6
Continuous
 62
     7
370
     9
100
AcDbCircle
 10
404.0554382218953
 20
258.9138419093627
 30
0.0
 40
10.80000000000001
100
AcDbArc
 50
252.1742941314622
 51
267.3464691325932
  0
LINE
  5
40B
330
1F
100
AcDbEntity
  8
26
  6
Continuous
 62
     7
370
     9
100
AcDbLine
 10
404.5554382218953
 20
249.1138419093628
 30
0.0
 11
403.5554382218952
 21
249.1138419093628
 31
0.0
  0
LINE
  5
40C
330
1F
100
AcDbEntity
  8
26
  6
Continuous
 62
     7
370
     9
100
AcDbLine
 10
405.3054382218952
 20
249.3638419093628
 30
0.0
 11
405.3054382218952
 21
248.1864237670509
 31
0.0
  0
LINE
  5
40D
330
1F
100
AcDbEntity
  8
26
  6
Continuous
 62
     7
370
     9
100
AcDbLine
 10
402.8054382218953
 20
248.186423767051
 30
0.0
 11
402.8054382218953
 21
249.3638419093628
 31
0.0
  0
ARC
  5
40E
330
1F
100
AcDbEntity
  8
26
  6
Continuous
 62
     7
370
     9
100
AcDbCircle
 10
404.0554382218953
 20
249.3638419093628
 30
0.0
 40
1.25
100
AcDbArc
 50
0.0
 51
89.99999999999991
  0
ARC
  5
40F
330
1F
100
AcDbEntity
  8
26
  6
Continuous
 62
     7
370
     9
100
AcDbCircle
 10
404.0554382218953
 20
249.3638419093628
 30
0.0
 40
1.25
100
AcDbArc
 50
89.99999999999991
 51
179.9999999999998
  0
LINE
  5
410
330
1F
100
AcDbEntity
  8
26
  6
Continuous
 62
     7
370
     9
100
AcDbLine
 10
360.5377396814036
 20
279.9197949437417
 30
0.0
 11
363.5075881623871
 21
276.9499464627581
 31
0.0
  0
LINE
  5
411
330
1F
100
AcDbEntity
  8
26
  6
Continuous
 62
     7
370
     9
100
AcDbLine
 10
363.5075881623871
 20
279.9197949437417
 30
0.0
 11
360.5377396814036
 21
276.9499464627581
 31
0.0
  0
ARC
  5
412
330
1F
100
AcDbEntity
  8
11
  6
PHANTOM
 62
     3
370
     9
100
AcDbCircle
 10
366.0226639218953
 20
299.83487070325
 30
0.0
 40
13.0
100
AcDbArc
 50
179.9999999999997
 51
269.9999999999994
  0
LINE
  5
413
330
1F
100
AcDbEntity
  8
11
  6
PHANTOM
 62
     3
370
     9
100
AcDbLine
 10
366.0226639218953
 20
286.83487070325
 30
0.0
 11
400.0226639218953
 21
286.83487070325
 31
0.0
  0
LINE
  5
414
330
1F
100
AcDbEntity
  8
11
  6
PHANTOM
 62
     3
370
     9
100
AcDbLine
 10
353.0226639218954
 20
299.83487070325
 30
0.0
 11
413.0226639218953
 21
299.83487070325
 31
0.0
  0
ARC
  5
415
330
1F
100
AcDbEntity
  8
11
  6
PHANTOM
 62
     3
370
     9
100
AcDbCircle
 10
400.0226639218953
 20
299.83487070325
 30
0.0
 40
13.0
100
AcDbArc
 50
269.9999999999994
 51
0.0
  0
ARC
  5
416
330
1F
100
AcDbEntity
  8
11
  6
PHANTOM
 62
     3
370
     9
100
AcDbCircle
 10
219.6704326390721
 20
145.9572484034123
 30
0.0
 40
13.0
100
AcDbArc
 50
0.0
 51
89.99999999999987
  0
LINE
  5
417
330
1F
100
AcDbEntity
  8
11
  6
PHANTOM
 62
     3
370
     9
100
AcDbLine
 10
232.6704326390721
 20
111.9572484034123
 30
0.0
 11
232.6704326390721
 21
145.9572484034123
 31
0.0
  0
LINE
  5
418
330
1F
100
AcDbEntity
  8
11
  6
PHANTOM
 62
     3
370
     9
100
AcDbLine
 10
219.6704326390721
 20
98.9572484034123
 30
0.0
 11
219.6704326390721
 21
158.9572484034123
 31
0.0
  0
ARC
  5
419
330
1F
100
AcDbEntity
  8
11
  6
PHANTOM
 62
     3
370
     9
100
AcDbCircle
 10
219.6704326390721
 20
111.9572484034123
 30
0.0
 40
13.0
100
AcDbArc
 50
269.9999999999994
 51
0.0
  0
LINE
  5
41A
330
1F
100
AcDbEntity
  8
11
  6
PHANTOM
 62
     3
370
     9
100
AcDbLine
 10
526.9153111179191
 20
98.95724840341244
 30
0.0
 11
526.9153111179194
 21
158.9572484034124
 31
0.0
  0
ARC
  5
41B
330
1F
100
AcDbEntity
  8
11
  6
PHANTOM
 62
     3
370
     9
100
AcDbCircle
 10
526.9153111179191
 20
111.9572484034124
 30
0.0
 40
13.0
100
AcDbArc
 50
179.9999999999998
 51
269.9999999999998
  0
ARC
  5
41C
330
1F
100
AcDbEntity
  8
11
  6
PHANTOM
 62
     3
370
     9
100
AcDbCircle
 10
526.9153111179191
 20
145.9572484034124
 30
0.0
 40
13.0
100
AcDbArc
 50
89.99999999999991
 51
179.9999999999997
  0
LINE
  5
41D
330
1F
100
AcDbEntity
  8
11
  6
PHANTOM
 62
     3
370
     9
100
AcDbLine
 10
513.9153111179191
 20
111.9572484034124
 30
0.0
 11
513.9153111179191
 21
145.9572484034124
 31
0.0
  0
ARC
  5
41E
330
1F
100
AcDbEntity
  8
11
  6
PHANTOM
 62
     3
370
     9
100
AcDbCircle
 10
383.0226639218953
 20
128.9572484034124
 30
0.0
 40
30.0
100
AcDbArc
 50
76.5066011784473
 51
103.4933988215527
  0
ARC
  5
41F
330
1F
100
AcDbEntity
  8
11
  6
PHANTOM
 62
     3
370
     9
100
AcDbCircle
 10
383.0226639218953
 20
128.9572484034124
 30
0.0
 40
30.0
100
AcDbArc
 50
203.2859157297615
 51
333.2563160495969
  0
LINE
  5
420
330
1F
100
AcDbEntity
  8
11
  6
PHANTOM
 62
     3
370
     9
100
AcDbLine
 10
183.0447545197232
 20
221.1348707032498
 30
0.0
 11
194.4447545197233
 21
221.1348707032498
 31
0.0
  0
LINE
  5
421
330
1F
100
AcDbEntity
  8
11
  6
PHANTOM
 62
     3
370
     9
100
AcDbLine
 10
183.0447545197232
 20
220.1348707032499
 30
0.0
 11
194.4447545197233
 21
220.1348707032499
 31
0.0
  0
LINE
  5
422
330
1F
100
AcDbEntity
  8
11
  6
PHANTOM
 62
     3
370
     9
100
AcDbLine
 10
183.0447545197232
 20
221.1348707032498
 30
0.0
 11
183.0447545197232
 21
220.1348707032499
 31
0.0
  0
LINE
  5
423
330
1F
100
AcDbEntity
  8
11
  6
PHANTOM
 62
     3
370
     9
100
AcDbLine
 10
184.9109377629008
 20
221.1348707032498
 30
0.0
 11
184.9109377629008
 21
221.8348707032498
 31
0.0
  0
LINE
  5
424
330
1F
100
AcDbEntity
  8
11
  6
PHANTOM
 62
     3
370
     9
100
AcDbLine
 10
192.6109377629006
 20
221.1348707032498
 30
0.0
 11
192.6109377629006
 21
221.8348707032498
 31
0.0
  0
LINE
  5
425
330
1F
100
AcDbEntity
  8
11
  6
PHANTOM
 62
     3
370
     9
100
AcDbLine
 10
194.4447545197233
 20
221.1348707032498
 30
0.0
 11
194.4447545197233
 21
220.1348707032499
 31
0.0
  0
LINE
  5
426
330
1F
100
AcDbEntity
  8
26
  6
PHANTOM
 62
     7
370
     9
100
AcDbLine
 10
298.8447545197231
 20
239.0848707032498
 30
0.0
 11
298.844754519723
 21
262.5848707032499
 31
0.0
  0
LINE
  5
427
330
1F
100
AcDbEntity
  8
26
  6
PHANTOM
 62
     7
370
     9
100
AcDbLine
 10
298.044754519723
 20
262.5848707032499
 30
0.0
 11
298.844754519723
 21
262.5848707032499
 31
0.0
  0
LINE
  5
428
330
1F
100
AcDbEntity
  8
26
  6
PHANTOM
 62
     7
370
     9
100
AcDbLine
 10
298.0447545197232
 20
239.0848707032498
 30
0.0
 11
298.8447545197231
 21
239.0848707032498
 31
0.0
  0
LINE
  5
429
330
1F
100
AcDbEntity
  8
26
  6
PHANTOM
 62
     7
370
     9
100
AcDbLine
 10
325.5226639218952
 20
139.7072484034123
 30
0.0
 11
324.7226639218952
 21
139.7072484034123
 31
0.0
  0
LINE
  5
42A
330
1F
100
AcDbEntity
  8
26
  6
PHANTOM
 62
     7
370
     9
100
AcDbLine
 10
324.7226639218951
 20
163.2072484034122
 30
0.0
 11
324.7226639218952
 21
139.7072484034123
 31
0.0
  0
LINE
  5
42B
330
1F
100
AcDbEntity
  8
26
  6
PHANTOM
 62
     7
370
     9
100
AcDbLine
 10
325.5226639218951
 20
163.2072484034122
 30
0.0
 11
324.7226639218951
 21
163.2072484034122
 31
0.0
  0
LINE
  5
42C
330
1F
100
AcDbEntity
  8
11
  6
PHANTOM
 62
     3
370
     9
100
AcDbLine
 10
429.1226639218952
 20
121.7572484034123
 30
0.0
 11
440.5226639218953
 21
121.7572484034123
 31
0.0
  0
LINE
  5
42D
330
1F
100
AcDbEntity
  8
11
  6
PHANTOM
 62
     3
370
     9
100
AcDbLine
 10
429.1226639218952
 20
120.7572484034123
 30
0.0
 11
440.5226639218953
 21
120.7572484034123
 31
0.0
  0
LINE
  5
42E
330
1F
100
AcDbEntity
  8
11
  6
PHANTOM
 62
     3
370
     9
100
AcDbLine
 10
438.6888471650727
 20
121.7572484034123
 30
0.0
 11
438.6888471650727
 21
122.4572484034123
 31
0.0
  0
LINE
  5
42F
330
1F
100
AcDbEntity
  8
11
  6
PHANTOM
 62
     3
370
     9
100
AcDbLine
 10
440.5226639218953
 20
121.7572484034123
 30
0.0
 11
440.5226639218953
 21
120.7572484034123
 31
0.0
  0
LINE
  5
430
330
1F
100
AcDbEntity
  8
11
  6
PHANTOM
 62
     3
370
     9
100
AcDbLine
 10
429.1226639218952
 20
121.7572484034123
 30
0.0
 11
429.1226639218952
 21
120.7572484034123
 31
0.0
  0
LINE
  5
431
330
1F
100
AcDbEntity
  8
11
  6
PHANTOM
 62
     3
370
     9
100
AcDbLine
 10
430.9888471650728
 20
121.7572484034123
 30
0.0
 11
430.9888471650728
 21
122.4572484034123
 31
0.0
  0
LINE
  5
432
330
1F
100
AcDbEntity
  8
26
  6
PHANTOM
 62
     7
370
     9
100
AcDbLine
 10
324.7226639218946
 20
270.5848707032499
 30
0.0
 11
324.7226639218947
 21
247.0848707032498
 31
0.0
  0
LINE
  5
433
330
1F
100
AcDbEntity
  8
26
  6
PHANTOM
 62
     7
370
     9
100
AcDbLine
 10
325.5226639218946
 20
247.0848707032498
 30
0.0
 11
324.7226639218947
 21
247.0848707032498
 31
0.0
  0
LINE
  5
434
330
1F
100
AcDbEntity
  8
26
  6
PHANTOM
 62
     7
370
     9
100
AcDbLine
 10
325.5226639218945
 20
270.5848707032499
 30
0.0
 11
324.7226639218946
 21
270.5848707032499
 31
0.0
  0
POINT
  5
435
330
1F
100
AcDbEntity
  8
26
  6
Continuous
 62
     7
370
     9
100
AcDbPoint
 10
383.0226639218953
 20
258.8348707032499
 30
0.0
  0
POINT
  5
436
330
1F
100
AcDbEntity
  8
26
  6
Continuous
 62
     7
370
     9
100
AcDbPoint
 10
240.5447545197232
 20
228.3348707032499
 30
0.0
  0
POINT
  5
437
330
1F
100
AcDbEntity
  8
26
  6
Continuous
 62
     7
370
     9
100
AcDbPoint
 10
205.5447545197232
 20
260.8348707032499
 30
0.0
  0
POINT
  5
438
330
1F
100
AcDbEntity
  8
26
  6
Continuous
 62
     7
370
     9
100
AcDbPoint
 10
206.4589680820963
 20
240.2490842656229
 30
0.0
  0
POINT
  5
439
330
1F
100
AcDbEntity
  8
26
  6
Continuous
 62
     7
370
     9
100
AcDbPoint
 10
207.0447545197232
 20
240.8348707032499
 30
0.0
  0
POINT
  5
43A
330
1F
100
AcDbEntity
  8
26
  6
Continuous
 62
     7
370
     9
100
AcDbPoint
 10
485.9153111179191
 20
151.4572484034124
 30
0.0
  0
POINT
  5
43B
330
1F
100
AcDbEntity
  8
6
  6
Continuous
 62
     2
370
     9
100
AcDbPoint
 10
261.5447545197232
 20
256.3348707032497
 30
0.0
  0
POINT
  5
43C
330
1F
100
AcDbEntity
  8
26
  6
Continuous
 62
     7
370
     9
100
AcDbPoint
 10
219.5447545197232
 20
223.3348707032499
 30
0.0
  0
POINT
  5
43D
330
1F
100
AcDbEntity
  8
26
  6
Continuous
 62
     7
370
     9
100
AcDbPoint
 10
206.5447545197232
 20
224.3348707032499
 30
0.0
  0
POINT
  5
43E
330
1F
100
AcDbEntity
  8
26
  6
Continuous
 62
     7
370
     9
100
AcDbPoint
 10
383.0226639218953
 20
276.43487070325
 30
0.0
  0
POINT
  5
43F
330
1F
100
AcDbEntity
  8
26
  6
Continuous
 62
     7
370
     9
100
AcDbPoint
 10
243.070432639072
 20
147.0572484034122
 30
0.0
  0
POINT
  5
440
330
1F
100
AcDbEntity
  8
26
  6
Continuous
 62
     7
370
     9
100
AcDbPoint
 10
404.0226639218952
 20
151.4572484034123
 30
0.0
  0
POINT
  5
441
330
1F
100
AcDbEntity
  8
26
  6
Continuous
 62
     7
370
     9
100
AcDbPoint
 10
434.8226639218952
 20
151.4572484034123
 30
0.0
  0
POINT
  5
442
330
1F
100
AcDbEntity
  8
26
  6
Continuous
 62
     7
370
     9
100
AcDbPoint
 10
416.5226639218952
 20
121.9572484034124
 30
0.0
  0
LINE
  5
443
330
1F
100
AcDbEntity
  8
5
  6
Continuous
 62
     3
370
     9
100
AcDbLine
 10
326.3016198795675
 20
128.8791258795961
 30
0.0
 11
346.5360028656334
 21
128.8791258795961
 31
0.0
  0
POINT
  5
444
330
1F
100
AcDbEntity
  8
26
  6
Continuous
 62
     7
370
     9
100
AcDbPoint
 10
362.0226639218952
 20
193.7572484034125
 30
0.0
  0
POINT
  5
445
330
1F
100
AcDbEntity
  8
26
  6
Continuous
 62
     7
370
     9
100
AcDbPoint
 10
247.103771514098
 20
242.3381114798525
 30
0.0
  0
POINT
  5
446
330
1F
100
AcDbEntity
  8
26
  6
Continuous
 62
     7
370
     9
100
AcDbPoint
 10
505.515311117919
 20
168.2572484034126
 30
0.0
  0
LINE
  5
447
330
1F
100
AcDbEntity
  8
5
  6
Continuous
 62
     3
370
     9
100
AcDbLine
 10
440.8726639218953
 20
151.4572484034123
 30
0.0
 11
449.8396940667777
 21
151.4572484034123
 31
0.0
  0
LINE
  5
448
330
1F
100
AcDbEntity
  8
5
  6
Continuous
 62
     3
370
     9
100
AcDbLine
 10
413.0226639218953
 20
299.83487070325
 30
0.0
 11
413.0226639218953
 21
306.3679393498944
 31
0.0
  0
LINE
  5
449
330
1F
100
AcDbEntity
  8
5
  6
Continuous
 62
     3
370
     9
100
AcDbLine
 10
353.0226639218954
 20
299.83487070325
 30
0.0
 11
353.0226639218954
 21
306.3679393498944
 31
0.0
  0
LINE
  5
44A
330
1F
100
AcDbEntity
  8
5
  6
Continuous
 62
     3
370
     9
100
AcDbLine
 10
366.0226639218953
 20
286.83487070325
 30
0.0
 11
343.2087637576714
 21
286.83487070325
 31
0.0
  0
LINE
  5
44B
330
1F
100
AcDbEntity
  8
5
  6
Continuous
 62
     3
370
     9
100
AcDbLine
 10
353.0226639218954
 20
299.83487070325
 30
0.0
 11
343.2087637576714
 21
299.83487070325
 31
0.0
  0
POINT
  5
44C
330
1F
100
AcDbEntity
  8
26
  6
Continuous
 62
     7
370
     9
100
AcDbPoint
 10
261.5447545197232
 20
225.33487070325
 30
0.0
  0
LINE
  5
44D
330
1F
100
AcDbEntity
  8
5
  6
Continuous
 62
     3
370
     9
100
AcDbLine
 10
362.0226639218953
 20
242.9848707032499
 30
0.0
 11
303.439619604306
 21
242.9848707032499
 31
0.0
  0
LINE
  5
44E
330
1F
100
AcDbEntity
  8
5
  6
Continuous
 62
     3
370
     9
100
AcDbLine
 10
315.9847191871265
 20
258.8348707032499
 30
0.0
 11
311.5081235826304
 21
258.8348707032499
 31
0.0
  0
LINE
  5
44F
330
1F
100
AcDbEntity
  8
5
  6
Continuous
 62
     3
370
     9
100
AcDbLine
 10
348.8587637576713
 20
299.83487070325
 30
0.0
 11
311.5081235826304
 21
299.83487070325
 31
0.0
  0
LINE
  5
450
330
1F
100
AcDbEntity
  8
5
  6
Continuous
 62
     3
370
     9
100
AcDbLine
 10
311.5081235826304
 20
299.83487070325
 30
0.0
 11
305.5081235826304
 21
299.83487070325
 31
0.0
  0
LINE
  5
451
330
1F
100
AcDbEntity
  8
5
  6
Continuous
 62
     3
370
     9
100
AcDbLine
 10
383.0226639218953
 20
243.9329713205288
 30
0.0
 11
383.0226639218953
 21
226.1077969921117
 31
0.0
  0
LINE
  5
452
330
1F
100
AcDbEntity
  8
5
  6
Continuous
 62
     3
370
     9
100
AcDbLine
 10
440.8726639218953
 20
258.8348707032499
 30
0.0
 11
440.8726639218953
 21
217.9294210428222
 31
0.0
  0
LINE
  5
453
330
1F
100
AcDbEntity
  8
5
  6
Continuous
 62
     3
370
     9
100
AcDbLine
 10
325.5226639218945
 20
245.3348707032501
 30
0.0
 11
325.5226639218945
 21
218.1077969921117
 31
0.0
  0
LINE
  5
454
330
1F
100
AcDbEntity
  8
5
  6
Continuous
 62
     3
370
     9
100
AcDbLine
 10
434.8226639218953
 20
248.181863545564
 30
0.0
 11
434.8226639218953
 21
234.6077969921117
 31
0.0
  0
LINE
  5
455
330
1F
100
AcDbEntity
  8
5
  6
Continuous
 62
     3
370
     9
100
AcDbLine
 10
325.5226639218945
 20
245.3348707032501
 30
0.0
 11
325.5226639218945
 21
226.1077969921117
 31
0.0
  0
POINT
  5
456
330
1F
100
AcDbEntity
  8
6
  6
Continuous
 62
     2
370
     9
100
AcDbPoint
 10
274.0447545197232
 20
250.8348707032497
 30
0.0
  0
LINE
  5
457
330
1F
100
AcDbEntity
  8
5
  6
Continuous
 62
     3
370
     9
100
AcDbLine
 10
470.0653111179191
 20
178.0572484034125
 30
0.0
 11
470.0653111179191
 21
204.7572484034124
 31
0.0
  0
LINE
  5
458
330
1F
100
AcDbEntity
  8
5
  6
Continuous
 62
     3
370
     9
100
AcDbLine
 10
501.7653111179192
 20
178.0572484034125
 30
0.0
 11
501.7653111179192
 21
204.7572484034124
 31
0.0
  0
LINE
  5
459
330
1F
100
AcDbEntity
  8
5
  6
Continuous
 62
     3
370
     9
100
AcDbLine
 10
467.3431026400757
 20
128.9572484034123
 30
0.0
 11
462.9153111179191
 21
128.9572484034123
 31
0.0
  0
LINE
  5
45A
330
1F
100
AcDbEntity
  8
5
  6
Continuous
 62
     3
370
     9
100
AcDbLine
 10
467.9626347611842
 20
151.4572484034124
 30
0.0
 11
462.9153111179191
 21
151.4572484034124
 31
0.0
  0
LINE
  5
45B
330
1F
100
AcDbEntity
  8
5
  6
Continuous
 62
     3
370
     9
100
AcDbLine
 10
479.9153111179192
 20
113.9572484034123
 30
0.0
 11
462.9153111179191
 21
113.9572484034123
 31
0.0
  0
LINE
  5
45C
330
1F
100
AcDbEntity
  8
5
  6
Continuous
 62
     3
370
     9
100
AcDbLine
 10
325.5226639218945
 20
272.3348707032496
 30
0.0
 11
319.5085972136641
 21
272.3348707032499
 31
0.0
  0
LINE
  5
45D
330
1F
100
AcDbEntity
  8
5
  6
Continuous
 62
     3
370
     9
100
AcDbLine
 10
325.5226639218945
 20
245.3348707032499
 30
0.0
 11
319.5085972136641
 21
245.3348707032499
 31
0.0
  0
LINE
  5
45E
330
1F
100
AcDbEntity
  8
5
  6
Continuous
 62
     3
370
     9
100
AcDbLine
 10
526.9153111179194
 20
115.4572484034123
 30
0.0
 11
536.4293778261504
 21
115.4572484034123
 31
0.0
  0
LINE
  5
45F
330
1F
100
AcDbEntity
  8
5
  6
Continuous
 62
     3
370
     9
100
AcDbLine
 10
526.9153111179191
 20
142.4572484034123
 30
0.0
 11
536.4293778261504
 21
142.4572484034123
 31
0.0
  0
LINE
  5
460
330
1F
100
AcDbEntity
  8
5
  6
Continuous
 62
     3
370
     9
100
AcDbLine
 10
274.7731089958071
 20
151.4572484034123
 30
0.0
 11
283.6704326390722
 21
151.4572484034123
 31
0.0
  0
LINE
  5
461
330
1F
100
AcDbEntity
  8
5
  6
Continuous
 62
     3
370
     9
100
AcDbLine
 10
262.8204326390721
 20
113.9572484034123
 30
0.0
 11
283.6704326390722
 21
113.9572484034123
 31
0.0
  0
LINE
  5
462
330
1F
100
AcDbEntity
  8
5
  6
Continuous
 62
     3
370
     9
100
AcDbLine
 10
276.5204326390722
 20
178.0572484034124
 30
0.0
 11
276.5204326390722
 21
204.7572484034124
 31
0.0
  0
LINE
  5
463
330
1F
100
AcDbEntity
  8
5
  6
Continuous
 62
     3
370
     9
100
AcDbLine
 10
244.8204326390721
 20
178.0572484034124
 30
0.0
 11
244.8204326390721
 21
204.7572484034124
 31
0.0
  0
LINE
  5
464
330
1F
100
AcDbEntity
  8
26
  6
Continuous
 62
     7
370
     9
100
AcDbLine
 10
354.0432264476053
 20
193.7572484034125
 30
0.0
 11
317.7345468432293
 21
193.7572484034125
 31
0.0
  0
LINE
  5
465
330
1F
100
AcDbEntity
  8
26
  6
Continuous
 62
     7
370
     9
100
AcDbLine
 10
383.0226639218953
 20
113.8572484034123
 30
0.0
 11
317.7345468432293
 21
113.8572484034123
 31
0.0
  0
LINE
  5
466
330
1F
100
AcDbEntity
  8
5
  6
Continuous
 62
     3
370
     9
100
AcDbLine
 10
383.0226639218953
 20
113.8572484034123
 30
0.0
 11
309.7345468432292
 21
113.8572484034123
 31
0.0
  0
LINE
  5
467
330
1F
100
AcDbEntity
  8
5
  6
Continuous
 62
     3
370
     9
100
AcDbLine
 10
361.0432264476053
 20
193.7572484034125
 30
0.0
 11
309.7345468432292
 21
193.7572484034125
 31
0.0
  0
LINE
  5
468
330
1F
100
AcDbEntity
  8
5
  6
Continuous
 62
     3
370
     9
100
AcDbLine
 10
404.0226639218952
 20
199.0388165871806
 30
0.0
 11
404.0226639218952
 21
204.5659490399307
 31
0.0
  0
LINE
  5
469
330
1F
100
AcDbEntity
  8
5
  6
Continuous
 62
     3
370
     9
100
AcDbLine
 10
362.0226639218952
 20
199.0388165871806
 30
0.0
 11
362.0226639218952
 21
204.5659490399307
 31
0.0
  0
LINE
  5
46A
330
1F
100
AcDbEntity
  8
26
  6
Continuous
 62
     7
370
     9
100
AcDbLine
 10
345.7388828770265
 20
159.3074246112687
 30
0.0
 11
345.8123694271643
 21
159.9847259781356
 31
0.0
  0
LINE
  5
46B
330
1F
100
AcDbEntity
  8
26
  6
Continuous
 62
     7
370
     9
100
AcDbLine
 10
345.8123694271643
 20
159.9847259781356
 30
0.0
 11
345.8643079840431
 21
160.6552521861446
 31
0.0
  0
LINE
  5
46C
330
1F
100
AcDbEntity
  8
26
  6
Continuous
 62
     7
370
     9
100
AcDbLine
 10
345.8643079840431
 20
160.6552521861446
 30
0.0
 11
345.8718517697652
 21
161.3109913828978
 31
0.0
  0
LINE
  5
46D
330
1F
100
AcDbEntity
  8
26
  6
Continuous
 62
     7
370
     9
100
AcDbLine
 10
345.8718517697652
 20
161.3109913828978
 30
0.0
 11
345.8510910466415
 21
161.9572484034123
 31
0.0
  0
LINE
  5
46E
330
1F
100
AcDbEntity
  8
5
  6
Continuous
 62
     3
370
     9
100
AcDbLine
 10
416.2915447184939
 20
195.7572484034123
 30
0.0
 11
457.5726639218953
 21
195.7572484034125
 31
0.0
  0
LINE
  5
46F
330
1F
100
AcDbEntity
  8
5
  6
Continuous
 62
     3
370
     9
100
AcDbLine
 10
383.0226639218953
 20
113.8572484034123
 30
0.0
 11
457.5726639218953
 21
113.8572484034123
 31
0.0
  0
LINE
  5
470
330
1F
100
AcDbEntity
  8
5
  6
Continuous
 62
     3
370
     9
100
AcDbLine
 10
415.8636619970389
 20
99.62998411245422
 30
0.0
 11
427.8636619970389
 21
99.62998411245422
 31
0.0
  0
LINE
  5
471
330
1F
100
AcDbEntity
  8
5
  6
Continuous
 62
     3
370
     9
100
AcDbLine
 10
306.1403426365924
 20
138.0649784078298
 30
0.0
 11
294.1403426365925
 21
138.0649784078298
 31
0.0
  0
POINT
  5
472
330
1F
100
AcDbEntity
  8
26
  6
Continuous
 62
     7
370
     9
100
AcDbPoint
 10
337.2726639218953
 20
258.8348707032501
 30
0.0
  0
POINT
  5
473
330
1F
100
AcDbEntity
  8
26
  6
Continuous
 62
     7
370
     9
100
AcDbPoint
 10
423.1226639218952
 20
258.83487070325
 30
0.0
  0
POINT
  5
474
330
1F
100
AcDbEntity
  8
6
  6
Continuous
 62
     2
370
     9
100
AcDbPoint
 10
219.5447545197232
 20
253.8348707032498
 30
0.0
  0
LINE
  5
475
330
1F
100
AcDbEntity
  8
5
  6
Continuous
 62
     3
370
     9
100
AcDbLine
 10
408.2915447184939
 20
195.7572484034123
 30
0.0
 11
449.5726639218953
 21
195.7572484034123
 31
0.0
  0
POINT
  5
476
330
1F
100
AcDbEntity
  8
26
  6
Continuous
 62
     7
370
     9
100
AcDbPoint
 10
362.0226639218954
 20
254.8348707032499
 30
0.0
  0
POINT
  5
477
330
1F
100
AcDbEntity
  8
26
  6
Continuous
 62
     7
370
     9
100
AcDbPoint
 10
372.8226639218954
 20
258.8348707032499
 30
0.0
  0
POINT
  5
478
330
1F
100
AcDbEntity
  8
26
  6
Continuous
 62
     7
370
     9
100
AcDbPoint
 10
362.0226639218954
 20
258.8348707032499
 30
0.0
  0
POINT
  5
479
330
1F
100
AcDbEntity
  8
26
  6
Continuous
 62
     7
370
     9
100
AcDbPoint
 10
408.0554382218953
 20
258.9138419093627
 30
0.0
  0
POINT
  5
47A
330
1F
100
AcDbEntity
  8
26
  6
Continuous
 62
     7
370
     9
100
AcDbPoint
 10
404.0554382218953
 20
269.7138419093627
 30
0.0
  0
POINT
  5
47B
330
1F
100
AcDbEntity
  8
26
  6
Continuous
 62
     7
370
     9
100
AcDbPoint
 10
404.0554382218953
 20
258.9138419093627
 30
0.0
  0
LINE
  5
47C
330
1F
100
AcDbEntity
  8
5
  6
Continuous
 62
     3
370
     9
100
AcDbLine
 10
326.3016198795675
 20
128.8791258795961
 30
0.0
 11
334.6936497632052
 21
147.1741168114184
 31
0.0
  0
INSERT
  5
483
330
1F
100
AcDbEntity
  8
5
100
AcDbBlockReference
  2
*G12
 10
0.0
 20
0.0
 30
0.0
  0
LINE
  5
484
330
1F
100
AcDbEntity
  8
5
  6
Continuous
 62
     3
370
     9
100
AcDbLine
 10
413.0226639218953
 20
305.3679393498944
 30
0.0
 11
353.0226639218954
 21
305.3679393498944
 31
0.0
  0
INSERT
  5
48B
330
1F
100
AcDbEntity
  8
5
100
AcDbBlockReference
  2
*G13
 10
0.0
 20
0.0
 30
0.0
  0
INSERT
  5
492
330
1F
100
AcDbEntity
  8
5
100
AcDbBlockReference
  2
*G14
 10
0.0
 20
0.0
 30
0.0
  0
LINE
  5
493
330
1F
100
AcDbEntity
  8
5
  6
Continuous
 62
     3
370
     9
100
AcDbLine
 10
344.2087637576713
 20
299.83487070325
 30
0.0
 11
344.2087637576713
 21
286.83487070325
 31
0.0
  0
INSERT
  5
49A
330
1F
100
AcDbEntity
  8
5
100
AcDbBlockReference
  2
*G15
 10
0.0
 20
0.0
 30
0.0
  0
INSERT
  5
4A1
330
1F
100
AcDbEntity
  8
5
100
AcDbBlockReference
  2
*G16
 10
0.0
 20
0.0
 30
0.0
  0
LINE
  5
4A2
330
1F
100
AcDbEntity
  8
5
  6
Continuous
 62
     3
370
     9
100
AcDbLine
 10
312.5081235826304
 20
242.9848707032499
 30
0.0
 11
312.5081235826304
 21
258.8348707032499
 31
0.0
  0
INSERT
  5
4A9
330
1F
100
AcDbEntity
  8
5
100
AcDbBlockReference
  2
*G17
 10
0.0
 20
0.0
 30
0.0
  0
INSERT
  5
4B0
330
1F
100
AcDbEntity
  8
5
100
AcDbBlockReference
  2
*G18
 10
0.0
 20
0.0
 30
0.0
  0
LINE
  5
4B1
330
1F
100
AcDbEntity
  8
5
  6
Continuous
 62
     3
370
     9
100
AcDbLine
 10
312.5081235826304
 20
258.8348707032499
 30
0.0
 11
312.5081235826304
 21
299.83487070325
 31
0.0
  0
INSERT
  5
4B8
330
1F
100
AcDbEntity
  8
5
100
AcDbBlockReference
  2
*G19
 10
0.0
 20
0.0
 30
0.0
  0
INSERT
  5
4BF
330
1F
100
AcDbEntity
  8
5
100
AcDbBlockReference
  2
*G20
 10
0.0
 20
0.0
 30
0.0
  0
LINE
  5
4C0
330
1F
100
AcDbEntity
  8
5
  6
Continuous
 62
     3
370
     9
100
AcDbLine
 10
306.5081235826304
 20
299.83487070325
 30
0.0
 11
306.5081235826304
 21
242.9848707032499
 31
0.0
  0
INSERT
  5
4C7
330
1F
100
AcDbEntity
  8
5
100
AcDbBlockReference
  2
*G21
 10
0.0
 20
0.0
 30
0.0
  0
INSERT
  5
4CE
330
1F
100
AcDbEntity
  8
5
100
AcDbBlockReference
  2
*G22
 10
0.0
 20
0.0
 30
0.0
  0
LINE
  5
4CF
330
1F
100
AcDbEntity
  8
5
  6
Continuous
 62
     3
370
     9
100
AcDbLine
 10
440.8726639218953
 20
227.1077969921117
 30
0.0
 11
383.0226639218953
 21
227.1077969921117
 31
0.0
  0
INSERT
  5
4D6
330
1F
100
AcDbEntity
  8
5
100
AcDbBlockReference
  2
*G23
 10
0.0
 20
0.0
 30
0.0
  0
INSERT
  5
4DD
330
1F
100
AcDbEntity
  8
5
100
AcDbBlockReference
  2
*G24
 10
0.0
 20
0.0
 30
0.0
  0
LINE
  5
4DE
330
1F
100
AcDbEntity
  8
5
  6
Continuous
 62
     3
370
     9
100
AcDbLine
 10
440.8726639218953
 20
219.1077969921117
 30
0.0
 11
325.5226639218945
 21
219.1077969921117
 31
0.0
  0
INSERT
  5
4E5
330
1F
100
AcDbEntity
  8
5
100
AcDbBlockReference
  2
*G25
 10
0.0
 20
0.0
 30
0.0
  0
INSERT
  5
4EC
330
1F
100
AcDbEntity
  8
5
100
AcDbBlockReference
  2
*G26
 10
0.0
 20
0.0
 30
0.0
  0
LINE
  5
4ED
330
1F
100
AcDbEntity
  8
5
  6
Continuous
 62
     3
370
     9
100
AcDbLine
 10
434.8226639218953
 20
235.6077969921117
 30
0.0
 11
383.0226639218953
 21
235.6077969921117
 31
0.0
  0
INSERT
  5
4F4
330
1F
100
AcDbEntity
  8
5
100
AcDbBlockReference
  2
*G27
 10
0.0
 20
0.0
 30
0.0
  0
INSERT
  5
4FB
330
1F
100
AcDbEntity
  8
5
100
AcDbBlockReference
  2
*G28
 10
0.0
 20
0.0
 30
0.0
  0
LINE
  5
4FC
330
1F
100
AcDbEntity
  8
5
  6
Continuous
 62
     3
370
     9
100
AcDbLine
 10
383.0226639218953
 20
227.1077969921117
 30
0.0
 11
325.5226639218945
 21
227.1077969921117
 31
0.0
  0
INSERT
  5
503
330
1F
100
AcDbEntity
  8
5
100
AcDbBlockReference
  2
*G29
 10
0.0
 20
0.0
 30
0.0
  0
INSERT
  5
50A
330
1F
100
AcDbEntity
  8
5
100
AcDbBlockReference
  2
*G30
 10
0.0
 20
0.0
 30
0.0
  0
LINE
  5
50B
330
1F
100
AcDbEntity
  8
5
  6
Continuous
 62
     3
370
     9
100
AcDbLine
 10
470.0653111179191
 20
203.7572484034125
 30
0.0
 11
501.7653111179192
 21
203.7572484034125
 31
0.0
  0
INSERT
  5
512
330
1F
100
AcDbEntity
  8
5
100
AcDbBlockReference
  2
*G31
 10
0.0
 20
0.0
 30
0.0
  0
INSERT
  5
519
330
1F
100
AcDbEntity
  8
5
100
AcDbBlockReference
  2
*G32
 10
0.0
 20
0.0
 30
0.0
  0
LINE
  5
51A
330
1F
100
AcDbEntity
  8
5
  6
Continuous
 62
     3
370
     9
100
AcDbLine
 10
463.9153111179191
 20
151.4572484034124
 30
0.0
 11
463.9153111179191
 21
128.9572484034123
 31
0.0
  0
INSERT
  5
521
330
1F
100
AcDbEntity
  8
5
100
AcDbBlockReference
  2
*G33
 10
0.0
 20
0.0
 30
0.0
  0
INSERT
  5
528
330
1F
100
AcDbEntity
  8
5
100
AcDbBlockReference
  2
*G34
 10
0.0
 20
0.0
 30
0.0
  0
LINE
  5
529
330
1F
100
AcDbEntity
  8
5
  6
Continuous
 62
     3
370
     9
100
AcDbLine
 10
463.9153111179191
 20
128.9572484034123
 30
0.0
 11
463.9153111179191
 21
113.9572484034123
 31
0.0
  0
INSERT
  5
530
330
1F
100
AcDbEntity
  8
5
100
AcDbBlockReference
  2
*G35
 10
0.0
 20
0.0
 30
0.0
  0
INSERT
  5
537
330
1F
100
AcDbEntity
  8
5
100
AcDbBlockReference
  2
*G36
 10
0.0
 20
0.0
 30
0.0
  0
LINE
  5
538
330
1F
100
AcDbEntity
  8
5
  6
Continuous
 62
     3
370
     9
100
AcDbLine
 10
320.5085972136641
 20
272.3348707032499
 30
0.0
 11
320.5085972136641
 21
245.3348707032499
 31
0.0
  0
INSERT
  5
53F
330
1F
100
AcDbEntity
  8
5
100
AcDbBlockReference
  2
*G37
 10
0.0
 20
0.0
 30
0.0
  0
INSERT
  5
546
330
1F
100
AcDbEntity
  8
5
100
AcDbBlockReference
  2
*G38
 10
0.0
 20
0.0
 30
0.0
  0
LINE
  5
547
330
1F
100
AcDbEntity
  8
5
  6
Continuous
 62
     3
370
     9
100
AcDbLine
 10
535.4293778261502
 20
142.4572484034123
 30
0.0
 11
535.4293778261502
 21
115.4572484034123
 31
0.0
  0
INSERT
  5
54E
330
1F
100
AcDbEntity
  8
5
100
AcDbBlockReference
  2
*G39
 10
0.0
 20
0.0
 30
0.0
  0
INSERT
  5
555
330
1F
100
AcDbEntity
  8
5
100
AcDbBlockReference
  2
*G40
 10
0.0
 20
0.0
 30
0.0
  0
LINE
  5
556
330
1F
100
AcDbEntity
  8
5
  6
Continuous
 62
     3
370
     9
100
AcDbLine
 10
282.6704326390721
 20
151.4572484034123
 30
0.0
 11
282.6704326390721
 21
128.9572484034122
 31
0.0
  0
INSERT
  5
55D
330
1F
100
AcDbEntity
  8
5
100
AcDbBlockReference
  2
*G41
 10
0.0
 20
0.0
 30
0.0
  0
INSERT
  5
564
330
1F
100
AcDbEntity
  8
5
100
AcDbBlockReference
  2
*G42
 10
0.0
 20
0.0
 30
0.0
  0
LINE
  5
565
330
1F
100
AcDbEntity
  8
5
  6
Continuous
 62
     3
370
     9
100
AcDbLine
 10
282.6704326390721
 20
128.9572484034122
 30
0.0
 11
282.6704326390721
 21
113.9572484034123
 31
0.0
  0
INSERT
  5
56C
330
1F
100
AcDbEntity
  8
5
100
AcDbBlockReference
  2
*G43
 10
0.0
 20
0.0
 30
0.0
  0
INSERT
  5
573
330
1F
100
AcDbEntity
  8
5
100
AcDbBlockReference
  2
*G44
 10
0.0
 20
0.0
 30
0.0
  0
LINE
  5
574
330
1F
100
AcDbEntity
  8
5
  6
Continuous
 62
     3
370
     9
100
AcDbLine
 10
276.5204326390722
 20
203.7572484034123
 30
0.0
 11
244.8204326390721
 21
203.7572484034123
 31
0.0
  0
INSERT
  5
57B
330
1F
100
AcDbEntity
  8
5
100
AcDbBlockReference
  2
*G45
 10
0.0
 20
0.0
 30
0.0
  0
INSERT
  5
582
330
1F
100
AcDbEntity
  8
5
100
AcDbBlockReference
  2
*G46
 10
0.0
 20
0.0
 30
0.0
  0
LINE
  5
583
330
1F
100
AcDbEntity
  8
5
  6
Continuous
 62
     3
370
     9
100
AcDbLine
 10
318.7345468432293
 20
193.7572484034125
 30
0.0
 11
318.7345468432293
 21
151.4572484034123
 31
0.0
  0
INSERT
  5
58A
330
1F
100
AcDbEntity
  8
5
100
AcDbBlockReference
  2
*G47
 10
0.0
 20
0.0
 30
0.0
  0
INSERT
  5
591
330
1F
100
AcDbEntity
  8
5
100
AcDbBlockReference
  2
*G48
 10
0.0
 20
0.0
 30
0.0
  0
LINE
  5
592
330
1F
100
AcDbEntity
  8
5
  6
Continuous
 62
     3
370
     9
100
AcDbLine
 10
318.7345468432293
 20
151.4572484034123
 30
0.0
 11
318.7345468432293
 21
113.8572484034123
 31
0.0
  0
INSERT
  5
599
330
1F
100
AcDbEntity
  8
5
100
AcDbBlockReference
  2
*G49
 10
0.0
 20
0.0
 30
0.0
  0
INSERT
  5
5A0
330
1F
100
AcDbEntity
  8
5
100
AcDbBlockReference
  2
*G50
 10
0.0
 20
0.0
 30
0.0
  0
LINE
  5
5A1
330
1F
100
AcDbEntity
  8
5
  6
Continuous
 62
     3
370
     9
100
AcDbLine
 10
310.7345468432293
 20
193.7572484034125
 30
0.0
 11
310.7345468432293
 21
113.8572484034123
 31
0.0
  0
INSERT
  5
5A8
330
1F
100
AcDbEntity
  8
5
100
AcDbBlockReference
  2
*G51
 10
0.0
 20
0.0
 30
0.0
  0
INSERT
  5
5AF
330
1F
100
AcDbEntity
  8
5
100
AcDbBlockReference
  2
*G52
 10
0.0
 20
0.0
 30
0.0
  0
LINE
  5
5B0
330
1F
100
AcDbEntity
  8
5
  6
Continuous
 62
     3
370
     9
100
AcDbLine
 10
404.0226639218952
 20
203.5659490399307
 30
0.0
 11
362.0226639218952
 21
203.5659490399307
 31
0.0
  0
INSERT
  5
5B7
330
1F
100
AcDbEntity
  8
5
100
AcDbBlockReference
  2
*G53
 10
0.0
 20
0.0
 30
0.0
  0
INSERT
  5
5BE
330
1F
100
AcDbEntity
  8
5
100
AcDbBlockReference
  2
*G54
 10
0.0
 20
0.0
 30
0.0
  0
LINE
  5
5BF
330
1F
100
AcDbEntity
  8
5
  6
Continuous
 62
     3
370
     9
100
AcDbLine
 10
456.5726639218953
 20
195.7572484034125
 30
0.0
 11
456.5726639218953
 21
113.8572484034123
 31
0.0
  0
INSERT
  5
5C6
330
1F
100
AcDbEntity
  8
5
100
AcDbBlockReference
  2
*G55
 10
0.0
 20
0.0
 30
0.0
  0
INSERT
  5
5CD
330
1F
100
AcDbEntity
  8
5
100
AcDbBlockReference
  2
*G56
 10
0.0
 20
0.0
 30
0.0
  0
LINE
  5
5CE
330
1F
100
AcDbEntity
  8
5
  6
Continuous
 62
     3
370
     9
100
AcDbLine
 10
448.5726639218953
 20
151.4572484034123
 30
0.0
 11
448.5726639218953
 21
195.7572484034123
 31
0.0
  0
INSERT
  5
5D5
330
1F
100
AcDbEntity
  8
5
100
AcDbBlockReference
  2
*G57
 10
0.0
 20
0.0
 30
0.0
  0
INSERT
  5
5DC
330
1F
100
AcDbEntity
  8
5
100
AcDbBlockReference
  2
*G58
 10
0.0
 20
0.0
 30
0.0
  0
LINE
  5
5DD
330
1F
100
AcDbEntity
  8
5
  6
Continuous
 62
     3
370
     9
100
AcDbLine
 10
404.0226639218952
 20
120.9572484034123
 30
0.0
 11
415.8636619970389
 21
99.62998411245422
 31
0.0
  0
INSERT
  5
5E4
330
1F
100
AcDbEntity
  8
5
100
AcDbBlockReference
  2
*G59
 10
0.0
 20
0.0
 30
0.0
  0
LINE
  5
5E5
330
1F
100
AcDbEntity
  8
5
  6
Continuous
 62
     3
370
     9
100
AcDbLine
 10
325.5226639218953
 20
151.4572484034123
 30
0.0
 11
306.1403426365924
 21
138.0649784078298
 31
0.0
  0
INSERT
  5
5EC
330
1F
100
AcDbEntity
  8
5
100
AcDbBlockReference
  2
*G60
 10
0.0
 20
0.0
 30
0.0
  0
TEXT
  5
5ED
330
1F
100
AcDbEntity
  8
5
  6
Continuous
 62
     3
370
     9
100
AcDbText
 10
318.1850483997351
 20
177.5829905941429
 30
0.0
 40
4.0
  1
（開）
 50
89.99999999999991
 41
0.5468750000000013
100
AcDbText
  0
TEXT
  5
5EE
330
1F
100
AcDbEntity
  8
5
  6
Continuous
 62
     3
370
     9
100
AcDbText
 10
447.5143076669843
 20
178.4304312543896
 30
0.0
 40
4.0
  1
（閉）
 50
89.99999999999991
 41
0.5468749999999997
100
AcDbText
  0
TEXT
  5
5EF
330
1F
100
AcDbEntity
  8
26
  6
Continuous
 62
     7
370
     9
100
AcDbText
 10
335.7726639218953
 20
260.03487070325
 30
0.0
 40
3.0
  1
開
 50
-89.99999999999991
 41
0.5468749999999948
100
AcDbText
  0
TEXT
  5
5F0
330
1F
100
AcDbEntity
  8
26
  6
Continuous
 62
     7
370
     9
100
AcDbText
 10
424.6226639218953
 20
257.6348707032499
 30
0.0
 40
3.0
  1
開
 50
89.99999999999991
 41
0.5468750000000079
100
AcDbText
  0
TEXT
  5
5F1
330
1F
100
AcDbEntity
  8
6
  6
Continuous
 62
     2
370
     9
100
AcDbText
 10
216.0199857735508
 20
226.8898469744228
 30
0.0
 40
3.0
  1
ＬＰＧ
 41
0.5468749999999991
100
AcDbText
  0
TEXT
  5
5F2
330
1F
100
AcDbEntity
  8
6
  6
Continuous
 62
     2
370
     9
100
AcDbText
 10
218.4197545197232
 20
222.2098707032499
 30
0.0
 40
2.25
  1
Ｆ
 41
0.68359375
100
AcDbText
  0
TEXT
  5
5F3
330
1F
100
AcDbEntity
  8
6
  6
Continuous
 62
     2
370
     9
100
AcDbText
 10
259.1447545197232
 20
253.3348707032498
 30
0.0
 40
6.0
  1
コ
 41
0.5468750000000013
100
AcDbText
  0
TEXT
  5
5F4
330
1F
100
AcDbEntity
  8
26
  6
Continuous
 62
     7
370
     9
100
AcDbText
 10
370.9858040272729
 20
261.0551338272169
 30
0.0
 40
4.166666984558105
  1
押
 50
179.9999999999998
 41
0.8571428571428633
100
AcDbText
  0
TEXT
  5
5F5
330
1F
100
AcDbEntity
  8
26
  6
Continuous
 62
     7
370
     9
100
AcDbText
 10
401.8351750979283
 20
267.8769820147403
 30
0.0
 40
4.166666984558105
  1
押
 50
-89.99999999999991
 41
0.8571428571428633
100
AcDbText
  0
TEXT
  5
5F6
330
1F
100
AcDbEntity
  8
6
  6
Continuous
 62
     2
370
     9
100
AcDbText
 10
268.4447545197234
 20
248.8348707032497
 30
0.0
 40
4.0
  1
フ
 41
0.5468749999999885
100
AcDbText
  0
TEXT
  5
5F7
330
1F
100
AcDbEntity
  8
6
  6
Continuous
 62
     2
370
     9
100
AcDbText
 10
272.4447545197232
 20
248.8348707032497
 30
0.0
 40
4.0
  1
レ
 41
0.5468749999999885
100
AcDbText
  0
TEXT
  5
5F8
330
1F
100
AcDbEntity
  8
6
  6
Continuous
 62
     2
370
     9
100
AcDbText
 10
276.4447545197232
 20
248.8348707032497
 30
0.0
 40
4.0
  1
キ
 41
0.5468749999999885
100
AcDbText
  0
CIRCLE
  5
5F9
330
1F
100
AcDbEntity
  8
26
  6
Continuous
 62
     7
370
     9
100
AcDbCircle
 10
240.5447545197232
 20
228.3348707032499
 30
0.0
 40
9.260640702822457
  0
LINE
  5
5FA
330
1F
100
AcDbEntity
  8
26
  6
Continuous
 62
     7
370
     9
100
AcDbLine
 10
297.0176159487372
 20
235.8743535445043
 30
0.0
 11
274.0376096012053
 21
235.8743535445043
 31
0.0
  0
LINE
  5
5FB
330
1F
100
AcDbEntity
  8
26
  6
Continuous
 62
     7
370
     9
100
AcDbLine
 10
297.0176159487372
 20
265.7953878619952
 30
0.0
 11
283.0052716784685
 21
265.7953878619951
 31
0.0
  0
CIRCLE
  5
5FC
330
1F
100
AcDbEntity
  8
26
  6
Continuous
 62
     7
370
     9
100
AcDbCircle
 10
260.6704326390722
 20
151.4572484034123
 30
0.0
 40
9.260640702822457
  0
LINE
  5
5FD
330
1F
100
AcDbEntity
  8
26
  6
Continuous
 62
     7
370
     9
100
AcDbLine
 10
326.5498024928812
 20
166.4177655621577
 30
0.0
 11
340.5621467631499
 21
166.4177655621577
 31
0.0
  0
LINE
  5
5FE
330
1F
100
AcDbEntity
  8
26
  6
Continuous
 62
     7
370
     9
100
AcDbLine
 10
326.5498024928812
 20
136.4967312446669
 30
0.0
 11
349.5298088404131
 21
136.4967312446669
 31
0.0
  0
ARC
  5
5FF
330
1F
100
AcDbEntity
  8
26
  6
Continuous
 62
     7
370
     9
100
AcDbCircle
 10
487.9153111179191
 20
124.9572484034124
 30
0.0
 40
6.5
100
AcDbArc
 50
202.6198649480401
 51
252.0797868606063
  0
ARC
  5
600
330
1F
100
AcDbEntity
  8
26
  6
Continuous
 62
     7
370
     9
100
AcDbCircle
 10
487.9153111179191
 20
124.9572484034124
 30
0.0
 40
7.0
100
AcDbArc
 50
184.9553428281139
 51
253.3984504009794
  0
LINE
  5
601
330
1F
100
AcDbEntity
  8
26
  6
Continuous
 62
     7
370
     9
100
AcDbLine
 10
257.5447545197233
 20
265.2348707032497
 30
0.0
 11
265.5447545197232
 21
265.2348707032497
 31
0.0
  0
LINE
  5
602
330
1F
100
AcDbEntity
  8
26
  6
Continuous
 62
     7
370
     9
100
AcDbLine
 10
265.5447545197232
 20
265.2348707032497
 30
0.0
 11
265.5447545197232
 21
262.8348707032497
 31
0.0
  0
LINE
  5
603
330
1F
100
AcDbEntity
  8
26
  6
Continuous
 62
     7
370
     9
100
AcDbLine
 10
257.5447545197233
 20
265.2348707032497
 30
0.0
 11
257.5447545197233
 21
262.8348707032497
 31
0.0
  0
LINE
  5
604
330
1F
100
AcDbEntity
  8
26
  6
Continuous
 62
     7
370
     9
100
AcDbLine
 10
257.5447545197233
 20
262.8348707032497
 30
0.0
 11
265.5447545197232
 21
262.8348707032497
 31
0.0
  0
LINE
  5
605
330
1F
100
AcDbEntity
  8
26
  6
Continuous
 62
     7
370
     9
100
AcDbLine
 10
258.5447545197232
 20
262.3348707032497
 30
0.0
 11
258.5447545197232
 21
260.1348707032497
 31
0.0
  0
ARC
  5
606
330
1F
100
AcDbEntity
  8
26
  6
Continuous
 62
     7
370
     9
100
AcDbCircle
 10
259.0447545197231
 20
260.1348707032497
 30
0.0
 40
0.5
100
AcDbArc
 50
179.9999999999998
 51
269.9999999999998
  0
ARC
  5
607
330
1F
100
AcDbEntity
  8
26
  6
Continuous
 62
     7
370
     9
100
AcDbCircle
 10
259.0447545197231
 20
262.3348707032497
 30
0.0
 40
0.5
100
AcDbArc
 50
89.99999999999991
 51
179.9999999999998
  0
LINE
  5
608
330
1F
100
AcDbEntity
  8
26
  6
Continuous
 62
     7
370
     9
100
AcDbLine
 10
260.2947545197233
 20
259.8348707032497
 30
0.0
 11
260.2947545197233
 21
259.2348707032499
 31
0.0
  0
LINE
  5
609
330
1F
100
AcDbEntity
  8
26
  6
Continuous
 62
     7
370
     9
100
AcDbLine
 10
259.0447545197231
 20
259.6348707032497
 30
0.0
 11
260.0447545197233
 21
259.6348707032497
 31
0.0
  0
ARC
  5
60A
330
1F
100
AcDbEntity
  8
26
  6
Continuous
 62
     7
370
     9
100
AcDbCircle
 10
264.0447545197231
 20
260.1348707032497
 30
0.0
 40
0.5
100
AcDbArc
 50
269.9999999999998
 51
0.0
  0
LINE
  5
60B
330
1F
100
AcDbEntity
  8
26
  6
Continuous
 62
     7
370
     9
100
AcDbLine
 10
264.5447545197232
 20
260.1348707032497
 30
0.0
 11
264.5447545197232
 21
262.3348707032497
 31
0.0
  0
LINE
  5
60C
330
1F
100
AcDbEntity
  8
26
  6
Continuous
 62
     7
370
     9
100
AcDbLine
 10
262.7947545197232
 20
259.8348707032497
 30
0.0
 11
262.7947545197232
 21
259.2348707032499
 31
0.0
  0
LINE
  5
60D
330
1F
100
AcDbEntity
  8
26
  6
Continuous
 62
     7
370
     9
100
AcDbLine
 10
263.0447545197232
 20
259.6348707032497
 30
0.0
 11
264.0447545197231
 21
259.6348707032497
 31
0.0
  0
ARC
  5
60E
330
1F
100
AcDbEntity
  8
26
  6
Continuous
 62
     7
370
     9
100
AcDbCircle
 10
264.0447545197231
 20
262.3348707032497
 30
0.0
 40
0.5
100
AcDbArc
 50
0.0
 51
89.99999999999991
  0
LINE
  5
60F
330
1F
100
AcDbEntity
  8
26
  6
Continuous
 62
     7
370
     9
100
AcDbLine
 10
239.820432639072
 20
160.4184248740007
 30
0.0
 11
239.820432639072
 21
159.8572484034126
 31
0.0
  0
LINE
  5
610
330
1F
100
AcDbEntity
  8
26
  6
Continuous
 62
     7
370
     9
100
AcDbLine
 10
242.320432639072
 20
160.3596013445889
 30
0.0
 11
242.320432639072
 21
159.8572484034126
 31
0.0
  0
LINE
  5
611
330
1F
100
AcDbEntity
  8
26
  6
Continuous
 62
     7
370
     9
100
AcDbLine
 10
504.265311117919
 20
160.359601344589
 30
0.0
 11
504.265311117919
 21
159.8572484034127
 31
0.0
  0
LINE
  5
612
330
1F
100
AcDbEntity
  8
26
  6
Continuous
 62
     7
370
     9
100
AcDbLine
 10
506.7653111179191
 20
160.4184248740008
 30
0.0
 11
506.7653111179191
 21
159.8572484034127
 31
0.0
  0
LINE
  5
613
330
1F
100
AcDbEntity
  8
26
  6
Continuous
 62
     7
370
     9
100
AcDbLine
 10
336.4226639218953
 20
154.166881915243
 30
0.0
 11
336.4226639218951
 21
148.766881915243
 31
0.0
  0
LINE
  5
614
330
1F
100
AcDbEntity
  8
26
  6
Continuous
 62
     7
370
     9
100
AcDbLine
 10
338.9226639218953
 20
154.166881915243
 30
0.0
 11
336.4226639218953
 21
154.166881915243
 31
0.0
  0
LINE
  5
615
330
1F
100
AcDbEntity
  8
26
  6
Continuous
 62
     7
370
     9
100
AcDbLine
 10
338.9226639218953
 20
154.166881915243
 30
0.0
 11
338.9226639218951
 21
148.766881915243
 31
0.0
  0
LINE
  5
616
330
1F
100
AcDbEntity
  8
26
  6
Continuous
 62
     7
370
     9
100
AcDbLine
 10
338.9226639218951
 20
148.766881915243
 30
0.0
 11
336.4226639218951
 21
148.766881915243
 31
0.0
  0
LINE
  5
617
330
1F
100
AcDbEntity
  8
26
  6
Continuous
 62
     7
370
     9
100
AcDbLine
 10
335.9226639218953
 20
155.466881915243
 30
0.0
 11
333.4226639218953
 21
155.466881915243
 31
0.0
  0
LINE
  5
618
330
1F
100
AcDbEntity
  8
26
  6
Continuous
 62
     7
370
     9
100
AcDbLine
 10
335.9226639218953
 20
155.466881915243
 30
0.0
 11
335.9226639218952
 21
147.466881915243
 31
0.0
  0
LINE
  5
619
330
1F
100
AcDbEntity
  8
26
  6
Continuous
 62
     7
370
     9
100
AcDbLine
 10
335.9226639218952
 20
147.466881915243
 30
0.0
 11
333.4226639218952
 21
147.466881915243
 31
0.0
  0
LINE
  5
61A
330
1F
100
AcDbEntity
  8
26
  6
Continuous
 62
     7
370
     9
100
AcDbLine
 10
333.4226639218953
 20
155.466881915243
 30
0.0
 11
333.4226639218952
 21
147.466881915243
 31
0.0
  0
LINE
  5
61B
330
1F
100
AcDbEntity
  8
26
  6
Continuous
 62
     7
370
     9
100
AcDbLine
 10
335.0226639218953
 20
255.3348707032501
 30
0.0
 11
335.0226639218953
 21
262.3348707032501
 31
0.0
  0
LINE
  5
61C
330
1F
100
AcDbEntity
  8
26
  6
Continuous
 62
     7
370
     9
100
AcDbLine
 10
339.5226639218953
 20
259.8348707032501
 30
0.0
 11
339.0226639218953
 21
259.8348707032501
 31
0.0
  0
LINE
  5
61D
330
1F
100
AcDbEntity
  8
26
  6
Continuous
 62
     7
370
     9
100
AcDbLine
 10
339.0226639218953
 20
257.8348707032501
 30
0.0
 11
339.0226639218953
 21
259.8348707032501
 31
0.0
  0
LINE
  5
61E
330
1F
100
AcDbEntity
  8
26
  6
Continuous
 62
     7
370
     9
100
AcDbLine
 10
339.5226639218953
 20
257.8348707032501
 30
0.0
 11
339.0226639218953
 21
257.8348707032501
 31
0.0
  0
LINE
  5
61F
330
1F
100
AcDbEntity
  8
26
  6
Continuous
 62
     7
370
     9
100
AcDbLine
 10
339.5226639218953
 20
255.3348707032501
 30
0.0
 11
335.0226639218953
 21
255.3348707032501
 31
0.0
  0
LINE
  5
620
330
1F
100
AcDbEntity
  8
26
  6
Continuous
 62
     7
370
     9
100
AcDbLine
 10
339.5226639218953
 20
262.3348707032501
 30
0.0
 11
335.0226639218953
 21
262.3348707032501
 31
0.0
  0
LINE
  5
621
330
1F
100
AcDbEntity
  8
26
  6
Continuous
 62
     7
370
     9
100
AcDbLine
 10
339.5226639218953
 20
262.3348707032501
 30
0.0
 11
339.5226639218953
 21
255.3348707032501
 31
0.0
  0
LINE
  5
622
330
1F
100
AcDbEntity
  8
26
  6
Continuous
 62
     7
370
     9
100
AcDbLine
 10
420.8726639218952
 20
262.33487070325
 30
0.0
 11
420.8726639218952
 21
255.33487070325
 31
0.0
  0
LINE
  5
623
330
1F
100
AcDbEntity
  8
26
  6
Continuous
 62
     7
370
     9
100
AcDbLine
 10
420.8726639218952
 20
255.33487070325
 30
0.0
 11
425.3726639218952
 21
255.33487070325
 31
0.0
  0
LINE
  5
624
330
1F
100
AcDbEntity
  8
26
  6
Continuous
 62
     7
370
     9
100
AcDbLine
 10
425.3726639218952
 20
255.33487070325
 30
0.0
 11
425.3726639218952
 21
262.33487070325
 31
0.0
  0
LINE
  5
625
330
1F
100
AcDbEntity
  8
26
  6
Continuous
 62
     7
370
     9
100
AcDbLine
 10
420.8726639218952
 20
262.33487070325
 30
0.0
 11
425.3726639218952
 21
262.33487070325
 31
0.0
  0
LINE
  5
626
330
1F
100
AcDbEntity
  8
26
  6
Continuous
 62
     7
370
     9
100
AcDbLine
 10
420.8726639218952
 20
257.83487070325
 30
0.0
 11
421.3726639218952
 21
257.83487070325
 31
0.0
  0
LINE
  5
627
330
1F
100
AcDbEntity
  8
26
  6
Continuous
 62
     7
370
     9
100
AcDbLine
 10
420.8726639218952
 20
259.83487070325
 30
0.0
 11
421.3726639218952
 21
259.83487070325
 31
0.0
  0
LINE
  5
628
330
1F
100
AcDbEntity
  8
26
  6
Continuous
 62
     7
370
     9
100
AcDbLine
 10
421.3726639218952
 20
257.83487070325
 30
0.0
 11
421.3726639218952
 21
259.83487070325
 31
0.0
  0
LINE
  5
629
330
1F
100
AcDbEntity
  8
26
  6
Continuous
 62
     7
370
     9
100
AcDbLine
 10
364.5608336273489
 20
257.0978328032499
 30
0.0
 11
365.4270180082888
 21
260.5719086032499
 31
0.0
  0
LINE
  5
62A
330
1F
100
AcDbEntity
  8
26
  6
Continuous
 62
     7
370
     9
100
AcDbLine
 10
361.9629697938866
 20
257.0978328032499
 30
0.0
 11
364.8780655163485
 21
260.5719086032499
 31
0.0
  0
LINE
  5
62B
330
1F
100
AcDbEntity
  8
26
  6
Continuous
 62
     7
370
     9
100
AcDbLine
 10
364.1386131239439
 20
257.0978328032499
 30
0.0
 11
364.3900802702334
 21
258.1064124389984
 31
0.0
  0
LINE
  5
62C
330
1F
100
AcDbEntity
  8
26
  6
Continuous
 62
     7
370
     9
100
AcDbLine
 10
363.2097401659406
 20
259.2059654040295
 30
0.0
 11
362.7659183165786
 21
260.5719086032499
 31
0.0
  0
LINE
  5
62D
330
1F
100
AcDbEntity
  8
26
  6
Continuous
 62
     7
370
     9
100
AcDbLine
 10
364.8780655163485
 20
260.5719086032499
 30
0.0
 11
365.4270180082888
 21
260.5719086032499
 31
0.0
  0
LINE
  5
62E
330
1F
100
AcDbEntity
  8
26
  6
Continuous
 62
     7
370
     9
100
AcDbLine
 10
364.3559026006155
 20
260.5719086032499
 30
0.0
 11
362.7659183165786
 21
260.5719086032499
 31
0.0
  0
LINE
  5
62F
330
1F
100
AcDbEntity
  8
26
  6
Continuous
 62
     7
370
     9
100
AcDbLine
 10
364.5608336273489
 20
257.0978328032499
 30
0.0
 11
364.1386131239439
 21
257.0978328032499
 31
0.0
  0
LINE
  5
630
330
1F
100
AcDbEntity
  8
26
  6
Continuous
 62
     7
370
     9
100
AcDbLine
 10
363.5437814698639
 20
257.0978328032499
 30
0.0
 11
361.9629697938866
 21
257.0978328032499
 31
0.0
  0
LINE
  5
631
330
1F
100
AcDbEntity
  8
26
  6
Continuous
 62
     7
370
     9
100
AcDbLine
 10
363.5437814698639
 20
257.0978328032499
 30
0.0
 11
364.3900802702334
 21
258.1064124389984
 31
0.0
  0
LINE
  5
632
330
1F
100
AcDbEntity
  8
26
  6
Continuous
 62
     7
370
     9
100
AcDbLine
 10
363.2097401659407
 20
259.2059654040296
 30
0.0
 11
364.3559026006155
 21
260.5719086032498
 31
0.0
  0
LINE
  5
633
330
1F
100
AcDbEntity
  8
26
  6
Continuous
 62
     7
370
     9
100
AcDbLine
 10
365.7422333128243
 20
260.5719086032499
 30
0.0
 11
364.8760489318845
 21
257.0978328032499
 31
0.0
  0
LINE
  5
634
330
1F
100
AcDbEntity
  8
26
  6
Continuous
 62
     7
370
     9
100
AcDbLine
 10
366.0574486173599
 20
260.5719086032499
 30
0.0
 11
365.19126423642
 21
257.0978328032499
 31
0.0
  0
LINE
  5
635
330
1F
100
AcDbEntity
  8
26
  6
Continuous
 62
     7
370
     9
100
AcDbLine
 10
366.3726639218954
 20
260.5719086032499
 30
0.0
 11
365.5064795409556
 21
257.0978328032499
 31
0.0
  0
LINE
  5
636
330
1F
100
AcDbEntity
  8
26
  6
Continuous
 62
     7
370
     9
100
AcDbLine
 10
405.7924761218953
 20
261.4520116148163
 30
0.0
 11
402.3184003218952
 21
262.3181959957561
 31
0.0
  0
LINE
  5
637
330
1F
100
AcDbEntity
  8
26
  6
Continuous
 62
     7
370
     9
100
AcDbLine
 10
405.7924761218953
 20
258.854147781354
 30
0.0
 11
402.3184003218952
 21
261.7692435038159
 31
0.0
  0
LINE
  5
638
330
1F
100
AcDbEntity
  8
26
  6
Continuous
 62
     7
370
     9
100
AcDbLine
 10
405.7924761218953
 20
261.0297911114113
 30
0.0
 11
404.7838964861467
 21
261.2812582577007
 31
0.0
  0
LINE
  5
639
330
1F
100
AcDbEntity
  8
26
  6
Continuous
 62
     7
370
     9
100
AcDbLine
 10
403.6843435211157
 20
260.100918153408
 30
0.0
 11
402.3184003218952
 21
259.6570963040459
 31
0.0
  0
LINE
  5
63A
330
1F
100
AcDbEntity
  8
26
  6
Continuous
 62
     7
370
     9
100
AcDbLine
 10
402.3184003218952
 20
261.7692435038159
 30
0.0
 11
402.3184003218952
 21
262.3181959957561
 31
0.0
  0
LINE
  5
63B
330
1F
100
AcDbEntity
  8
26
  6
Continuous
 62
     7
370
     9
100
AcDbLine
 10
402.3184003218952
 20
261.2470805880829
 30
0.0
 11
402.3184003218952
 21
259.6570963040459
 31
0.0
  0
LINE
  5
63C
330
1F
100
AcDbEntity
  8
26
  6
Continuous
 62
     7
370
     9
100
AcDbLine
 10
405.7924761218953
 20
261.4520116148163
 30
0.0
 11
405.7924761218953
 21
261.0297911114113
 31
0.0
  0
LINE
  5
63D
330
1F
100
AcDbEntity
  8
26
  6
Continuous
 62
     7
370
     9
100
AcDbLine
 10
405.7924761218953
 20
260.4349594573313
 30
0.0
 11
405.7924761218953
 21
258.854147781354
 31
0.0
  0
LINE
  5
63E
330
1F
100
AcDbEntity
  8
26
  6
Continuous
 62
     7
370
     9
100
AcDbLine
 10
405.7924761218952
 20
260.4349594573313
 30
0.0
 11
404.7838964861467
 21
261.2812582577007
 31
0.0
  0
LINE
  5
63F
330
1F
100
AcDbEntity
  8
26
  6
Continuous
 62
     7
370
     9
100
AcDbLine
 10
403.6843435211156
 20
260.1009181534081
 30
0.0
 11
402.3184003218954
 21
261.2470805880829
 31
0.0
  0
LINE
  5
640
330
1F
100
AcDbEntity
  8
26
  6
Continuous
 62
     7
370
     9
100
AcDbLine
 10
402.3184003218952
 20
262.6334113002916
 30
0.0
 11
405.7924761218953
 21
261.7672269193519
 31
0.0
  0
LINE
  5
641
330
1F
100
AcDbEntity
  8
26
  6
Continuous
 62
     7
370
     9
100
AcDbLine
 10
402.3184003218952
 20
262.9486266048272
 30
0.0
 11
405.7924761218953
 21
262.0824422238874
 31
0.0
  0
LINE
  5
642
330
1F
100
AcDbEntity
  8
26
  6
Continuous
 62
     7
370
     9
100
AcDbLine
 10
402.3184003218952
 20
263.2638419093628
 30
0.0
 11
405.7924761218953
 21
262.3976575284229
 31
0.0
  0
LINE
  5
643
330
1F
100
AcDbEntity
  8
26
  6
Continuous
 62
     7
370
     9
100
AcDbLine
 10
361.9891168544426
 20
257.1289936566032
 30
0.0
 11
365.4295249046888
 21
260.5694017068498
 31
0.0
  0
LINE
  5
644
330
1F
100
AcDbEntity
  8
26
  6
Continuous
 62
     7
370
     9
100
AcDbLine
 10
362.2407987135623
 20
257.0978328032499
 30
0.0
 11
365.3314094231316
 21
260.1884435128192
 31
0.0
  0
LINE
  5
645
330
1F
100
AcDbEntity
  8
26
  6
Continuous
 62
     7
370
     9
100
AcDbLine
 10
362.5236414260369
 20
257.0978328032499
 30
0.0
 11
365.237466117817
 21
259.8116574950299
 31
0.0
  0
LINE
  5
646
330
1F
100
AcDbEntity
  8
26
  6
Continuous
 62
     7
370
     9
100
AcDbLine
 10
362.8064841385115
 20
257.0978328032499
 30
0.0
 11
365.1435228125023
 21
259.4348714772407
 31
0.0
  0
LINE
  5
647
330
1F
100
AcDbEntity
  8
26
  6
Continuous
 62
     7
370
     9
100
AcDbLine
 10
363.0893268509861
 20
257.0978328032499
 30
0.0
 11
365.0495795071877
 21
259.0580854594514
 31
0.0
  0
LINE
  5
648
330
1F
100
AcDbEntity
  8
26
  6
Continuous
 62
     7
370
     9
100
AcDbLine
 10
363.3721695634608
 20
257.0978328032499
 30
0.0
 11
364.9556362018731
 21
258.6812994416622
 31
0.0
  0
LINE
  5
649
330
1F
100
AcDbEntity
  8
26
  6
Continuous
 62
     7
370
     9
100
AcDbLine
 10
364.2992361844335
 20
257.7420567117481
 30
0.0
 11
364.8616928965584
 21
258.3045134238729
 31
0.0
  0
LINE
  5
64A
330
1F
100
AcDbEntity
  8
26
  6
Continuous
 62
     7
370
     9
100
AcDbLine
 10
364.2052928791189
 20
257.3652706939588
 30
0.0
 11
364.7677495912438
 21
257.9277274060836
 31
0.0
  0
LINE
  5
64B
330
1F
100
AcDbEntity
  8
26
  6
Continuous
 62
     7
370
     9
100
AcDbLine
 10
364.2206977008847
 20
257.0978328032499
 30
0.0
 11
364.6738062859292
 21
257.5509413882944
 31
0.0
  0
LINE
  5
64C
330
1F
100
AcDbEntity
  8
26
  6
Continuous
 62
     7
370
     9
100
AcDbLine
 10
364.5035404133593
 20
257.0978328032499
 30
0.0
 11
364.5798629806145
 21
257.1741553705052
 31
0.0
  0
LINE
  5
64D
330
1F
100
AcDbEntity
  8
26
  6
Continuous
 62
     7
370
     9
100
AcDbLine
 10
363.464148996732
 20
258.8868685113685
 30
0.0
 11
365.1491890886133
 21
260.5719086032499
 31
0.0
  0
LINE
  5
64E
330
1F
100
AcDbEntity
  8
26
  6
Continuous
 62
     7
370
     9
100
AcDbLine
 10
363.1283701174979
 20
259.4563966625408
 30
0.0
 11
364.2438820582071
 21
260.5719086032499
 31
0.0
  0
LINE
  5
64F
330
1F
100
AcDbEntity
  8
26
  6
Continuous
 62
     7
370
     9
100
AcDbLine
 10
363.1977336936304
 20
259.2429175261984
 30
0.0
 11
363.4650605164842
 21
259.5102443490522
 31
0.0
  0
LINE
  5
650
330
1F
100
AcDbEntity
  8
26
  6
Continuous
 62
     7
370
     9
100
AcDbLine
 10
363.0590065413656
 20
259.6698757988826
 30
0.0
 11
363.961039345733
 21
260.5719086032499
 31
0.0
  0
LINE
  5
651
330
1F
100
AcDbEntity
  8
26
  6
Continuous
 62
     7
370
     9
100
AcDbLine
 10
362.9896429652332
 20
259.883354935225
 30
0.0
 11
363.6781966332581
 21
260.5719086032499
 31
0.0
  0
LINE
  5
652
330
1F
100
AcDbEntity
  8
26
  6
Continuous
 62
     7
370
     9
100
AcDbLine
 10
362.9202793891008
 20
260.0968340715673
 30
0.0
 11
363.3953539207833
 21
260.5719086032499
 31
0.0
  0
LINE
  5
653
330
1F
100
AcDbEntity
  8
26
  6
Continuous
 62
     7
370
     9
100
AcDbLine
 10
362.8509158129684
 20
260.3103132079095
 30
0.0
 11
363.1125112083088
 21
260.5719086032499
 31
0.0
  0
LINE
  5
654
330
1F
100
AcDbEntity
  8
26
  6
Continuous
 62
     7
370
     9
100
AcDbLine
 10
362.7815522368361
 20
260.5237923442518
 30
0.0
 11
362.8296684958341
 21
260.5719086032499
 31
0.0
  0
LINE
  5
655
330
1F
100
AcDbEntity
  8
26
  6
Continuous
 62
     7
370
     9
100
AcDbLine
 10
405.7613152685418
 20
258.88029484191
 30
0.0
 11
402.3209072182953
 21
262.3207028921562
 31
0.0
  0
LINE
  5
656
330
1F
100
AcDbEntity
  8
26
  6
Continuous
 62
     7
370
     9
100
AcDbLine
 10
405.7924761218953
 20
259.1319767010296
 30
0.0
 11
402.701865412326
 21
262.222587410599
 31
0.0
  0
LINE
  5
657
330
1F
100
AcDbEntity
  8
26
  6
Continuous
 62
     7
370
     9
100
AcDbLine
 10
405.7924761218953
 20
259.4148194135042
 30
0.0
 11
403.0786514301152
 21
262.1286441052844
 31
0.0
  0
LINE
  5
658
330
1F
100
AcDbEntity
  8
26
  6
Continuous
 62
     7
370
     9
100
AcDbLine
 10
405.7924761218953
 20
259.6976621259789
 30
0.0
 11
403.4554374479045
 21
262.0347007999697
 31
0.0
  0
LINE
  5
659
330
1F
100
AcDbEntity
  8
26
  6
Continuous
 62
     7
370
     9
100
AcDbLine
 10
405.7924761218953
 20
259.9805048384535
 30
0.0
 11
403.8322234656937
 21
261.940757494655
 31
0.0
  0
LINE
  5
65A
330
1F
100
AcDbEntity
  8
26
  6
Continuous
 62
     7
370
     9
100
AcDbLine
 10
405.7924761218953
 20
260.2633475509282
 30
0.0
 11
404.2090094834829
 21
261.8468141893404
 31
0.0
  0
LINE
  5
65B
330
1F
100
AcDbEntity
  8
26
  6
Continuous
 62
     7
370
     9
100
AcDbLine
 10
405.1482522133971
 20
261.1904141719009
 30
0.0
 11
404.5857955012722
 21
261.7528708840258
 31
0.0
  0
LINE
  5
65C
330
1F
100
AcDbEntity
  8
26
  6
Continuous
 62
     7
370
     9
100
AcDbLine
 10
405.5250382311863
 20
261.0964708665863
 30
0.0
 11
404.9625815190615
 21
261.6589275787112
 31
0.0
  0
LINE
  5
65D
330
1F
100
AcDbEntity
  8
26
  6
Continuous
 62
     7
370
     9
100
AcDbLine
 10
405.7924761218953
 20
261.111875688352
 30
0.0
 11
405.3393675368507
 21
261.5649842733966
 31
0.0
  0
LINE
  5
65E
330
1F
100
AcDbEntity
  8
26
  6
Continuous
 62
     7
370
     9
100
AcDbLine
 10
405.7924761218953
 20
261.3947184008267
 30
0.0
 11
405.7161535546399
 21
261.4710409680819
 31
0.0
  0
LINE
  5
65F
330
1F
100
AcDbEntity
  8
26
  6
Continuous
 62
     7
370
     9
100
AcDbLine
 10
404.0034404137766
 20
260.3553269841993
 30
0.0
 11
402.3184003218952
 21
262.0403670760806
 31
0.0
  0
LINE
  5
660
330
1F
100
AcDbEntity
  8
26
  6
Continuous
 62
     7
370
     9
100
AcDbLine
 10
403.4339122626043
 20
260.0195481049653
 30
0.0
 11
402.3184003218952
 21
261.1350600456745
 31
0.0
  0
LINE
  5
661
330
1F
100
AcDbEntity
  8
26
  6
Continuous
 62
     7
370
     9
100
AcDbLine
 10
403.6473913989468
 20
260.0889116810977
 30
0.0
 11
403.380064576093
 21
260.3562385039515
 31
0.0
  0
LINE
  5
662
330
1F
100
AcDbEntity
  8
26
  6
Continuous
 62
     7
370
     9
100
AcDbLine
 10
403.2204331262625
 20
259.950184528833
 30
0.0
 11
402.3184003218952
 21
260.8522173332003
 31
0.0
  0
LINE
  5
663
330
1F
100
AcDbEntity
  8
26
  6
Continuous
 62
     7
370
     9
100
AcDbLine
 10
403.0069539899201
 20
259.8808209527005
 30
0.0
 11
402.3184003218952
 21
260.5693746207254
 31
0.0
  0
LINE
  5
664
330
1F
100
AcDbEntity
  8
26
  6
Continuous
 62
     7
370
     9
100
AcDbLine
 10
402.7934748535778
 20
259.8114573765682
 30
0.0
 11
402.3184003218952
 21
260.2865319082507
 31
0.0
  0
LINE
  5
665
330
1F
100
AcDbEntity
  8
26
  6
Continuous
 62
     7
370
     9
100
AcDbLine
 10
402.5799957172356
 20
259.7420938004358
 30
0.0
 11
402.3184003218952
 21
260.0036891957761
 31
0.0
  0
LINE
  5
666
330
1F
100
AcDbEntity
  8
26
  6
Continuous
 62
     7
370
     9
100
AcDbLine
 10
402.3665165808933
 20
259.6727302243035
 30
0.0
 11
402.3184003218952
 21
259.7208464833015
 31
0.0
  0
LINE
  5
667
330
1F
100
AcDbEntity
  8
26
  6
Continuous
 62
     7
370
     9
100
AcDbLine
 10
234.2452882256629
 20
226.7327707032498
 30
0.0
 11
246.8442208137832
 21
226.7327707032498
 31
0.0
  0
LINE
  5
668
330
1F
100
AcDbEntity
  8
26
  6
Continuous
 62
     7
370
     9
100
AcDbLine
 10
258.7447545197232
 20
262.3348707032497
 30
0.0
 11
258.7447545197232
 21
260.3348707032497
 31
0.0
  0
ARC
  5
669
330
1F
100
AcDbEntity
  8
26
  6
Continuous
 62
     7
370
     9
100
AcDbCircle
 10
259.2447545197233
 20
260.3348707032497
 30
0.0
 40
0.5
100
AcDbArc
 50
179.9999999999998
 51
269.9999999999998
  0
LINE
  5
66A
330
1F
100
AcDbEntity
  8
26
  6
Continuous
 62
     7
370
     9
100
AcDbLine
 10
263.8447545197231
 20
259.8348707032497
 30
0.0
 11
259.2447545197233
 21
259.8348707032497
 31
0.0
  0
ARC
  5
66B
330
1F
100
AcDbEntity
  8
26
  6
Continuous
 62
     7
370
     9
100
AcDbCircle
 10
259.2447545197233
 20
262.3348707032497
 30
0.0
 40
0.5
100
AcDbArc
 50
89.99999999999991
 51
179.9999999999998
  0
LINE
  5
66C
330
1F
100
AcDbEntity
  8
26
  6
Continuous
 62
     7
370
     9
100
AcDbLine
 10
264.3447545197231
 20
262.3348707032497
 30
0.0
 11
264.3447545197231
 21
260.3348707032497
 31
0.0
  0
ARC
  5
66D
330
1F
100
AcDbEntity
  8
26
  6
Continuous
 62
     7
370
     9
100
AcDbCircle
 10
263.8447545197231
 20
260.3348707032497
 30
0.0
 40
0.5
100
AcDbArc
 50
269.9999999999998
 51
0.0
  0
ARC
  5
66E
330
1F
100
AcDbEntity
  8
26
  6
Continuous
 62
     7
370
     9
100
AcDbCircle
 10
263.8447545197231
 20
262.3348707032497
 30
0.0
 40
0.5
100
AcDbArc
 50
0.0
 51
89.99999999999991
  0
LINE
  5
66F
330
1F
100
AcDbEntity
  8
26
  6
Continuous
 62
     7
370
     9
100
AcDbLine
 10
236.0732326390721
 20
165.8572484034125
 30
0.0
 11
236.0732326390721
 21
163.4572484034125
 31
0.0
  0
LINE
  5
670
330
1F
100
AcDbEntity
  8
26
  6
Continuous
 62
     7
370
     9
100
AcDbLine
 10
244.0732326390721
 20
163.4572484034125
 30
0.0
 11
236.0732326390721
 21
163.4572484034125
 31
0.0
  0
LINE
  5
671
330
1F
100
AcDbEntity
  8
26
  6
Continuous
 62
     7
370
     9
100
AcDbLine
 10
244.0732326390721
 20
165.8572484034125
 30
0.0
 11
244.0732326390721
 21
163.4572484034125
 31
0.0
  0
POINT
  5
672
330
1F
100
AcDbEntity
  8
26
  6
Continuous
 62
     7
370
     9
100
AcDbPoint
 10
505.515311117919
 20
166.3572484034126
 30
0.0
  0
LINE
  5
673
330
1F
100
AcDbEntity
  8
26
  6
Continuous
 62
     7
370
     9
100
AcDbLine
 10
510.5125111179192
 20
165.8572484034127
 30
0.0
 11
510.5125111179192
 21
163.4572484034125
 31
0.0
  0
LINE
  5
674
330
1F
100
AcDbEntity
  8
26
  6
Continuous
 62
     7
370
     9
100
AcDbLine
 10
510.5125111179192
 20
165.8572484034127
 30
0.0
 11
502.5125111179192
 21
165.8572484034127
 31
0.0
  0
LINE
  5
675
330
1F
100
AcDbEntity
  8
26
  6
Continuous
 62
     7
370
     9
100
AcDbLine
 10
502.5125111179192
 20
165.8572484034127
 30
0.0
 11
502.5125111179192
 21
163.4572484034125
 31
0.0
  0
LINE
  5
676
330
1F
100
AcDbEntity
  8
26
  6
Continuous
 62
     7
370
     9
100
AcDbLine
 10
510.5125111179192
 20
163.4572484034125
 30
0.0
 11
502.5125111179192
 21
163.4572484034125
 31
0.0
  0
LINE
  5
677
330
1F
100
AcDbEntity
  8
6
  6
Continuous
 62
     2
370
     9
100
AcDbLine
 10
264.0279545197232
 20
225.33487070325
 30
0.0
 11
259.0279545197232
 21
225.33487070325
 31
0.0
  0
LINE
  5
678
330
1F
100
AcDbEntity
  8
26
  6
Continuous
 62
     7
370
     9
100
AcDbLine
 10
361.316967654693
 20
258.8676450032499
 30
0.0
 11
361.9968447440825
 21
259.6227250072716
 31
0.0
  0
LINE
  5
679
330
1F
100
AcDbEntity
  8
26
  6
Continuous
 62
     7
370
     9
100
AcDbLine
 10
361.9968447440825
 20
259.6227250072715
 30
0.0
 11
361.688436298408
 21
260.5719086032499
 31
0.0
  0
LINE
  5
67A
330
1F
100
AcDbEntity
  8
26
  6
Continuous
 62
     7
370
     9
100
AcDbLine
 10
356.5750883238578
 20
259.7033896532498
 30
0.0
 11
356.7916344190928
 21
260.5719086032499
 31
0.0
  0
LINE
  5
67B
330
1F
100
AcDbEntity
  8
26
  6
Continuous
 62
     7
370
     9
100
AcDbLine
 10
354.3726639218954
 20
258.8676450032499
 30
0.0
 11
354.5015742099459
 21
258.8676450032499
 31
0.0
  0
LINE
  5
67C
330
1F
100
AcDbEntity
  8
26
  6
Continuous
 62
     7
370
     9
100
AcDbLine
 10
355.3346815671276
 20
260.5719086032499
 30
0.0
 11
354.7975845616017
 21
260.5719086032499
 31
0.0
  0
LINE
  5
67D
330
1F
100
AcDbEntity
  8
26
  6
Continuous
 62
     7
370
     9
100
AcDbLine
 10
355.5658228351147
 20
258.8676450032499
 30
0.0
 11
356.3667137793864
 21
258.8676450032499
 31
0.0
  0
LINE
  5
67E
330
1F
100
AcDbEntity
  8
26
  6
Continuous
 62
     7
370
     9
100
AcDbLine
 10
357.6769694640455
 20
260.5719086032499
 30
0.0
 11
357.1399841039227
 21
260.5719086032499
 31
0.0
  0
LINE
  5
67F
330
1F
100
AcDbEntity
  8
26
  6
Continuous
 62
     7
370
     9
100
AcDbLine
 10
357.6502641097377
 20
258.8676450032499
 30
0.0
 11
358.5179094747143
 21
258.8676450032499
 31
0.0
  0
LINE
  5
680
330
1F
100
AcDbEntity
  8
26
  6
Continuous
 62
     7
370
     9
100
AcDbLine
 10
359.1560692381609
 20
260.5719086032499
 30
0.0
 11
358.2884238731844
 21
260.5719086032499
 31
0.0
  0
LINE
  5
681
330
1F
100
AcDbEntity
  8
26
  6
Continuous
 62
     7
370
     9
100
AcDbLine
 10
358.849370339408
 20
258.8676450032499
 30
0.0
 11
359.8626995475801
 21
258.8676450032499
 31
0.0
  0
LINE
  5
682
330
1F
100
AcDbEntity
  8
26
  6
Continuous
 62
     7
370
     9
100
AcDbLine
 10
360.1160318496231
 20
258.8676450032499
 30
0.0
 11
360.2449421376736
 21
258.8676450032499
 31
0.0
  0
LINE
  5
683
330
1F
100
AcDbEntity
  8
26
  6
Continuous
 62
     7
370
     9
100
AcDbLine
 10
361.0780494948554
 20
260.5719086032499
 30
0.0
 11
360.5409524893294
 21
260.5719086032499
 31
0.0
  0
LINE
  5
684
330
1F
100
AcDbEntity
  8
26
  6
Continuous
 62
     7
370
     9
100
AcDbLine
 10
361.9436927157826
 20
258.8676450032499
 30
0.0
 11
362.3686133554889
 21
260.5719086032499
 31
0.0
  0
LINE
  5
685
330
1F
100
AcDbEntity
  8
26
  6
Continuous
 62
     7
370
     9
100
AcDbLine
 10
360.2449421376736
 20
258.8676450032498
 30
0.0
 11
361.4831621220051
 21
260.5719086032498
 31
0.0
  0
LINE
  5
686
330
1F
100
AcDbEntity
  8
26
  6
Continuous
 62
     7
370
     9
100
AcDbLine
 10
360.1160318496231
 20
258.8676450032499
 30
0.0
 11
360.5409524893294
 21
260.5719086032499
 31
0.0
  0
LINE
  5
687
330
1F
100
AcDbEntity
  8
26
  6
Continuous
 62
     7
370
     9
100
AcDbLine
 10
359.356034943494
 20
258.8676450032499
 30
0.0
 11
359.7809555832004
 21
260.5719086032499
 31
0.0
  0
LINE
  5
688
330
1F
100
AcDbEntity
  8
26
  6
Continuous
 62
     7
370
     9
100
AcDbLine
 10
358.6149390473419
 20
258.9434528136899
 30
0.0
 11
358.7476993949216
 21
259.4759254844921
 31
0.0
  0
LINE
  5
689
330
1F
100
AcDbEntity
  8
26
  6
Continuous
 62
     7
370
     9
100
AcDbLine
 10
358.1149898612971
 20
259.8480813866835
 30
0.0
 11
358.6913434866016
 21
259.5914722198163
 31
0.0
  0
LINE
  5
68A
330
1F
100
AcDbEntity
  8
26
  6
Continuous
 62
     7
370
     9
100
AcDbLine
 10
358.0586339529771
 20
259.9636281220077
 30
0.0
 11
358.1913943005567
 21
260.4961007928098
 31
0.0
  0
LINE
  5
68B
330
1F
100
AcDbEntity
  8
26
  6
Continuous
 62
     7
370
     9
100
AcDbLine
 10
357.3800429875585
 20
258.8676450032499
 30
0.0
 11
357.7739990366731
 21
260.4477164136899
 31
0.0
  0
LINE
  5
68C
330
1F
100
AcDbEntity
  8
26
  6
Continuous
 62
     7
370
     9
100
AcDbLine
 10
356.6369349015657
 20
258.8676450032499
 30
0.0
 11
357.0429545312951
 21
260.4961007928098
 31
0.0
  0
LINE
  5
68D
330
1F
100
AcDbEntity
  8
26
  6
Continuous
 62
     7
370
     9
100
AcDbLine
 10
355.4687932624871
 20
258.9918371928098
 30
0.0
 11
355.6273022063898
 21
259.6275818428098
 31
0.0
  0
LINE
  5
68E
330
1F
100
AcDbEntity
  8
26
  6
Continuous
 62
     7
370
     9
100
AcDbLine
 10
355.7243317790174
 20
259.7033896532499
 30
0.0
 11
356.5750883238578
 21
259.7033896532498
 31
0.0
  0
LINE
  5
68F
330
1F
100
AcDbEntity
  8
26
  6
Continuous
 62
     7
370
     9
100
AcDbLine
 10
355.8280170321984
 20
259.7033896532499
 30
0.0
 11
355.7672842709124
 21
260.5719086032499
 31
0.0
  0
LINE
  5
690
330
1F
100
AcDbEntity
  8
26
  6
Continuous
 62
     7
370
     9
100
AcDbLine
 10
354.5015742099459
 20
258.8676450032499
 30
0.0
 11
355.7397941942774
 21
260.5719086032499
 31
0.0
  0
LINE
  5
691
330
1F
100
AcDbEntity
  8
26
  6
Continuous
 62
     7
370
     9
100
AcDbLine
 10
354.3726639218954
 20
258.8676450032499
 30
0.0
 11
354.7975845616017
 21
260.5719086032499
 31
0.0
  0
ARC
  5
692
330
1F
100
AcDbEntity
  8
26
  6
Continuous
 62
     7
370
     9
100
AcDbCircle
 10
355.5658228351147
 20
258.9676450032499
 30
0.0
 40
0.1000000000000227
100
AcDbArc
 50
165.9999999999917
 51
269.9999999999998
  0
ARC
  5
693
330
1F
100
AcDbEntity
  8
26
  6
Continuous
 62
     7
370
     9
100
AcDbCircle
 10
355.7243317790174
 20
259.6033896532499
 30
0.0
 40
0.1000000000000227
100
AcDbArc
 50
89.99999999999991
 51
165.9999999999917
  0
ARC
  5
694
330
1F
100
AcDbEntity
  8
26
  6
Continuous
 62
     7
370
     9
100
AcDbCircle
 10
357.6769694640455
 20
260.4719086032499
 30
0.0
 40
0.1000000000000227
100
AcDbArc
 50
345.9999999999914
 51
89.99999999999991
  0
ARC
  5
695
330
1F
100
AcDbEntity
  8
26
  6
Continuous
 62
     7
370
     9
100
AcDbCircle
 10
357.1399841039227
 20
260.4719086032499
 30
0.0
 40
0.1000000000000227
100
AcDbArc
 50
89.99999999999991
 51
165.9999999999917
  0
ARC
  5
696
330
1F
100
AcDbEntity
  8
26
  6
Continuous
 62
     7
370
     9
100
AcDbCircle
 10
358.5179094747143
 20
258.9676450032499
 30
0.0
 40
0.1000000000000227
100
AcDbArc
 50
269.9999999999998
 51
345.9999999999914
  0
ARC
  5
697
330
1F
100
AcDbEntity
  8
26
  6
Continuous
 62
     7
370
     9
100
AcDbCircle
 10
358.650669822294
 20
259.500117674052
 30
0.0
 40
0.1000000000000227
100
AcDbArc
 50
345.9999999999914
 51
66.00000000000237
  0
ARC
  5
698
330
1F
100
AcDbEntity
  8
26
  6
Continuous
 62
     7
370
     9
100
AcDbCircle
 10
358.1556635256047
 20
259.9394359324477
 30
0.0
 40
0.1000000000000227
100
AcDbArc
 50
165.9999999999917
 51
246.000000000002
  0
ARC
  5
699
330
1F
100
AcDbEntity
  8
26
  6
Continuous
 62
     7
370
     9
100
AcDbCircle
 10
358.2884238731844
 20
260.4719086032499
 30
0.0
 40
0.1000000000000227
100
AcDbArc
 50
89.99999999999991
 51
165.9999999999917
  0
LINE
  5
69A
330
1F
100
AcDbEntity
  8
26
  6
Continuous
 62
     7
370
     9
100
AcDbLine
 10
404.0226639218952
 20
258.2081456421604
 30
0.0
 11
403.2675839178735
 21
258.8880227315499
 31
0.0
  0
LINE
  5
69B
330
1F
100
AcDbEntity
  8
26
  6
Continuous
 62
     7
370
     9
100
AcDbLine
 10
403.2675839178736
 20
258.8880227315499
 30
0.0
 11
402.3184003218952
 21
258.5796142858753
 31
0.0
  0
LINE
  5
69C
330
1F
100
AcDbEntity
  8
26
  6
Continuous
 62
     7
370
     9
100
AcDbLine
 10
403.1869192718954
 20
253.4662663113252
 30
0.0
 11
402.3184003218952
 21
253.6828124065601
 31
0.0
  0
LINE
  5
69D
330
1F
100
AcDbEntity
  8
26
  6
Continuous
 62
     7
370
     9
100
AcDbLine
 10
404.0226639218952
 20
251.2638419093628
 30
0.0
 11
404.0226639218952
 21
251.3927521974133
 31
0.0
  0
LINE
  5
69E
330
1F
100
AcDbEntity
  8
26
  6
Continuous
 62
     7
370
     9
100
AcDbLine
 10
402.3184003218952
 20
252.225859554595
 30
0.0
 11
402.3184003218952
 21
251.6887625490691
 31
0.0
  0
LINE
  5
69F
330
1F
100
AcDbEntity
  8
26
  6
Continuous
 62
     7
370
     9
100
AcDbLine
 10
404.0226639218952
 20
252.4570008225821
 30
0.0
 11
404.0226639218952
 21
253.2578917668538
 31
0.0
  0
LINE
  5
6A0
330
1F
100
AcDbEntity
  8
26
  6
Continuous
 62
     7
370
     9
100
AcDbLine
 10
402.3184003218952
 20
254.5681474515129
 30
0.0
 11
402.3184003218952
 21
254.03116209139
 31
0.0
  0
LINE
  5
6A1
330
1F
100
AcDbEntity
  8
26
  6
Continuous
 62
     7
370
     9
100
AcDbLine
 10
404.0226639218952
 20
254.5414420972051
 30
0.0
 11
404.0226639218952
 21
255.4090874621817
 31
0.0
  0
LINE
  5
6A2
330
1F
100
AcDbEntity
  8
26
  6
Continuous
 62
     7
370
     9
100
AcDbLine
 10
402.3184003218952
 20
256.0472472256283
 30
0.0
 11
402.3184003218952
 21
255.1796018606517
 31
0.0
  0
LINE
  5
6A3
330
1F
100
AcDbEntity
  8
26
  6
Continuous
 62
     7
370
     9
100
AcDbLine
 10
404.0226639218952
 20
255.7405483268754
 30
0.0
 11
404.0226639218952
 21
256.7538775350474
 31
0.0
  0
LINE
  5
6A4
330
1F
100
AcDbEntity
  8
26
  6
Continuous
 62
     7
370
     9
100
AcDbLine
 10
404.0226639218952
 20
257.0072098370905
 30
0.0
 11
404.0226639218952
 21
257.1361201251409
 31
0.0
  0
LINE
  5
6A5
330
1F
100
AcDbEntity
  8
26
  6
Continuous
 62
     7
370
     9
100
AcDbLine
 10
402.3184003218952
 20
257.9692274823228
 30
0.0
 11
402.3184003218952
 21
257.4321304767968
 31
0.0
  0
LINE
  5
6A6
330
1F
100
AcDbEntity
  8
26
  6
Continuous
 62
     7
370
     9
100
AcDbLine
 10
404.0226639218952
 20
258.83487070325
 30
0.0
 11
402.3184003218952
 21
259.2597913429563
 31
0.0
  0
LINE
  5
6A7
330
1F
100
AcDbEntity
  8
26
  6
Continuous
 62
     7
370
     9
100
AcDbLine
 10
404.0226639218953
 20
257.1361201251409
 30
0.0
 11
402.3184003218954
 21
258.3743401094724
 31
0.0
  0
LINE
  5
6A8
330
1F
100
AcDbEntity
  8
26
  6
Continuous
 62
     7
370
     9
100
AcDbLine
 10
404.0226639218952
 20
257.0072098370905
 30
0.0
 11
402.3184003218952
 21
257.4321304767968
 31
0.0
  0
LINE
  5
6A9
330
1F
100
AcDbEntity
  8
26
  6
Continuous
 62
     7
370
     9
100
AcDbLine
 10
404.0226639218952
 20
256.2472129309614
 30
0.0
 11
402.3184003218952
 21
256.6721335706678
 31
0.0
  0
LINE
  5
6AA
330
1F
100
AcDbEntity
  8
26
  6
Continuous
 62
     7
370
     9
100
AcDbLine
 10
403.9468561114553
 20
255.5061170348093
 30
0.0
 11
403.414383440653
 21
255.6388773823889
 31
0.0
  0
LINE
  5
6AB
330
1F
100
AcDbEntity
  8
26
  6
Continuous
 62
     7
370
     9
100
AcDbLine
 10
403.0422275384617
 20
255.0061678487645
 30
0.0
 11
403.2988367053288
 21
255.582521474069
 31
0.0
  0
LINE
  5
6AC
330
1F
100
AcDbEntity
  8
26
  6
Continuous
 62
     7
370
     9
100
AcDbLine
 10
402.9266808031374
 20
254.9498119404444
 30
0.0
 11
402.3942081323353
 21
255.0825722880241
 31
0.0
  0
LINE
  5
6AD
330
1F
100
AcDbEntity
  8
26
  6
Continuous
 62
     7
370
     9
100
AcDbLine
 10
404.0226639218952
 20
254.2712209750259
 30
0.0
 11
402.4425925114552
 21
254.6651770241405
 31
0.0
  0
LINE
  5
6AE
330
1F
100
AcDbEntity
  8
26
  6
Continuous
 62
     7
370
     9
100
AcDbLine
 10
404.0226639218952
 20
253.528112889033
 30
0.0
 11
402.3942081323353
 21
253.9341325187624
 31
0.0
  0
LINE
  5
6AF
330
1F
100
AcDbEntity
  8
26
  6
Continuous
 62
     7
370
     9
100
AcDbLine
 10
403.8984717323353
 20
252.3599712499545
 30
0.0
 11
403.2627270823353
 21
252.5184801938572
 31
0.0
  0
LINE
  5
6B0
330
1F
100
AcDbEntity
  8
26
  6
Continuous
 62
     7
370
     9
100
AcDbLine
 10
403.1869192718953
 20
252.6155097664848
 30
0.0
 11
403.1869192718954
 21
253.4662663113252
 31
0.0
  0
LINE
  5
6B1
330
1F
100
AcDbEntity
  8
26
  6
Continuous
 62
     7
370
     9
100
AcDbLine
 10
403.1869192718953
 20
252.7191950196658
 30
0.0
 11
402.3184003218952
 21
252.6584622583798
 31
0.0
  0
LINE
  5
6B2
330
1F
100
AcDbEntity
  8
26
  6
Continuous
 62
     7
370
     9
100
AcDbLine
 10
404.0226639218952
 20
251.3927521974133
 30
0.0
 11
402.3184003218952
 21
252.6309721817447
 31
0.0
  0
LINE
  5
6B3
330
1F
100
AcDbEntity
  8
26
  6
Continuous
 62
     7
370
     9
100
AcDbLine
 10
404.0226639218952
 20
251.2638419093628
 30
0.0
 11
402.3184003218952
 21
251.6887625490691
 31
0.0
  0
ARC
  5
6B4
330
1F
100
AcDbEntity
  8
26
  6
Continuous
 62
     7
370
     9
100
AcDbCircle
 10
403.9226639218953
 20
252.4570008225821
 30
0.0
 40
0.1000000000000227
100
AcDbArc
 50
255.9999999999913
 51
0.0
  0
ARC
  5
6B5
330
1F
100
AcDbEntity
  8
26
  6
Continuous
 62
     7
370
     9
100
AcDbCircle
 10
403.2869192718952
 20
252.6155097664848
 30
0.0
 40
0.1000000000000227
100
AcDbArc
 50
179.9999999999998
 51
255.9999999999913
  0
ARC
  5
6B6
330
1F
100
AcDbEntity
  8
26
  6
Continuous
 62
     7
370
     9
100
AcDbCircle
 10
402.4184003218953
 20
254.5681474515129
 30
0.0
 40
0.1000000000000227
100
AcDbArc
 50
75.9999999999917
 51
179.9999999999998
  0
ARC
  5
6B7
330
1F
100
AcDbEntity
  8
26
  6
Continuous
 62
     7
370
     9
100
AcDbCircle
 10
402.4184003218953
 20
254.03116209139
 30
0.0
 40
0.1000000000000227
100
AcDbArc
 50
179.9999999999998
 51
255.9999999999913
  0
ARC
  5
6B8
330
1F
100
AcDbEntity
  8
26
  6
Continuous
 62
     7
370
     9
100
AcDbCircle
 10
403.9226639218953
 20
255.4090874621817
 30
0.0
 40
0.1000000000000227
100
AcDbArc
 50
0.0
 51
75.9999999999917
  0
ARC
  5
6B9
330
1F
100
AcDbEntity
  8
26
  6
Continuous
 62
     7
370
     9
100
AcDbCircle
 10
403.3901912510931
 20
255.5418478097614
 30
0.0
 40
0.1000000000000227
100
AcDbArc
 50
75.9999999999917
 51
156.0000000000024
  0
ARC
  5
6BA
330
1F
100
AcDbEntity
  8
26
  6
Continuous
 62
     7
370
     9
100
AcDbCircle
 10
402.9508729926974
 20
255.046841513072
 30
0.0
 40
0.1000000000000227
100
AcDbArc
 50
255.9999999999913
 51
336.000000000002
  0
ARC
  5
6BB
330
1F
100
AcDbEntity
  8
26
  6
Continuous
 62
     7
370
     9
100
AcDbCircle
 10
402.4184003218953
 20
255.1796018606517
 30
0.0
 40
0.1000000000000227
100
AcDbArc
 50
179.9999999999998
 51
255.9999999999913
  0
POINT
  5
6BC
330
1F
100
AcDbEntity
  8
26
  6
Continuous
 62
     7
370
     9
100
AcDbPoint
 10
485.9153111179192
 20
173.4572484034124
 30
0.0
  0
POINT
  5
6BD
330
1F
100
AcDbEntity
  8
26
  6
Continuous
 62
     7
370
     9
100
AcDbPoint
 10
485.9153111179192
 20
173.4572484034124
 30
0.0
  0
POINT
  5
6BE
330
1F
100
AcDbEntity
  8
26
  6
Continuous
 62
     7
370
     9
100
AcDbPoint
 10
485.9153111179192
 20
173.4572484034124
 30
0.0
  0
POINT
  5
6BF
330
1F
100
AcDbEntity
  8
26
  6
Continuous
 62
     7
370
     9
100
AcDbPoint
 10
360.7126568705369
 20
194.7483876439186
 30
0.0
  0
POINT
  5
6C0
330
1F
100
AcDbEntity
  8
26
  6
Continuous
 62
     7
370
     9
100
AcDbPoint
 10
360.7126568705369
 20
194.7483876439186
 30
0.0
  0
POINT
  5
6C1
330
1F
100
AcDbEntity
  8
26
  6
Continuous
 62
     7
370
     9
100
AcDbPoint
 10
360.7126568705369
 20
194.7483876439186
 30
0.0
  0
POINT
  5
6C2
330
1F
100
AcDbEntity
  8
26
  6
Continuous
 62
     7
370
     9
100
AcDbPoint
 10
360.7126568705369
 20
194.7483876439186
 30
0.0
  0
POINT
  5
6C3
330
1F
100
AcDbEntity
  8
26
  6
Continuous
 62
     7
370
     9
100
AcDbPoint
 10
360.7126568705369
 20
194.7483876439186
 30
0.0
  0
POINT
  5
6C4
330
1F
100
AcDbEntity
  8
26
  6
Continuous
 62
     7
370
     9
100
AcDbPoint
 10
360.7126568705369
 20
194.7483876439186
 30
0.0
  0
POINT
  5
6C5
330
1F
100
AcDbEntity
  8
26
  6
Continuous
 62
     7
370
     9
100
AcDbPoint
 10
485.9153111179192
 20
173.4572484034124
 30
0.0
  0
POINT
  5
6C6
330
1F
100
AcDbEntity
  8
26
  6
Continuous
 62
     7
370
     9
100
AcDbPoint
 10
485.9153111179192
 20
173.4572484034124
 30
0.0
  0
POINT
  5
6C7
330
1F
100
AcDbEntity
  8
26
  6
Continuous
 62
     7
370
     9
100
AcDbPoint
 10
485.9153111179192
 20
173.4572484034124
 30
0.0
  0
POINT
  5
6C8
330
1F
100
AcDbEntity
  8
26
  6
Continuous
 62
     7
370
     9
100
AcDbPoint
 10
485.9153111179192
 20
173.4572484034124
 30
0.0
  0
POINT
  5
6C9
330
1F
100
AcDbEntity
  8
26
  6
Continuous
 62
     7
370
     9
100
AcDbPoint
 10
360.7126568705369
 20
194.7483876439186
 30
0.0
  0
POINT
  5
6CA
330
1F
100
AcDbEntity
  8
26
  6
Continuous
 62
     7
370
     9
100
AcDbPoint
 10
360.7126568705369
 20
194.7483876439186
 30
0.0
  0
POINT
  5
6CB
330
1F
100
AcDbEntity
  8
26
  6
Continuous
 62
     7
370
     9
100
AcDbPoint
 10
360.7126568705369
 20
194.7483876439186
 30
0.0
  0
POINT
  5
6CC
330
1F
100
AcDbEntity
  8
26
  6
Continuous
 62
     7
370
     9
100
AcDbPoint
 10
360.7126568705369
 20
194.7483876439186
 30
0.0
  0
TEXT
  5
6CD
330
1F
100
AcDbEntity
  8
5
  6
Continuous
 62
     3
370
     9
100
AcDbText
 10
329.839403711634
 20
130.1325321250521
 30
0.0
 40
3.5
  1
ロット№表示
 41
0.4545454545454549
100
AcDbText
  0
TEXT
  5
6CE
330
1F
100
AcDbEntity
  8
5
  6
Continuous
 62
     3
370
     9
100
AcDbText
 10
380.3226639218954
 20
305.8679393498944
 30
0.0
 40
2.5
  1
φ60
 41
0.8203125
100
AcDbText
  0
TEXT
  5
6CF
330
1F
100
AcDbEntity
  8
5
  6
Continuous
 62
     3
370
     9
100
AcDbText
 10
343.7087637576714
 20
291.03487070325
 30
0.0
 40
2.5
  1
13
 50
89.99999999999991
 41
1.09375
100
AcDbText
  0
TEXT
  5
6D0
330
1F
100
AcDbEntity
  8
5
  6
Continuous
 62
     3
370
     9
100
AcDbText
 10
312.0081235826304
 20
246.9098707032499
 30
0.0
 40
2.5
  1
15.8
 50
89.99999999999991
 41
1.09375
100
AcDbText
  0
TEXT
  5
6D1
330
1F
100
AcDbEntity
  8
5
  6
Continuous
 62
     3
370
     9
100
AcDbText
 10
312.0081235826304
 20
277.3348707032499
 30
0.0
 40
2.5
  1
41
 50
89.99999999999991
 41
1.09375
100
AcDbText
  0
TEXT
  5
6D2
330
1F
100
AcDbEntity
  8
5
  6
Continuous
 62
     3
370
     9
100
AcDbText
 10
306.0081235826304
 20
267.4098707032499
 30
0.0
 40
2.5
  1
56.8
 50
89.99999999999991
 41
1.09375
100
AcDbText
  0
TEXT
  5
6D3
330
1F
100
AcDbEntity
  8
5
  6
Continuous
 62
     3
370
     9
100
AcDbText
 10
407.9476639218953
 20
227.6077969921117
 30
0.0
 40
2.5
  1
57.8
 41
1.09375
100
AcDbText
  0
TEXT
  5
6D4
330
1F
100
AcDbEntity
  8
5
  6
Continuous
 62
     3
370
     9
100
AcDbText
 10
378.1976639218949
 20
219.6077969921117
 30
0.0
 40
2.5
  1
115.3
 41
1.09375
100
AcDbText
  0
TEXT
  5
6D5
330
1F
100
AcDbEntity
  8
5
  6
Continuous
 62
     3
370
     9
100
AcDbText
 10
404.9226639218954
 20
236.1077969921117
 30
0.0
 40
2.5
  1
51.8
 41
1.09375
100
AcDbText
  0
TEXT
  5
6D6
330
1F
100
AcDbEntity
  8
5
  6
Continuous
 62
     3
370
     9
100
AcDbText
 10
350.2726639218949
 20
227.6077969921117
 30
0.0
 40
2.5
  1
57.5
 41
1.09375
100
AcDbText
  0
TEXT
  5
6D7
330
1F
100
AcDbEntity
  8
5
  6
Continuous
 62
     3
370
     9
100
AcDbText
 10
480.9153111179192
 20
204.2572484034125
 30
0.0
 40
2.5
  1
φ31.7
 41
0.9114583333333333
100
AcDbText
  0
TEXT
  5
6D8
330
1F
100
AcDbEntity
  8
5
  6
Continuous
 62
     3
370
     9
100
AcDbText
 10
463.4153111179191
 20
136.2072484034124
 30
0.0
 40
2.5
  1
22.5
 50
89.99999999999991
 41
1.09375
100
AcDbText
  0
TEXT
  5
6D9
330
1F
100
AcDbEntity
  8
5
  6
Continuous
 62
     3
370
     9
100
AcDbText
 10
463.4153111179191
 20
119.4572484034123
 30
0.0
 40
2.5
  1
15
 50
89.99999999999991
 41
1.09375
100
AcDbText
  0
TEXT
  5
6DA
330
1F
100
AcDbEntity
  8
5
  6
Continuous
 62
     3
370
     9
100
AcDbText
 10
319.0085972136641
 20
249.7348707032499
 30
0.0
 40
2.5
  1
Ｆ27×（φ30）
 50
89.99999999999991
 41
0.703125
100
AcDbText
  0
TEXT
  5
6DB
330
1F
100
AcDbEntity
  8
5
  6
Continuous
 62
     3
370
     9
100
AcDbText
 10
534.4293778261502
 20
119.8572484034123
 30
0.0
 40
2.5
  1
Ｆ27×（φ30）
 50
89.99999999999991
 41
0.703125
100
AcDbText
  0
TEXT
  5
6DC
330
1F
100
AcDbEntity
  8
5
  6
Continuous
 62
     3
370
     9
100
AcDbText
 10
282.1704326390721
 20
136.2072484034123
 30
0.0
 40
2.5
  1
22.5
 50
89.99999999999991
 41
1.09375
100
AcDbText
  0
TEXT
  5
6DD
330
1F
100
AcDbEntity
  8
5
  6
Continuous
 62
     3
370
     9
100
AcDbText
 10
282.1704326390721
 20
119.4572484034122
 30
0.0
 40
2.5
  1
15
 50
89.99999999999991
 41
1.09375
100
AcDbText
  0
TEXT
  5
6DE
330
1F
100
AcDbEntity
  8
5
  6
Continuous
 62
     3
370
     9
100
AcDbText
 10
255.6704326390722
 20
204.2572484034124
 30
0.0
 40
2.5
  1
φ31.7
 41
0.9114583333333333
100
AcDbText
  0
TEXT
  5
6DF
330
1F
100
AcDbEntity
  8
6
  6
Continuous
 62
     2
370
     9
100
AcDbText
 10
394.2726639218953
 20
124.9572484034123
 30
0.0
 40
2.0
  1
復帰は閉→開
 41
0.68359375
100
AcDbText
  0
TEXT
  5
6E0
330
1F
100
AcDbEntity
  8
6
  6
Continuous
 62
     2
370
     9
100
AcDbText
 10
389.4684594911485
 20
127.9572484034123
 30
0.0
 40
1.999999999999986
  1
ＯＮ・ＯＦＦヒューズ
 41
0.7367159717540424
100
AcDbText
  0
TEXT
  5
6E1
330
1F
100
AcDbEntity
  8
6
  6
Continuous
 62
     2
370
     9
100
AcDbText
 10
395.7726639218953
 20
121.9572484034123
 30
0.0
 40
2.0
  1
15ｋＷ
 41
0.9114583333333333
100
AcDbText
  0
TEXT
  5
6E2
330
1F
100
AcDbEntity
  8
6
  6
Continuous
 62
     2
370
     9
100
AcDbText
 10
405.5226639218952
 20
121.9572484034123
 30
0.0
 40
2.0
  1
消費量
 41
0.68359375
100
AcDbText
  0
TEXT
  5
6E3
330
1F
100
AcDbEntity
  8
6
  6
Continuous
 62
     2
370
     9
100
AcDbText
 10
390.2726639218953
 20
121.9572484034123
 30
0.0
 40
2.0
  1
以下
 41
0.68359375
100
AcDbText
  0
TEXT
  5
6E4
330
1F
100
AcDbEntity
  8
5
  6
Continuous
 62
     3
370
     9
100
AcDbText
 10
318.2345468432293
 20
168.6072484034124
 30
0.0
 40
2.5
  1
42.3
 50
89.99999999999991
 41
1.09375
100
AcDbText
  0
TEXT
  5
6E5
330
1F
100
AcDbEntity
  8
5
  6
Continuous
 62
     3
370
     9
100
AcDbText
 10
317.7345468432293
 20
128.6572484034123
 30
0.0
 40
2.5
  1
37.6
 50
89.99999999999991
 41
1.093749999999996
100
AcDbText
  0
TEXT
  5
6E6
330
1F
100
AcDbEntity
  8
5
  6
Continuous
 62
     3
370
     9
100
AcDbText
 10
309.7345468432293
 20
149.8072484034124
 30
0.0
 40
2.5
  1
79.9
 50
89.99999999999991
 41
1.09375
100
AcDbText
  0
TEXT
  5
6E7
330
1F
100
AcDbEntity
  8
5
  6
Continuous
 62
     3
370
     9
100
AcDbText
 10
381.0226639218953
 20
204.0659490399307
 30
0.0
 40
2.5
  1
42
 41
1.09375
100
AcDbText
  0
TEXT
  5
6E8
330
1F
100
AcDbEntity
  8
5
  6
Continuous
 62
     3
370
     9
100
AcDbText
 10
455.5726639218953
 20
150.8072484034124
 30
0.0
 40
2.5
  1
81.9
 50
89.99999999999991
 41
1.09375
100
AcDbText
  0
TEXT
  5
6E9
330
1F
100
AcDbEntity
  8
5
  6
Continuous
 62
     3
370
     9
100
AcDbText
 10
415.7833047848669
 20
100.1116984765219
 30
0.0
 40
3.0
  1
復帰シール
 41
0.4545454545454546
100
AcDbText
  0
TEXT
  5
6EA
330
1F
100
AcDbEntity
  8
5
  6
Continuous
 62
     3
370
     9
100
AcDbText
 10
294.1864278449601
 20
138.5254131704028
 30
0.0
 40
3.0
  1
Ｒｃ1/2
 41
0.78125
100
AcDbText
  0
TEXT
  5
6EB
330
1F
100
AcDbEntity
  8
5
  6
Continuous
 62
     3
370
     9
100
AcDbText
 10
447.5726639218954
 20
169.1072484034124
 30
0.0
 40
2.5
  1
44.3
 50
89.99999999999991
 41
1.09375
100
AcDbText
  0
TEXT
  5
6EC
330
1F
100
AcDbEntity
  8
6
  6
Continuous
 62
     2
370
     9
100
AcDbText
 10
259.4539570607561
 20
226.2653759857026
 30
0.0
 40
3.0
  1
１
 41
1.499999999999985
100
AcDbText
  0
TEXT
  5
6ED
330
1F
100
AcDbEntity
  8
6
  6
Continuous
 62
     2
370
     9
100
AcDbText
 10
260.1495164225181
 20
221.33487070325
 30
0.0
 40
3.0
  1
２
100
AcDbText
  0
LINE
  5
6EE
330
1F
100
AcDbEntity
  8
26
  6
Continuous
 62
     7
370
     9
100
AcDbLine
 10
499.9153111179191
 20
163.4572484034124
 30
0.0
 11
485.9153111179192
 21
163.4572484034124
 31
0.0
  0
LINE
  5
6EF
330
1F
100
AcDbEntity
  8
26
  6
Continuous
 62
     7
370
     9
100
AcDbLine
 10
491.6653111179192
 20
154.4572484034124
 30
0.0
 11
490.8501111179192
 21
154.4572484034124
 31
0.0
  0
ARC
  5
6F0
330
1F
100
AcDbEntity
  8
26
  6
Continuous
 62
     7
370
     9
100
AcDbCircle
 10
491.6653111179192
 20
154.1572484034124
 30
0.0
 40
0.3000000000000114
100
AcDbArc
 50
0.0
 51
89.99999999999991
  0
LINE
  5
6F1
330
1F
100
AcDbEntity
  8
26
  6
Continuous
 62
     7
370
     9
100
AcDbLine
 10
491.1653111179192
 20
141.4572484034123
 30
0.0
 11
491.1653111179192
 21
140.4572484034123
 31
0.0
  0
LINE
  5
6F2
330
1F
100
AcDbEntity
  8
26
  6
Continuous
 62
     7
370
     9
100
AcDbLine
 10
490.8614635406258
 20
139.4572484034123
 30
0.0
 11
491.6653111179192
 21
140.4572484034123
 31
0.0
  0
LINE
  5
6F3
330
1F
100
AcDbEntity
  8
26
  6
Continuous
 62
     7
370
     9
100
AcDbLine
 10
491.9653111179192
 20
142.2072484034123
 30
0.0
 11
491.1653111179192
 21
141.4572484034123
 31
0.0
  0
LINE
  5
6F4
330
1F
100
AcDbEntity
  8
26
  6
Continuous
 62
     7
370
     9
100
AcDbLine
 10
491.9653111179192
 20
144.4572484034124
 30
0.0
 11
490.8501111179192
 21
144.4572484034124
 31
0.0
  0
ARC
  5
6F5
330
1F
100
AcDbEntity
  8
26
  6
Continuous
 62
     7
370
     9
100
AcDbCircle
 10
491.0249229147169
 20
126.9572484034123
 30
0.0
 40
0.5
100
AcDbArc
 50
345.9637565320605
 51
89.99999999999991
  0
ARC
  5
6F6
330
1F
100
AcDbEntity
  8
26
  6
Continuous
 62
     7
370
     9
100
AcDbCircle
 10
490.024922914717
 20
122.9572484034123
 30
0.0
 40
0.5
100
AcDbArc
 50
269.9999999999998
 51
345.9637565320826
  0
LINE
  5
6F7
330
1F
100
AcDbEntity
  8
26
  6
Continuous
 62
     7
370
     9
100
AcDbLine
 10
490.5099941647897
 20
122.8359805908942
 30
0.0
 11
491.5099941647897
 21
126.835980590894
 31
0.0
  0
ARC
  5
6F8
330
1F
100
AcDbEntity
  8
26
  6
Continuous
 62
     7
370
     9
100
AcDbCircle
 10
485.9153111179193
 20
151.4572484034124
 30
0.0
 40
8.5
100
AcDbArc
 50
315.3786786359203
 51
89.99999999999991
  0
ARC
  5
6F9
330
1F
100
AcDbEntity
  8
26
  6
Continuous
 62
     7
370
     9
100
AcDbCircle
 10
485.9153111179193
 20
151.4572484034124
 30
0.0
 40
10.0
100
AcDbArc
 50
307.2288418750737
 51
89.99999999999991
  0
ARC
  5
6FA
330
1F
100
AcDbEntity
  8
26
  6
Continuous
 62
     7
370
     9
100
AcDbCircle
 10
485.9153111179192
 20
151.4572484034124
 30
0.0
 40
6.050000000000011
100
AcDbArc
 50
29.72698827112481
 51
89.99999999999991
  0
LINE
  5
6FB
330
1F
100
AcDbEntity
  8
26
  6
Continuous
 62
     7
370
     9
100
AcDbLine
 10
490.8501111179192
 20
154.4572484034124
 30
0.0
 11
490.8501111179192
 21
144.4572484034124
 31
0.0
  0
ARC
  5
6FC
330
1F
100
AcDbEntity
  8
26
  6
Continuous
 62
     7
370
     9
100
AcDbCircle
 10
485.6653111179191
 20
136.4572484034123
 30
0.0
 40
6.0
100
AcDbArc
 50
329.9999999999984
 51
30.00000000000098
  0
LINE
  5
6FD
330
1F
100
AcDbEntity
  8
26
  6
Continuous
 62
     7
370
     9
100
AcDbLine
 10
490.8614635406258
 20
139.4572484034123
 30
0.0
 11
485.9153111179192
 21
139.4572484034123
 31
0.0
  0
LINE
  5
6FE
330
1F
100
AcDbEntity
  8
26
  6
Continuous
 62
     7
370
     9
100
AcDbLine
 10
491.6653111179192
 20
140.4572484034123
 30
0.0
 11
485.9153111179192
 21
140.4572484034123
 31
0.0
  0
LINE
  5
6FF
330
1F
100
AcDbEntity
  8
26
  6
Continuous
 62
     7
370
     9
100
AcDbLine
 10
491.1653111179192
 20
141.4572484034123
 30
0.0
 11
485.9153111179192
 21
141.4572484034123
 31
0.0
  0
LINE
  5
700
330
1F
100
AcDbEntity
  8
26
  6
Continuous
 62
     7
370
     9
100
AcDbLine
 10
491.9653111179192
 20
142.2072484034123
 30
0.0
 11
485.9153111179192
 21
142.2072484034123
 31
0.0
  0
ARC
  5
701
330
1F
100
AcDbEntity
  8
26
  6
Continuous
 62
     7
370
     9
100
AcDbCircle
 10
485.6653111179191
 20
130.4572484034123
 30
0.0
 40
6.0
100
AcDbArc
 50
329.9999999999983
 51
30.00000000000098
  0
LINE
  5
702
330
1F
100
AcDbEntity
  8
26
  6
Continuous
 62
     7
370
     9
100
AcDbLine
 10
491.0249229147169
 20
127.4572484034123
 30
0.0
 11
485.9153111179192
 21
127.4572484034123
 31
0.0
  0
LINE
  5
703
330
1F
100
AcDbEntity
  8
26
  6
Continuous
 62
     7
370
     9
100
AcDbLine
 10
490.024922914717
 20
122.4572484034123
 30
0.0
 11
485.9153111179192
 21
122.4572484034123
 31
0.0
  0
ARC
  5
704
330
1F
100
AcDbEntity
  8
26
  6
Continuous
 62
     7
370
     9
100
AcDbCircle
 10
458.0575793760674
 20
180.0841258008874
 30
0.0
 40
42.5
100
AcDbArc
 50
6.333130946171588
 51
19.50510723608109
  0
LINE
  5
705
330
1F
100
AcDbEntity
  8
26
  6
Continuous
 62
     7
370
     9
100
AcDbLine
 10
496.9727093111648
 20
181.0572484034125
 30
0.0
 11
485.9153111179192
 21
181.0572484034125
 31
0.0
  0
ARC
  5
706
330
1F
100
AcDbEntity
  8
26
  6
Continuous
 62
     7
370
     9
100
AcDbCircle
 10
496.9727093111648
 20
184.4031743125631
 30
0.0
 40
3.345925909150651
100
AcDbArc
 50
269.9999999999998
 51
6.333130946171366
  0
LINE
  5
707
330
1F
100
AcDbEntity
  8
26
  6
Continuous
 62
     7
370
     9
100
AcDbLine
 10
498.9153111179192
 20
144.4572484034121
 30
0.0
 11
493.3253737496691
 21
144.4572484034121
 31
0.0
  0
ARC
  5
708
330
1F
100
AcDbEntity
  8
26
  6
Continuous
 62
     7
370
     9
100
AcDbCircle
 10
485.9153111179193
 20
133.9572484034125
 30
0.0
 40
17.49999999999989
100
AcDbArc
 50
42.02462757937795
 51
53.27013958533562
  0
ARC
  5
709
330
1F
100
AcDbEntity
  8
26
  6
Continuous
 62
     7
370
     9
100
AcDbCircle
 10
483.9153111179192
 20
124.9572484034124
 30
0.0
 40
8.0
100
AcDbArc
 50
284.4775121859292
 51
23.95053329354346
  0
ARC
  5
70A
330
1F
100
AcDbEntity
  8
26
  6
Continuous
 62
     7
370
     9
100
AcDbCircle
 10
483.9153111179192
 20
124.9572484034124
 30
0.0
 40
6.5
100
AcDbArc
 50
287.9202131393893
 51
337.3801350519579
  0
ARC
  5
70B
330
1F
100
AcDbEntity
  8
26
  6
Continuous
 62
     7
370
     9
100
AcDbCircle
 10
483.9153111179192
 20
124.9572484034124
 30
0.0
 40
7.0
100
AcDbArc
 50
286.6015495990223
 51
355.0446571718846
  0
LINE
  5
70C
330
1F
100
AcDbEntity
  8
26
  6
Continuous
 62
     7
370
     9
100
AcDbLine
 10
491.9653111179193
 20
154.1572484034125
 30
0.0
 11
491.9653111179194
 21
142.2072484034124
 31
0.0
  0
LINE
  5
70D
330
1F
100
AcDbEntity
  8
7
  6
DASHDOT
 62
     4
370
     9
100
AcDbLine
 10
469.2658983511958
 20
151.4572484034124
 30
0.0
 11
498.9153111179192
 21
151.4572484034124
 31
0.0
  0
LINE
  5
70E
330
1F
100
AcDbEntity
  8
26
  6
Continuous
 62
     7
370
     9
100
AcDbLine
 10
499.6653111179192
 20
163.4572484034124
 30
0.0
 11
499.6653111179192
 21
166.5572484034124
 31
0.0
  0
ARC
  5
70F
330
1F
100
AcDbEntity
  8
26
  6
Continuous
 62
     7
370
     9
100
AcDbCircle
 10
350.9652657286495
 20
182.4031743125631
 30
0.0
 40
3.345925909150651
100
AcDbArc
 50
173.6668690538287
 51
269.9999999999998
  0
ARC
  5
710
330
1F
100
AcDbEntity
  8
26
  6
Continuous
 62
     7
370
     9
100
AcDbCircle
 10
389.8803956637469
 20
178.0841258008875
 30
0.0
 40
42.5
100
AcDbArc
 50
160.4948927639191
 51
173.6668690538286
  0
LINE
  5
711
330
1F
100
AcDbEntity
  8
26
  6
Continuous
 62
     7
370
     9
100
AcDbLine
 10
350.9652657286495
 20
179.0572484034125
 30
0.0
 11
362.0226639218952
 21
179.0572484034125
 31
0.0
  0
LINE
  5
712
330
1F
100
AcDbEntity
  8
5
  6
Continuous
 62
     3
370
     9
100
AcDbLine
 10
536.002219474505
 20
146.9035168798803
 30
0.0
 11
548.002219474505
 21
146.9035168798803
 31
0.0
  0
LINE
  5
713
330
1F
100
AcDbEntity
  8
5
  6
Continuous
 62
     3
370
     9
100
AcDbLine
 10
526.9153111179191
 20
128.9572484034124
 30
0.0
 11
536.002219474505
 21
146.9035168798803
 31
0.0
  0
INSERT
  5
71A
330
1F
100
AcDbEntity
  8
5
100
AcDbBlockReference
  2
*G61
 10
0.0
 20
0.0
 30
0.0
  0
TEXT
  5
71B
330
1F
100
AcDbEntity
  8
5
  6
Continuous
 62
     3
370
     9
100
AcDbText
 10
535.955148845216
 20
147.5148830411735
 30
0.0
 40
3.0
  1
Ｒｃ1/2
 41
0.78125
100
AcDbText
  0
LINE
  5
71C
330
1F
100
AcDbEntity
  8
5
  6
Continuous
 62
     3
370
     9
100
AcDbLine
 10
323.7409228134795
 20
151.4572484034123
 30
0.0
 11
317.4490883138366
 21
151.4572484034123
 31
0.0
  0
LINE
  5
71D
330
1F
100
AcDbEntity
  8
5
  6
Continuous
 62
     3
370
     9
100
AcDbLine
 10
279.2426411169155
 20
128.9572484034122
 30
0.0
 11
283.658010508948
 21
128.9572484034122
 31
0.0
  0
VIEWPORT
  5
2A
330
1B
100
AcDbEntity
 67
     1
  8
0
100
AcDbViewport
 10
420.0
 20
297.0
 30
0.0
 40
840.0
 41
594.0
 68
     1
 69
     1
 12
420.0
 22
297.0
 13
0.0
 23
0.0
 14
0.5
 24
0.5
 15
0.5
 25
0.5
 16
0.0
 26
0.0
 36
1.0
 17
0.0
 27
0.0
 37
0.0
 42
50.0
 43
0.0
 44
0.0
 45
9.0
 50
0.0
 51
0.0
 72
   100
 90
    32800
  1

281
     0
 71
     1
 74
     0
110
0.0
120
0.0
130
0.0
111
1.0
121
0.0
131
0.0
112
0.0
122
1.0
132
0.0
 79
     0
146
0.0
  0
ENDSEC
  0
SECTION
  2
OBJECTS
  0
DICTIONARY
  5
C
330
0
100
AcDbDictionary
281
     1
  3
ACAD_GROUP
350
D
  3
ACAD_LAYOUT
350
1A
  3
ACAD_MLINESTYLE
350
17
  3
ACAD_PLOTSETTINGS
350
19
  3
ACAD_PLOTSTYLENAME
350
E
  3
AcDbVariableDictionary
350
71E
  0
DICTIONARY
  5
D
102
{ACAD_REACTORS
330
C
102
}
330
C
100
AcDbDictionary
281
     1
  0
DICTIONARY
  5
1A
102
{ACAD_REACTORS
330
C
102
}
330
C
100
AcDbDictionary
281
     1
  3
Layout1
350
1E
  3
Layout2
350
26
  3
Model
350
22
  0
DICTIONARY
  5
17
102
{ACAD_REACTORS
330
C
102
}
330
C
100
AcDbDictionary
281
     1
  3
Standard
350
18
  0
DICTIONARY
  5
19
102
{ACAD_REACTORS
330
C
102
}
330
C
100
AcDbDictionary
281
     1
  0
ACDBDICTIONARYWDFLT
  5
E
102
{ACAD_REACTORS
330
C
102
}
330
C
100
AcDbDictionary
281
     1
  3
Normal
350
F
100
AcDbDictionaryWithDefault
340
F
  0
DICTIONARY
  5
71E
102
{ACAD_REACTORS
330
C
102
}
330
C
100
AcDbDictionary
281
     1
  3
DIMASSOC
350
71F
  0
LAYOUT
  5
1E
102
{ACAD_REACTORS
330
1A
102
}
330
1A
100
AcDbPlotSettings
  1

  2

  4

  6

 40
0.0
 41
0.0
 42
0.0
 43
0.0
 44
0.0
 45
0.0
 46
0.0
 47
0.0
 48
0.0
 49
0.0
140
0.0
141
0.0
142
1.0
143
1.0
 70
   688
 72
     0
 73
     0
 74
     5
  7

 75
    16
147
1.0
148
0.0
149
0.0
100
AcDbLayout
  1
Layout1
 70
     1
 71
     1
 10
0.0
 20
0.0
 11
420.0
 21
297.0
 12
0.0
 22
0.0
 32
0.0
 14
0.0
 24
0.0
 34
0.0
 15
420.0
 25
297.0
 35
0.0
146
0.0
 13
0.0
 23
0.0
 33
0.0
 16
1.0
 26
0.0
 36
0.0
 17
0.0
 27
1.0
 37
0.0
 76
     0
330
1B
331
2A
  0
LAYOUT
  5
26
102
{ACAD_REACTORS
330
1A
102
}
330
1A
100
AcDbPlotSettings
  1

  2

  4

  6

 40
0.0
 41
0.0
 42
0.0
 43
0.0
 44
0.0
 45
0.0
 46
0.0
 47
0.0
 48
0.0
 49
0.0
140
0.0
141
0.0
142
1.0
143
1.0
 70
   688
 72
     0
 73
     0
 74
     5
  7

 75
    16
147
1.0
148
0.0
149
0.0
100
AcDbLayout
  1
Layout2
 70
     1
 71
     2
 10
0.0
 20
0.0
 11
0.0
 21
0.0
 12
0.0
 22
0.0
 32
0.0
 14
0.0
 24
0.0
 34
0.0
 15
0.0
 25
0.0
 35
0.0
146
0.0
 13
0.0
 23
0.0
 33
0.0
 16
1.0
 26
0.0
 36
0.0
 17
0.0
 27
1.0
 37
0.0
 76
     0
330
23
  0
LAYOUT
  5
22
102
{ACAD_REACTORS
330
1A
102
}
330
1A
100
AcDbPlotSettings
  1

  2

  4

  6

 40
0.0
 41
0.0
 42
0.0
 43
0.0
 44
0.0
 45
0.0
 46
0.0
 47
0.0
 48
0.0
 49
0.0
140
0.0
141
0.0
142
1.0
143
1.0
 70
  1712
 72
     0
 73
     0
 74
     0
  7

 75
     0
147
1.0
148
0.0
149
0.0
100
AcDbLayout
  1
Model
 70
     1
 71
     0
 10
0.0
 20
0.0
 11
840.0
 21
594.0
 12
0.0
 22
0.0
 32
0.0
 14
0.0
 24
0.0
 34
0.0
 15
840.0
 25
594.0
 35
0.0
146
0.0
 13
0.0
 23
0.0
 33
0.0
 16
1.0
 26
0.0
 36
0.0
 17
0.0
 27
1.0
 37
0.0
 76
     0
330
1F
  0
MLINESTYLE
  5
18
102
{ACAD_REACTORS
330
17
102
}
330
17
100
AcDbMlineStyle
  2
Standard
 70
     0
  3

 62
   256
 51
90.0
 52
90.0
 71
     2
 49
0.5
 62
   256
  6
BYLAYER
 49
-0.5
 62
   256
  6
BYLAYER
  0
ACDBPLACEHOLDER
  5
F
102
{ACAD_REACTORS
330
E
102
}
330
E
  0
DICTIONARYVAR
  5
71F
102
{ACAD_REACTORS
330
71E
102
}
330
71E
100
DictionaryVariables
280
     0
  1
1
  0
ENDSEC
  0
EOF
