  0
SECTION
  2
HEADER
  9
$ACADVER
  1
AC1015
  9
$ACADMAINTVER
 70
     6
  9
$DWGCODEPAGE
  3
ANSI_932
  9
$INSBASE
 10
0.0
 20
0.0
 30
0.0
  9
$EXTMIN
 10
0.0
 20
0.0
 30
0.0
  9
$EXTMAX
 10
840.0
 20
594.0
 30
0.0
  9
$LIMMIN
 10
0.0
 20
0.0
  9
$LIMMAX
 10
840.0
 20
594.0
  9
$ORTHOMODE
 70
     0
  9
$REGENMODE
 70
     1
  9
$FILLMODE
 70
     1
  9
$QTEXTMODE
 70
     0
  9
$MIRRTEXT
 70
     1
  9
$LTSCALE
 40
0.5
  9
$ATTMODE
 70
     1
  9
$TEXTSIZE
 40
10.0
  9
$TRACEWID
 40
0.05
  9
$TEXTSTYLE
  7
Standard
  9
$CLAYER
  8
0
  9
$CELTYPE
  6
ByLayer
  9
$CECOLOR
 62
   256
  9
$CELTSCALE
 40
1.0
  9
$DISPSILH
 70
     0
  9
$DIMSCALE
 40
2.0
  9
$DIMASZ
 40
2.0
  9
$DIMEXO
 40
2.0
  9
$DIMDLI
 40
10.0
  9
$DIMRND
 40
0.0
  9
$DIMDLE
 40
0.0
  9
$DIMEXE
 40
2.0
  9
$DIMTP
 40
0.0
  9
$DIMTM
 40
0.0
  9
$DIMTXT
 40
4.0
  9
$DIMCEN
 40
0.09
  9
$DIMTSZ
 40
0.0
  9
$DIMTOL
 70
     0
  9
$DIMLIM
 70
     0
  9
$DIMTIH
 70
     0
  9
$DIMTOH
 70
     0
  9
$DIMSE1
 70
     0
  9
$DIMSE2
 70
     0
  9
$DIMTAD
 70
     3
  9
$DIMZIN
 70
     8
  9
$DIMBLK
  1

  9
$DIMASO
 70
     1
  9
$DIMSHO
 70
     1
  9
$DIMPOST
  1

  9
$DIMAPOST
  1

  9
$DIMALT
 70
     0
  9
$DIMALTD
 70
     2
  9
$DIMALTF
 40
25.4
  9
$DIMLFAC
 40
1.0
  9
$DIMTOFL
 70
     1
  9
$DIMTVP
 40
0.7
  9
$DIMTIX
 70
     0
  9
$DIMSOXD
 70
     0
  9
$DIMSAH
 70
     0
  9
$DIMBLK1
  1

  9
$DIMBLK2
  1

  9
$DIMSTYLE
  2
Standard
  9
$DIMCLRD
 70
     0
  9
$DIMCLRE
 70
     0
  9
$DIMCLRT
 70
     0
  9
$DIMTFAC
 40
0.5
  9
$DIMGAP
 40
0.09
  9
$DIMJUST
 70
     0
  9
$DIMSD1
 70
     0
  9
$DIMSD2
 70
     0
  9
$DIMTOLJ
 70
     1
  9
$DIMTZIN
 70
     8
  9
$DIMALTZ
 70
     0
  9
$DIMALTTZ
 70
     0
  9
$DIMUPT
 70
     1
  9
$DIMDEC
 70
     2
  9
$DIMTDEC
 70
     4
  9
$DIMALTU
 70
     2
  9
$DIMALTTD
 70
     2
  9
$DIMTXSTY
  7
Standard
  9
$DIMAUNIT
 70
     0
  9
$DIMADEC
 70
     0
  9
$DIMALTRND
 40
0.0
  9
$DIMAZIN
 70
     0
  9
$DIMDSEP
 70
    46
  9
$DIMATFIT
 70
     2
  9
$DIMFRAC
 70
     0
  9
$DIMLDRBLK
  1

  9
$DIMLUNIT
 70
     2
  9
$DIMLWD
 70
    -2
  9
$DIMLWE
 70
    -2
  9
$DIMTMOVE
 70
     2
  9
$LUNITS
 70
     2
  9
$LUPREC
 70
     4
  9
$SKETCHINC
 40
0.1
  9
$FILLETRAD
 40
0.5
  9
$AUNITS
 70
     0
  9
$AUPREC
 70
     0
  9
$MENU
  1
.
  9
$ELEVATION
 40
0.0
  9
$PELEVATION
 40
0.0
  9
$THICKNESS
 40
0.0
  9
$LIMCHECK
 70
     0
  9
$CHAMFERA
 40
0.5
  9
$CHAMFERB
 40
0.5
  9
$CHAMFERC
 40
1.0
  9
$CHAMFERD
 40
0.0
  9
$SKPOLY
 70
     0
  9
$TDCREATE
 40
2456387.961296296
  9
$TDUCREATE
 40
2456387.586296296
  9
$TDUPDATE
 40
2456387.961296296
  9
$TDUUPDATE
 40
2456387.586296296
  9
$TDINDWG
 40
0.0000000116
  9
$TDUSRTIMER
 40
0.0000000116
  9
$USRTIMER
 70
     1
  9
$ANGBASE
 50
0.0
  9
$ANGDIR
 70
     0
  9
$PDMODE
 70
     0
  9
$PDSIZE
 40
0.0
  9
$PLINEWID
 40
0.0
  9
$SPLFRAME
 70
     0
  9
$SPLINETYPE
 70
     6
  9
$SPLINESEGS
 70
     8
  9
$HANDSEED
  5
71A
  9
$SURFTAB1
 70
     6
  9
$SURFTAB2
 70
     6
  9
$SURFTYPE
 70
     6
  9
$SURFU
 70
     6
  9
$SURFV
 70
     6
  9
$UCSBASE
  2

  9
$UCSNAME
  2

  9
$UCSORG
 10
0.0
 20
0.0
 30
0.0
  9
$UCSXDIR
 10
1.0
 20
0.0
 30
0.0
  9
$UCSYDIR
 10
0.0
 20
1.0
 30
0.0
  9
$UCSORTHOREF
  2

  9
$UCSORTHOVIEW
 70
     0
  9
$UCSORGTOP
 10
0.0
 20
0.0
 30
0.0
  9
$UCSORGBOTTOM
 10
0.0
 20
0.0
 30
0.0
  9
$UCSORGLEFT
 10
0.0
 20
0.0
 30
0.0
  9
$UCSORGRIGHT
 10
0.0
 20
0.0
 30
0.0
  9
$UCSORGFRONT
 10
0.0
 20
0.0
 30
0.0
  9
$UCSORGBACK
 10
0.0
 20
0.0
 30
0.0
  9
$PUCSBASE
  2

  9
$PUCSNAME
  2

  9
$PUCSORG
 10
0.0
 20
0.0
 30
0.0
  9
$PUCSXDIR
 10
1.0
 20
0.0
 30
0.0
  9
$PUCSYDIR
 10
0.0
 20
1.0
 30
0.0
  9
$PUCSORTHOREF
  2

  9
$PUCSORTHOVIEW
 70
     0
  9
$PUCSORGTOP
 10
0.0
 20
0.0
 30
0.0
  9
$PUCSORGBOTTOM
 10
0.0
 20
0.0
 30
0.0
  9
$PUCSORGLEFT
 10
0.0
 20
0.0
 30
0.0
  9
$PUCSORGRIGHT
 10
0.0
 20
0.0
 30
0.0
  9
$PUCSORGFRONT
 10
0.0
 20
0.0
 30
0.0
  9
$PUCSORGBACK
 10
0.0
 20
0.0
 30
0.0
  9
$USERI1
 70
     0
  9
$USERI2
 70
     0
  9
$USERI3
 70
     0
  9
$USERI4
 70
     0
  9
$USERI5
 70
     0
  9
$USERR1
 40
0.0
  9
$USERR2
 40
0.0
  9
$USERR3
 40
0.0
  9
$USERR4
 40
0.0
  9
$USERR5
 40
0.0
  9
$WORLDVIEW
 70
     1
  9
$SHADEDGE
 70
     3
  9
$SHADEDIF
 70
    70
  9
$TILEMODE
 70
     1
  9
$MAXACTVP
 70
    64
  9
$PINSBASE
 10
0.0
 20
0.0
 30
0.0
  9
$PLIMCHECK
 70
     0
  9
$PEXTMIN
 10
0.0
 20
0.0
 30
0.0
  9
$PEXTMAX
 10
420.0
 20
297.0
 30
0.0
  9
$PLIMMIN
 10
0.0
 20
0.0
  9
$PLIMMAX
 10
420.0
 20
297.0
  9
$UNITMODE
 70
     0
  9
$VISRETAIN
 70
     1
  9
$PLINEGEN
 70
     0
  9
$PSLTSCALE
 70
     1
  9
$TREEDEPTH
 70
  3020
  9
$CMLSTYLE
  2
Standard
  9
$CMLJUST
 70
     0
  9
$CMLSCALE
 40
1.0
  9
$PROXYGRAPHICS
 70
     1
  9
$MEASUREMENT
 70
     1
  9
$CELWEIGHT
370
    -1
  9
$ENDCAPS
280
     0
  9
$JOINSTYLE
280
     0
  9
$LWDISPLAY
290
     0
  9
$INSUNITS
 70
     4
  9
$HYPERLINKBASE
  1

  9
$STYLESHEET
  1

  9
$XEDIT
290
     1
  9
$CEPSNTYPE
380
     0
  9
$PSTYLEMODE
290
     1
  9
$FINGERPRINTGUID
  2
{C3F44E03-A815-42DC-A8CE-CAB4462B49F7}
  9
$VERSIONGUID
  2
{FAEB1C32-E019-11D5-929B-00C0DF256EC4}
  9
$EXTNAMES
290
     1
  9
$PSVPSCALE
 40
0.0
  9
$OLESTARTUP
290
     0
  0
ENDSEC
  0
SECTION
  2
CLASSES
  0
CLASS
  1
ACDBDICTIONARYWDFLT
  2
AcDbDictionaryWithDefault
  3
ObjectDBX Classes
 90
        0
280
     0
281
     0
  0
CLASS
  1
DICTIONARYVAR
  2
AcDbDictionaryVar
  3
ObjectDBX Classes
 90
        0
280
     0
281
     0
  0
CLASS
  1
ACDBPLACEHOLDER
  2
AcDbPlaceHolder
  3
ObjectDBX Classes
 90
        0
280
     0
281
     0
  0
CLASS
  1
LAYOUT
  2
AcDbLayout
  3
ObjectDBX Classes
 90
        0
280
     0
281
     0
  0
ENDSEC
  0
SECTION
  2
TABLES
  0
TABLE
  2
VPORT
  5
8
330
0
100
AcDbSymbolTable
 70
     1
  0
VPORT
  5
29
330
8
100
AcDbSymbolTableRecord
100
AcDbViewportTableRecord
  2
*Active
 70
     0
 10
0.0
 20
0.0
 11
1.0
 21
1.0
 12
10.42990654205607
 22
4.5
 13
0.0
 23
0.0
 14
0.5
 24
0.5
 15
0.5
 25
0.5
 16
0.0
 26
0.0
 36
1.0
 17
0.0
 27
0.0
 37
0.0
 40
9.0
 41
1.972972972850329
 42
50.0
 43
0.0
 44
0.0
 50
0.0
 51
0.0
 71
     0
 72
   100
 73
     1
 74
     3
 75
     0
 76
     0
 77
     0
 78
     0
281
     0
 65
     1
110
0.0
120
0.0
130
0.0
111
1.0
121
0.0
131
0.0
112
0.0
122
1.0
132
0.0
 79
     0
146
0.0
  0
ENDTAB
  0
TABLE
  2
LTYPE
  5
5
330
0
100
AcDbSymbolTable
 70
     9
  0
LTYPE
  5
14
330
5
100
AcDbSymbolTableRecord
100
AcDbLinetypeTableRecord
  2
ByBlock
 70
     0
  3

 72
    65
 73
     0
 40
0.0
  0
LTYPE
  5
15
330
5
100
AcDbSymbolTableRecord
100
AcDbLinetypeTableRecord
  2
ByLayer
 70
     0
  3

 72
    65
 73
     0
 40
0.0
  0
LTYPE
  5
16
330
5
100
AcDbSymbolTableRecord
100
AcDbLinetypeTableRecord
  2
Continuous
 70
     0
  3
Solid line
 72
    65
 73
     0
 40
0.0
  0
LTYPE
  5
68
330
5
100
AcDbSymbolTableRecord
100
AcDbLinetypeTableRecord
  2
DOT
 70
     0
  3
DOT
 72
    65
 73
     2
 40
4.0
 49
6.0
 74
     0
 49
-2.0
 74
     0
  0
LTYPE
  5
69
330
5
100
AcDbSymbolTableRecord
100
AcDbLinetypeTableRecord
  2
HIDDEN
 70
     0
  3
HIDDEN
 72
    65
 73
     2
 40
4.2
 49
8.4
 74
     0
 49
-4.2
 74
     0
  0
LTYPE
  5
6A
330
5
100
AcDbSymbolTableRecord
100
AcDbLinetypeTableRecord
  2
DASHDOT
 70
     0
  3
DASHDOT
 72
    65
 73
     4
 40
14.5
 49
30.0
 74
     0
 49
-9.0
 74
     0
 49
2.5
 74
     0
 49
-9.0
 74
     0
  0
LTYPE
  5
6B
330
5
100
AcDbSymbolTableRecord
100
AcDbLinetypeTableRecord
  2
PHANTOM
 70
     0
  3
PHANTOM
 72
    65
 73
     6
 40
12.0
 49
30.0
 74
     0
 49
-9.0
 74
     0
 49
2.5
 74
     0
 49
-5.0
 74
     0
 49
2.5
 74
     0
 49
-9.0
 74
     0
  0
LTYPE
  5
6C
330
5
100
AcDbSymbolTableRecord
100
AcDbLinetypeTableRecord
  2
ACAD_ISO14W100
 70
     0
  3
ACAD_ISO14W100
 72
    65
 73
     8
 40
1.5
 49
12.0
 74
     0
 49
-3.0
 74
     0
 49
0.5
 74
     0
 49
-3.0
 74
     0
 49
0.5
 74
     0
 49
-3.0
 74
     0
 49
0.5
 74
     0
 49
-3.0
 74
     0
  0
LTYPE
  5
6D
330
5
100
AcDbSymbolTableRecord
100
AcDbLinetypeTableRecord
  2
ACAD_ISO06W100
 70
     0
  3
ACAD_ISO06W100
 72
    65
 73
     8
 40
13.5
 49
24.0
 74
     0
 49
-3.0
 74
     0
 49
0.5
 74
     0
 49
-3.0
 74
     0
 49
0.5
 74
     0
 49
-3.0
 74
     0
 49
0.5
 74
     0
 49
-3.0
 74
     0
  0
LTYPE
  5
6E
330
5
100
AcDbSymbolTableRecord
100
AcDbLinetypeTableRecord
  2
ACAD_ISO11W100
 70
     0
  3
ACAD_ISO11W100
 72
    65
 73
     6
 40
15.5
 49
12.0
 74
     0
 49
-3.0
 74
     0
 49
12.0
 74
     0
 49
-3.0
 74
     0
 49
0.5
 74
     0
 49
-3.0
 74
     0
  0
LTYPE
  5
6F
330
5
100
AcDbSymbolTableRecord
100
AcDbLinetypeTableRecord
  2
ACAD_ISO13W100
 70
     0
  3
ACAD_ISO13W100
 72
    65
 73
     8
 40
13.0
 49
12.0
 74
     0
 49
-3.0
 74
     0
 49
12.0
 74
     0
 49
-3.0
 74
     0
 49
0.5
 74
     0
 49
-3.0
 74
     0
 49
0.5
 74
     0
 49
-3.0
 74
     0
  0
ENDTAB
  0
TABLE
  2
LAYER
  5
2
330
0
100
AcDbSymbolTable
 70
    29
  0
LAYER
  5
10
330
2
100
AcDbSymbolTableRecord
100
AcDbLayerTableRecord
  2
0
 70
     0
 62
     7
  6
Continuous
370
    -3
390
F
  0
LAYER
  5
70
330
2
100
AcDbSymbolTableRecord
100
AcDbLayerTableRecord
  2
1
 70
     0
 62
     7
  6
Continuous
370
    -3
390
F
  0
LAYER
  5
71
330
2
100
AcDbSymbolTableRecord
100
AcDbLayerTableRecord
  2
2
 70
     0
 62
   132
  6
Continuous
370
    -3
390
F
  0
LAYER
  5
72
330
2
100
AcDbSymbolTableRecord
100
AcDbLayerTableRecord
  2
3
 70
     0
 62
     6
  6
Continuous
370
    -3
390
F
  0
LAYER
  5
73
330
2
100
AcDbSymbolTableRecord
100
AcDbLayerTableRecord
  2
4
 70
     0
 62
     3
  6
Continuous
370
    -3
390
F
  0
LAYER
  5
74
330
2
100
AcDbSymbolTableRecord
100
AcDbLayerTableRecord
  2
5
 70
     0
 62
     3
  6
Continuous
370
    -3
390
F
  0
LAYER
  5
75
330
2
100
AcDbSymbolTableRecord
100
AcDbLayerTableRecord
  2
6
 70
     0
 62
     2
  6
Continuous
370
    -3
390
F
  0
LAYER
  5
76
330
2
100
AcDbSymbolTableRecord
100
AcDbLayerTableRecord
  2
7
 70
     0
 62
     4
  6
Continuous
370
    -3
390
F
  0
LAYER
  5
77
330
2
100
AcDbSymbolTableRecord
100
AcDbLayerTableRecord
  2
8
 70
     0
 62
     6
  6
Continuous
370
    -3
390
F
  0
LAYER
  5
78
330
2
100
AcDbSymbolTableRecord
100
AcDbLayerTableRecord
  2
9
 70
     0
 62
     2
  6
Continuous
370
    -3
390
F
  0
LAYER
  5
79
330
2
100
AcDbSymbolTableRecord
100
AcDbLayerTableRecord
  2
10
 70
     0
 62
     3
  6
Continuous
370
    -3
390
F
  0
LAYER
  5
7A
330
2
100
AcDbSymbolTableRecord
100
AcDbLayerTableRecord
  2
11
 70
     0
 62
     3
  6
Continuous
370
    -3
390
F
  0
LAYER
  5
7B
330
2
100
AcDbSymbolTableRecord
100
AcDbLayerTableRecord
  2
12
 70
     0
 62
     7
  6
Continuous
370
    -3
390
F
  0
LAYER
  5
7C
330
2
100
AcDbSymbolTableRecord
100
AcDbLayerTableRecord
  2
13
 70
     0
 62
   214
  6
Continuous
370
    -3
390
F
  0
LAYER
  5
7D
330
2
100
AcDbSymbolTableRecord
100
AcDbLayerTableRecord
  2
14
 70
     0
 62
    54
  6
Continuous
370
    -3
390
F
  0
LAYER
  5
7E
330
2
100
AcDbSymbolTableRecord
100
AcDbLayerTableRecord
  2
15
 70
     0
 62
    94
  6
Continuous
370
    -3
390
F
  0
LAYER
  5
7F
330
2
100
AcDbSymbolTableRecord
100
AcDbLayerTableRecord
  2
16
 70
     0
 62
    14
  6
Continuous
370
    -3
390
F
  0
LAYER
  5
80
330
2
100
AcDbSymbolTableRecord
100
AcDbLayerTableRecord
  2
17
 70
     0
 62
   132
  6
Continuous
370
    -3
390
F
  0
LAYER
  5
81
330
2
100
AcDbSymbolTableRecord
100
AcDbLayerTableRecord
  2
18
 70
     0
 62
   212
  6
Continuous
370
    -3
390
F
  0
LAYER
  5
82
330
2
100
AcDbSymbolTableRecord
100
AcDbLayerTableRecord
  2
19
 70
     0
 62
    52
  6
Continuous
370
    -3
390
F
  0
LAYER
  5
83
330
2
100
AcDbSymbolTableRecord
100
AcDbLayerTableRecord
  2
20
 70
     0
 62
   250
  6
Continuous
370
    -3
390
F
  0
LAYER
  5
84
330
2
100
AcDbSymbolTableRecord
100
AcDbLayerTableRecord
  2
21
 70
     0
 62
     7
  6
Continuous
370
    -3
390
F
  0
LAYER
  5
85
330
2
100
AcDbSymbolTableRecord
100
AcDbLayerTableRecord
  2
22
 70
     0
 62
     7
  6
Continuous
370
    -3
390
F
  0
LAYER
  5
86
330
2
100
AcDbSymbolTableRecord
100
AcDbLayerTableRecord
  2
23
 70
     0
 62
     7
  6
Continuous
370
    -3
390
F
  0
LAYER
  5
87
330
2
100
AcDbSymbolTableRecord
100
AcDbLayerTableRecord
  2
24
 70
     0
 62
     7
  6
Continuous
370
    -3
390
F
  0
LAYER
  5
88
330
2
100
AcDbSymbolTableRecord
100
AcDbLayerTableRecord
  2
25
 70
     0
 62
     7
  6
Continuous
370
    -3
390
F
  0
LAYER
  5
89
330
2
100
AcDbSymbolTableRecord
100
AcDbLayerTableRecord
  2
26
 70
     0
 62
     7
  6
Continuous
370
    -3
390
F
  0
LAYER
  5
8A
330
2
100
AcDbSymbolTableRecord
100
AcDbLayerTableRecord
  2
27
 70
     0
 62
     4
  6
Continuous
370
    -3
390
F
  0
LAYER
  5
8B
330
2
100
AcDbSymbolTableRecord
100
AcDbLayerTableRecord
  2
28
 70
     0
 62
     1
  6
Continuous
370
    -3
390
F
  0
ENDTAB
  0
TABLE
  2
STYLE
  5
3
330
0
100
AcDbSymbolTable
 70
     2
  0
STYLE
  5
11
330
3
100
AcDbSymbolTableRecord
100
AcDbTextStyleTableRecord
  2
Standard
 70
     0
 40
0.0
 41
1.0
 50
0.0
 71
     0
 42
0.2
  3
txt
  4
bigfont
  0
STYLE
  5
2C
330
3
100
AcDbSymbolTableRecord
100
AcDbTextStyleTableRecord
  2
T_STANDARD
 70
     4
 40
10.0
 41
1.0
 50
0.0
 71
     0
 42
10.0
  3
txt
  4
bigfont
  0
ENDTAB
  0
TABLE
  2
VIEW
  5
6
330
0
100
AcDbSymbolTable
 70
     0
  0
ENDTAB
  0
TABLE
  2
UCS
  5
7
330
0
100
AcDbSymbolTable
 70
     0
  0
ENDTAB
  0
TABLE
  2
APPID
  5
9
330
0
100
AcDbSymbolTable
 70
     2
  0
APPID
  5
12
330
9
100
AcDbSymbolTableRecord
100
AcDbRegAppTableRecord
  2
ACAD
 70
     0
  0
APPID
  5
2B
330
9
100
AcDbSymbolTableRecord
100
AcDbRegAppTableRecord
  2
ODA
 70
     0
  0
ENDTAB
  0
TABLE
  2
DIMSTYLE
  5
A
330
0
100
AcDbSymbolTable
 70
     1
100
AcDbDimStyleTable
  0
DIMSTYLE
105
27
330
A
100
AcDbSymbolTableRecord
100
AcDbDimStyleTableRecord
  2
Standard
 70
     0
340
11
  0
ENDTAB
  0
TABLE
  2
BLOCK_RECORD
  5
1
330
0
100
AcDbSymbolTable
 70
    59
  0
BLOCK_RECORD
  5
1F
330
1
100
AcDbSymbolTableRecord
100
AcDbBlockTableRecord
  2
*Model_Space
340
22
  0
BLOCK_RECORD
  5
1B
330
1
100
AcDbSymbolTableRecord
100
AcDbBlockTableRecord
  2
*Paper_Space
340
1E
  0
BLOCK_RECORD
  5
23
330
1
100
AcDbSymbolTableRecord
100
AcDbBlockTableRecord
  2
*Paper_Space0
340
26
  0
BLOCK_RECORD
  5
2D
330
1
100
AcDbSymbolTableRecord
100
AcDbBlockTableRecord
  2
_ORIGIN
340
0
  0
BLOCK_RECORD
  5
32
330
1
100
AcDbSymbolTableRecord
100
AcDbBlockTableRecord
  2
_DOTBLANK
340
0
  0
BLOCK_RECORD
  5
37
330
1
100
AcDbSymbolTableRecord
100
AcDbBlockTableRecord
  2
_DOT
340
0
  0
BLOCK_RECORD
  5
3C
330
1
100
AcDbSymbolTableRecord
100
AcDbBlockTableRecord
  2
_OPEN
340
0
  0
BLOCK_RECORD
  5
42
330
1
100
AcDbSymbolTableRecord
100
AcDbBlockTableRecord
  2
_CLOSED
340
0
  0
BLOCK_RECORD
  5
49
330
1
100
AcDbSymbolTableRecord
100
AcDbBlockTableRecord
  2
_CLOSEDBLANK
340
0
  0
BLOCK_RECORD
  5
4F
330
1
100
AcDbSymbolTableRecord
100
AcDbBlockTableRecord
  2
_BOXBLANK
340
0
  0
BLOCK_RECORD
  5
57
330
1
100
AcDbSymbolTableRecord
100
AcDbBlockTableRecord
  2
_BOXFILLED
340
0
  0
BLOCK_RECORD
  5
5C
330
1
100
AcDbSymbolTableRecord
100
AcDbBlockTableRecord
  2
_INTEGRAL
340
0
  0
BLOCK_RECORD
  5
61
330
1
100
AcDbSymbolTableRecord
100
AcDbBlockTableRecord
  2
_OBLIQUE
340
0
  0
BLOCK_RECORD
  5
65
330
1
100
AcDbSymbolTableRecord
100
AcDbBlockTableRecord
  2
_NONE
340
0
  0
BLOCK_RECORD
  5
300
330
1
100
AcDbSymbolTableRecord
100
AcDbBlockTableRecord
  2
*G12
340
0
102
{BLKREFS
331
306
102
}
  0
BLOCK_RECORD
  5
307
330
1
100
AcDbSymbolTableRecord
100
AcDbBlockTableRecord
  2
*G13
340
0
102
{BLKREFS
331
30D
102
}
  0
BLOCK_RECORD
  5
30F
330
1
100
AcDbSymbolTableRecord
100
AcDbBlockTableRecord
  2
*G14
340
0
102
{BLKREFS
331
315
102
}
  0
BLOCK_RECORD
  5
316
330
1
100
AcDbSymbolTableRecord
100
AcDbBlockTableRecord
  2
*G15
340
0
102
{BLKREFS
331
31C
102
}
  0
BLOCK_RECORD
  5
31E
330
1
100
AcDbSymbolTableRecord
100
AcDbBlockTableRecord
  2
*G16
340
0
102
{BLKREFS
331
324
102
}
  0
BLOCK_RECORD
  5
325
330
1
100
AcDbSymbolTableRecord
100
AcDbBlockTableRecord
  2
*G17
340
0
102
{BLKREFS
331
32B
102
}
  0
BLOCK_RECORD
  5
32D
330
1
100
AcDbSymbolTableRecord
100
AcDbBlockTableRecord
  2
*G18
340
0
102
{BLKREFS
331
333
102
}
  0
BLOCK_RECORD
  5
334
330
1
100
AcDbSymbolTableRecord
100
AcDbBlockTableRecord
  2
*G19
340
0
102
{BLKREFS
331
33A
102
}
  0
BLOCK_RECORD
  5
33C
330
1
100
AcDbSymbolTableRecord
100
AcDbBlockTableRecord
  2
*G20
340
0
102
{BLKREFS
331
342
102
}
  0
BLOCK_RECORD
  5
343
330
1
100
AcDbSymbolTableRecord
100
AcDbBlockTableRecord
  2
*G21
340
0
102
{BLKREFS
331
349
102
}
  0
BLOCK_RECORD
  5
34B
330
1
100
AcDbSymbolTableRecord
100
AcDbBlockTableRecord
  2
*G22
340
0
102
{BLKREFS
331
351
102
}
  0
BLOCK_RECORD
  5
352
330
1
100
AcDbSymbolTableRecord
100
AcDbBlockTableRecord
  2
*G23
340
0
102
{BLKREFS
331
358
102
}
  0
BLOCK_RECORD
  5
35A
330
1
100
AcDbSymbolTableRecord
100
AcDbBlockTableRecord
  2
*G24
340
0
102
{BLKREFS
331
360
102
}
  0
BLOCK_RECORD
  5
361
330
1
100
AcDbSymbolTableRecord
100
AcDbBlockTableRecord
  2
*G25
340
0
102
{BLKREFS
331
367
102
}
  0
BLOCK_RECORD
  5
369
330
1
100
AcDbSymbolTableRecord
100
AcDbBlockTableRecord
  2
*G26
340
0
102
{BLKREFS
331
36F
102
}
  0
BLOCK_RECORD
  5
370
330
1
100
AcDbSymbolTableRecord
100
AcDbBlockTableRecord
  2
*G27
340
0
102
{BLKREFS
331
376
102
}
  0
BLOCK_RECORD
  5
378
330
1
100
AcDbSymbolTableRecord
100
AcDbBlockTableRecord
  2
*G28
340
0
102
{BLKREFS
331
37E
102
}
  0
BLOCK_RECORD
  5
37F
330
1
100
AcDbSymbolTableRecord
100
AcDbBlockTableRecord
  2
*G29
340
0
102
{BLKREFS
331
385
102
}
  0
BLOCK_RECORD
  5
387
330
1
100
AcDbSymbolTableRecord
100
AcDbBlockTableRecord
  2
*G30
340
0
102
{BLKREFS
331
38D
102
}
  0
BLOCK_RECORD
  5
38E
330
1
100
AcDbSymbolTableRecord
100
AcDbBlockTableRecord
  2
*G31
340
0
102
{BLKREFS
331
394
102
}
  0
BLOCK_RECORD
  5
4CF
330
1
100
AcDbSymbolTableRecord
100
AcDbBlockTableRecord
  2
*G32
340
0
102
{BLKREFS
331
4D5
102
}
  0
BLOCK_RECORD
  5
4D6
330
1
100
AcDbSymbolTableRecord
100
AcDbBlockTableRecord
  2
*G33
340
0
102
{BLKREFS
331
4DC
102
}
  0
BLOCK_RECORD
  5
4DE
330
1
100
AcDbSymbolTableRecord
100
AcDbBlockTableRecord
  2
*G34
340
0
102
{BLKREFS
331
4E4
102
}
  0
BLOCK_RECORD
  5
5C4
330
1
100
AcDbSymbolTableRecord
100
AcDbBlockTableRecord
  2
*G35
340
0
102
{BLKREFS
331
5CA
102
}
  0
BLOCK_RECORD
  5
5CC
330
1
100
AcDbSymbolTableRecord
100
AcDbBlockTableRecord
  2
*G36
340
0
102
{BLKREFS
331
5D2
102
}
  0
BLOCK_RECORD
  5
5D3
330
1
100
AcDbSymbolTableRecord
100
AcDbBlockTableRecord
  2
*G37
340
0
102
{BLKREFS
331
5D9
102
}
  0
BLOCK_RECORD
  5
5DB
330
1
100
AcDbSymbolTableRecord
100
AcDbBlockTableRecord
  2
*G38
340
0
102
{BLKREFS
331
5E1
102
}
  0
BLOCK_RECORD
  5
5E2
330
1
100
AcDbSymbolTableRecord
100
AcDbBlockTableRecord
  2
*G39
340
0
102
{BLKREFS
331
5E8
102
}
  0
BLOCK_RECORD
  5
5EA
330
1
100
AcDbSymbolTableRecord
100
AcDbBlockTableRecord
  2
*G40
340
0
102
{BLKREFS
331
5F0
102
}
  0
BLOCK_RECORD
  5
5F1
330
1
100
AcDbSymbolTableRecord
100
AcDbBlockTableRecord
  2
*G41
340
0
102
{BLKREFS
331
5F7
102
}
  0
BLOCK_RECORD
  5
5F9
330
1
100
AcDbSymbolTableRecord
100
AcDbBlockTableRecord
  2
*G42
340
0
102
{BLKREFS
331
5FF
102
}
  0
BLOCK_RECORD
  5
600
330
1
100
AcDbSymbolTableRecord
100
AcDbBlockTableRecord
  2
*G43
340
0
102
{BLKREFS
331
606
102
}
  0
BLOCK_RECORD
  5
608
330
1
100
AcDbSymbolTableRecord
100
AcDbBlockTableRecord
  2
*G44
340
0
102
{BLKREFS
331
60E
102
}
  0
BLOCK_RECORD
  5
60F
330
1
100
AcDbSymbolTableRecord
100
AcDbBlockTableRecord
  2
*G45
340
0
102
{BLKREFS
331
615
102
}
  0
BLOCK_RECORD
  5
617
330
1
100
AcDbSymbolTableRecord
100
AcDbBlockTableRecord
  2
*G46
340
0
102
{BLKREFS
331
61D
102
}
  0
BLOCK_RECORD
  5
61E
330
1
100
AcDbSymbolTableRecord
100
AcDbBlockTableRecord
  2
*G47
340
0
102
{BLKREFS
331
624
102
}
  0
BLOCK_RECORD
  5
626
330
1
100
AcDbSymbolTableRecord
100
AcDbBlockTableRecord
  2
*G48
340
0
102
{BLKREFS
331
62C
102
}
  0
BLOCK_RECORD
  5
62E
330
1
100
AcDbSymbolTableRecord
100
AcDbBlockTableRecord
  2
*G49
340
0
102
{BLKREFS
331
634
102
}
  0
BLOCK_RECORD
  5
6CD
330
1
100
AcDbSymbolTableRecord
100
AcDbBlockTableRecord
  2
*G50
340
0
102
{BLKREFS
331
6D3
102
}
  0
BLOCK_RECORD
  5
6D4
330
1
100
AcDbSymbolTableRecord
100
AcDbBlockTableRecord
  2
*G51
340
0
102
{BLKREFS
331
6DA
102
}
  0
BLOCK_RECORD
  5
6DC
330
1
100
AcDbSymbolTableRecord
100
AcDbBlockTableRecord
  2
*G52
340
0
102
{BLKREFS
331
6E2
102
}
  0
BLOCK_RECORD
  5
6E3
330
1
100
AcDbSymbolTableRecord
100
AcDbBlockTableRecord
  2
*G53
340
0
102
{BLKREFS
331
6E9
102
}
  0
BLOCK_RECORD
  5
6EB
330
1
100
AcDbSymbolTableRecord
100
AcDbBlockTableRecord
  2
*G54
340
0
102
{BLKREFS
331
6F1
102
}
  0
BLOCK_RECORD
  5
6F2
330
1
100
AcDbSymbolTableRecord
100
AcDbBlockTableRecord
  2
*G55
340
0
102
{BLKREFS
331
6F8
102
}
  0
BLOCK_RECORD
  5
6FA
330
1
100
AcDbSymbolTableRecord
100
AcDbBlockTableRecord
  2
*G56
340
0
102
{BLKREFS
331
700
102
}
  0
BLOCK_RECORD
  5
701
330
1
100
AcDbSymbolTableRecord
100
AcDbBlockTableRecord
  2
*G57
340
0
102
{BLKREFS
331
707
102
}
  0
BLOCK_RECORD
  5
70F
330
1
100
AcDbSymbolTableRecord
100
AcDbBlockTableRecord
  2
*G58
340
0
102
{BLKREFS
331
715
102
}
  0
ENDTAB
  0
ENDSEC
  0
SECTION
  2
BLOCKS
  0
BLOCK
  5
20
330
1F
100
AcDbEntity
  8
0
100
AcDbBlockBegin
  2
*Model_Space
 70
     0
 71
     0
 10
0.0
 20
0.0
 30
0.0
  3
*Model_Space
  1

  0
ENDBLK
  5
21
330
1F
100
AcDbEntity
  8
0
100
AcDbBlockEnd
  0
BLOCK
  5
1C
330
1B
100
AcDbEntity
 67
     1
  8
0
100
AcDbBlockBegin
  2
*Paper_Space
 70
     0
 71
     0
 10
0.0
 20
0.0
 30
0.0
  3
*Paper_Space
  1

  0
ENDBLK
  5
1D
330
1B
100
AcDbEntity
 67
     1
  8
0
100
AcDbBlockEnd
  0
BLOCK
  5
24
330
23
100
AcDbEntity
  8
0
100
AcDbBlockBegin
  2
*Paper_Space0
 70
     0
 71
     0
 10
0.0
 20
0.0
 30
0.0
  3
*Paper_Space0
  1

  0
ENDBLK
  5
25
330
23
100
AcDbEntity
  8
0
100
AcDbBlockEnd
  0
BLOCK
  5
30
330
2D
100
AcDbEntity
  8
0
100
AcDbBlockBegin
  2
_ORIGIN
 70
     0
 71
     0
 10
0.0
 20
0.0
 30
0.0
  3
_ORIGIN
  1

  0
CIRCLE
  5
2E
330
2D
100
AcDbEntity
  8
0
100
AcDbCircle
 10
0.0
 20
0.0
 30
0.0
 40
0.5
  0
LINE
  5
2F
330
2D
100
AcDbEntity
  8
0
100
AcDbLine
 10
0.0
 20
0.0
 30
0.0
 11
-1.0
 21
0.0
 31
0.0
  0
ENDBLK
  5
31
330
2D
100
AcDbEntity
  8
0
100
AcDbBlockEnd
  0
BLOCK
  5
35
330
32
100
AcDbEntity
  8
0
100
AcDbBlockBegin
  2
_DOTBLANK
 70
     0
 71
     0
 10
0.0
 20
0.0
 30
0.0
  3
_DOTBLANK
  1

  0
CIRCLE
  5
33
330
32
100
AcDbEntity
  8
0
100
AcDbCircle
 10
0.0
 20
0.0
 30
0.0
 40
0.5
  0
LINE
  5
34
330
32
100
AcDbEntity
  8
0
100
AcDbLine
 10
-0.5
 20
0.0
 30
0.0
 11
-1.0
 21
0.0
 31
0.0
  0
ENDBLK
  5
36
330
32
100
AcDbEntity
  8
0
100
AcDbBlockEnd
  0
BLOCK
  5
3A
330
37
100
AcDbEntity
  8
0
100
AcDbBlockBegin
  2
_DOT
 70
     0
 71
     0
 10
0.0
 20
0.0
 30
0.0
  3
_DOT
  1

  0
LWPOLYLINE
  5
38
330
37
100
AcDbEntity
  8
0
100
AcDbPolyline
 90
        2
 70
     1
 43
0.5
 10
-0.25
 20
0.0
 42
1.0
 10
0.25
 20
0.0
 42
1.0
  0
LINE
  5
39
330
37
100
AcDbEntity
  8
0
100
AcDbLine
 10
-0.5
 20
0.0
 30
0.0
 11
-1.0
 21
0.0
 31
0.0
  0
ENDBLK
  5
3B
330
37
100
AcDbEntity
  8
0
100
AcDbBlockEnd
  0
BLOCK
  5
40
330
3C
100
AcDbEntity
  8
0
100
AcDbBlockBegin
  2
_OPEN
 70
     0
 71
     0
 10
0.0
 20
0.0
 30
0.0
  3
_OPEN
  1

  0
LINE
  5
3D
330
3C
100
AcDbEntity
  8
0
100
AcDbLine
 10
-1.0
 20
0.1666666666666667
 30
0.0
 11
0.0
 21
0.0
 31
0.0
  0
LINE
  5
3E
330
3C
100
AcDbEntity
  8
0
100
AcDbLine
 10
-1.0
 20
-0.1666666666666667
 30
0.0
 11
0.0
 21
0.0
 31
0.0
  0
LINE
  5
3F
330
3C
100
AcDbEntity
  8
0
100
AcDbLine
 10
0.0
 20
0.0
 30
0.0
 11
-1.0
 21
0.0
 31
0.0
  0
ENDBLK
  5
41
330
3C
100
AcDbEntity
  8
0
100
AcDbBlockEnd
  0
BLOCK
  5
47
330
42
100
AcDbEntity
  8
0
100
AcDbBlockBegin
  2
_CLOSED
 70
     0
 71
     0
 10
0.0
 20
0.0
 30
0.0
  3
_CLOSED
  1

  0
LINE
  5
43
330
42
100
AcDbEntity
  8
0
100
AcDbLine
 10
-1.0
 20
0.1666666666666667
 30
0.0
 11
0.0
 21
0.0
 31
0.0
  0
LINE
  5
44
330
42
100
AcDbEntity
  8
0
100
AcDbLine
 10
0.0
 20
0.0
 30
0.0
 11
-1.0
 21
-0.1666666666666667
 31
0.0
  0
LINE
  5
45
330
42
100
AcDbEntity
  8
0
100
AcDbLine
 10
-1.0
 20
0.1666666666666667
 30
0.0
 11
-1.0
 21
-0.1666666666666667
 31
0.0
  0
LINE
  5
46
330
42
100
AcDbEntity
  8
0
100
AcDbLine
 10
0.0
 20
0.0
 30
0.0
 11
-1.0
 21
0.0
 31
0.0
  0
ENDBLK
  5
48
330
42
100
AcDbEntity
  8
0
100
AcDbBlockEnd
  0
BLOCK
  5
4D
330
49
100
AcDbEntity
  8
0
100
AcDbBlockBegin
  2
_CLOSEDBLANK
 70
     0
 71
     0
 10
0.0
 20
0.0
 30
0.0
  3
_CLOSEDBLANK
  1

  0
LINE
  5
4A
330
49
100
AcDbEntity
  8
0
100
AcDbLine
 10
-1.0
 20
0.1666666666666667
 30
0.0
 11
0.0
 21
0.0
 31
0.0
  0
LINE
  5
4B
330
49
100
AcDbEntity
  8
0
100
AcDbLine
 10
0.0
 20
0.0
 30
0.0
 11
-1.0
 21
-0.1666666666666667
 31
0.0
  0
LINE
  5
4C
330
49
100
AcDbEntity
  8
0
100
AcDbLine
 10
-1.0
 20
0.1666666666666667
 30
0.0
 11
-1.0
 21
-0.1666666666666667
 31
0.0
  0
ENDBLK
  5
4E
330
49
100
AcDbEntity
  8
0
100
AcDbBlockEnd
  0
BLOCK
  5
55
330
4F
100
AcDbEntity
  8
0
100
AcDbBlockBegin
  2
_BOXBLANK
 70
     0
 71
     0
 10
0.0
 20
0.0
 30
0.0
  3
_BOXBLANK
  1

  0
LINE
  5
50
330
4F
100
AcDbEntity
  8
0
100
AcDbLine
 10
-0.5
 20
-0.5
 30
0.0
 11
0.5
 21
-0.5
 31
0.0
  0
LINE
  5
51
330
4F
100
AcDbEntity
  8
0
100
AcDbLine
 10
0.5
 20
-0.5
 30
0.0
 11
0.5
 21
0.5
 31
0.0
  0
LINE
  5
52
330
4F
100
AcDbEntity
  8
0
100
AcDbLine
 10
0.5
 20
0.5
 30
0.0
 11
-0.5
 21
0.5
 31
0.0
  0
LINE
  5
53
330
4F
100
AcDbEntity
  8
0
100
AcDbLine
 10
-0.5
 20
0.5
 30
0.0
 11
-0.5
 21
-0.5
 31
0.0
  0
LINE
  5
54
330
4F
100
AcDbEntity
  8
0
100
AcDbLine
 10
-0.5
 20
0.0
 30
0.0
 11
-1.0
 21
0.0
 31
0.0
  0
ENDBLK
  5
56
330
4F
100
AcDbEntity
  8
0
100
AcDbBlockEnd
  0
BLOCK
  5
5A
330
57
100
AcDbEntity
  8
0
100
AcDbBlockBegin
  2
_BOXFILLED
 70
     0
 71
     0
 10
0.0
 20
0.0
 30
0.0
  3
_BOXFILLED
  1

  0
SOLID
  5
58
330
57
100
AcDbEntity
  8
0
100
AcDbTrace
 10
-0.5
 20
0.5
 30
0.0
 11
0.5
 21
0.5
 31
0.0
 12
-0.5
 22
-0.5
 32
0.0
 13
0.5
 23
-0.5
 33
0.0
  0
LINE
  5
59
330
57
100
AcDbEntity
  8
0
100
AcDbLine
 10
-0.5
 20
0.0
 30
0.0
 11
-1.0
 21
0.0
 31
0.0
  0
ENDBLK
  5
5B
330
57
100
AcDbEntity
  8
0
100
AcDbBlockEnd
  0
BLOCK
  5
5F
330
5C
100
AcDbEntity
  8
0
100
AcDbBlockBegin
  2
_INTEGRAL
 70
     0
 71
     0
 10
0.0
 20
0.0
 30
0.0
  3
_INTEGRAL
  1

  0
ARC
  5
5D
330
5C
100
AcDbEntity
  8
0
100
AcDbCircle
 10
0.444888
 20
-0.0913346
 30
0.0
 40
0.4541666
100
AcDbArc
 50
5844.169510334396
 51
9625.69095819783
  0
ARC
  5
5E
330
5C
100
AcDbEntity
  8
0
100
AcDbCircle
 10
-0.444888
 20
0.0913346
 30
0.0
 40
0.4541666
100
AcDbArc
 50
16157.40982268921
 51
19938.93127055265
  0
ENDBLK
  5
60
330
5C
100
AcDbEntity
  8
0
100
AcDbBlockEnd
  0
BLOCK
  5
63
330
61
100
AcDbEntity
  8
0
100
AcDbBlockBegin
  2
_OBLIQUE
 70
     0
 71
     0
 10
0.0
 20
0.0
 30
0.0
  3
_OBLIQUE
  1

  0
LINE
  5
62
330
61
100
AcDbEntity
  8
0
100
AcDbLine
 10
-0.5
 20
-0.5
 30
0.0
 11
0.5
 21
0.5
 31
0.0
  0
ENDBLK
  5
64
330
61
100
AcDbEntity
  8
0
100
AcDbBlockEnd
  0
BLOCK
  5
66
330
65
100
AcDbEntity
  8
0
100
AcDbBlockBegin
  2
_NONE
 70
     0
 71
     0
 10
0.0
 20
0.0
 30
0.0
  3
_NONE
  1

  0
ENDBLK
  5
67
330
65
100
AcDbEntity
  8
0
100
AcDbBlockEnd
  0
BLOCK
  5
301
330
300
100
AcDbEntity
  8
0
100
AcDbBlockBegin
  2
*G12
 70
     1
 71
     0
 10
0.0
 20
0.0
 30
0.0
  3
*G12
  1

  0
LINE
  5
303
330
300
100
AcDbEntity
  8
5
  6
Continuous
 62
     3
370
     9
100
AcDbLine
 10
336.7568315585095
 20
304.5640946539233
 30
0.0
 11
333.7568287706851
 21
305.3679393498945
 31
0.0
  0
LINE
  5
304
330
300
100
AcDbEntity
  8
5
  6
Continuous
 62
     3
370
     9
100
AcDbLine
 10
333.7568287706851
 20
305.3679393498945
 30
0.0
 11
336.7568315585095
 21
306.1717840458658
 31
0.0
  0
LINE
  5
305
330
300
100
AcDbEntity
  8
5
  6
Continuous
 62
     3
370
     9
100
AcDbLine
 10
333.7568287706851
 20
305.3679393498945
 30
0.0
 11
336.7568315585095
 21
305.3679393498945
 31
0.0
  0
ENDBLK
  5
302
330
300
100
AcDbEntity
  8
0
100
AcDbBlockEnd
  0
BLOCK
  5
308
330
307
100
AcDbEntity
  8
0
100
AcDbBlockBegin
  2
*G13
 70
     1
 71
     0
 10
0.0
 20
0.0
 30
0.0
  3
*G13
  1

  0
LINE
  5
30A
330
307
100
AcDbEntity
  8
5
  6
Continuous
 62
     3
370
     9
100
AcDbLine
 10
390.7568259828607
 20
306.1717840458658
 30
0.0
 11
393.7568287706851
 21
305.3679393498945
 31
0.0
  0
LINE
  5
30B
330
307
100
AcDbEntity
  8
5
  6
Continuous
 62
     3
370
     9
100
AcDbLine
 10
393.7568287706851
 20
305.3679393498945
 30
0.0
 11
390.7568259828607
 21
304.5640946539233
 31
0.0
  0
LINE
  5
30C
330
307
100
AcDbEntity
  8
5
  6
Continuous
 62
     3
370
     9
100
AcDbLine
 10
393.7568287706851
 20
305.3679393498945
 30
0.0
 11
390.7568259828607
 21
305.3679393498945
 31
0.0
  0
ENDBLK
  5
309
330
307
100
AcDbEntity
  8
0
100
AcDbBlockEnd
  0
BLOCK
  5
310
330
30F
100
AcDbEntity
  8
0
100
AcDbBlockBegin
  2
*G14
 70
     1
 71
     0
 10
0.0
 20
0.0
 30
0.0
  3
*G14
  1

  0
LINE
  5
312
330
30F
100
AcDbEntity
  8
5
  6
Continuous
 62
     3
370
     9
100
AcDbLine
 10
401.7668842389378
 20
296.8348679154256
 30
0.0
 11
402.5707289349091
 21
299.83487070325
 31
0.0
  0
LINE
  5
313
330
30F
100
AcDbEntity
  8
5
  6
Continuous
 62
     3
370
     9
100
AcDbLine
 10
402.5707289349091
 20
299.83487070325
 30
0.0
 11
403.3745736308803
 21
296.8348679154256
 31
0.0
  0
LINE
  5
314
330
30F
100
AcDbEntity
  8
5
  6
Continuous
 62
     3
370
     9
100
AcDbLine
 10
402.5707289349091
 20
299.83487070325
 30
0.0
 11
402.5707289349091
 21
296.8348679154256
 31
0.0
  0
ENDBLK
  5
311
330
30F
100
AcDbEntity
  8
0
100
AcDbBlockEnd
  0
BLOCK
  5
317
330
316
100
AcDbEntity
  8
0
100
AcDbBlockBegin
  2
*G15
 70
     1
 71
     0
 10
0.0
 20
0.0
 30
0.0
  3
*G15
  1

  0
LINE
  5
319
330
316
100
AcDbEntity
  8
5
  6
Continuous
 62
     3
370
     9
100
AcDbLine
 10
403.3745736308803
 20
289.8348734910743
 30
0.0
 11
402.5707289349091
 21
286.83487070325
 31
0.0
  0
LINE
  5
31A
330
316
100
AcDbEntity
  8
5
  6
Continuous
 62
     3
370
     9
100
AcDbLine
 10
402.5707289349091
 20
286.83487070325
 30
0.0
 11
401.7668842389378
 21
289.8348734910743
 31
0.0
  0
LINE
  5
31B
330
316
100
AcDbEntity
  8
5
  6
Continuous
 62
     3
370
     9
100
AcDbLine
 10
402.5707289349091
 20
286.83487070325
 30
0.0
 11
402.5707289349091
 21
289.8348734910743
 31
0.0
  0
ENDBLK
  5
318
330
316
100
AcDbEntity
  8
0
100
AcDbBlockEnd
  0
BLOCK
  5
31F
330
31E
100
AcDbEntity
  8
0
100
AcDbBlockBegin
  2
*G16
 70
     1
 71
     0
 10
0.0
 20
0.0
 30
0.0
  3
*G16
  1

  0
LINE
  5
321
330
31E
100
AcDbEntity
  8
5
  6
Continuous
 62
     3
370
     9
100
AcDbLine
 10
436.0747138059212
 20
245.9848734910743
 30
0.0
 11
435.27086910995
 21
242.9848707032499
 31
0.0
  0
LINE
  5
322
330
31E
100
AcDbEntity
  8
5
  6
Continuous
 62
     3
370
     9
100
AcDbLine
 10
435.27086910995
 20
242.9848707032499
 30
0.0
 11
434.4670244139788
 21
245.9848734910743
 31
0.0
  0
LINE
  5
323
330
31E
100
AcDbEntity
  8
5
  6
Continuous
 62
     3
370
     9
100
AcDbLine
 10
435.27086910995
 20
242.9848707032499
 30
0.0
 11
435.27086910995
 21
245.9848734910743
 31
0.0
  0
ENDBLK
  5
320
330
31E
100
AcDbEntity
  8
0
100
AcDbBlockEnd
  0
BLOCK
  5
326
330
325
100
AcDbEntity
  8
0
100
AcDbBlockBegin
  2
*G17
 70
     1
 71
     0
 10
0.0
 20
0.0
 30
0.0
  3
*G17
  1

  0
LINE
  5
328
330
325
100
AcDbEntity
  8
5
  6
Continuous
 62
     3
370
     9
100
AcDbLine
 10
434.4670244139788
 20
255.8348679154255
 30
0.0
 11
435.27086910995
 21
258.8348707032499
 31
0.0
  0
LINE
  5
329
330
325
100
AcDbEntity
  8
5
  6
Continuous
 62
     3
370
     9
100
AcDbLine
 10
435.27086910995
 20
258.8348707032499
 30
0.0
 11
436.0747138059212
 21
255.8348679154255
 31
0.0
  0
LINE
  5
32A
330
325
100
AcDbEntity
  8
5
  6
Continuous
 62
     3
370
     9
100
AcDbLine
 10
435.27086910995
 20
258.8348707032499
 30
0.0
 11
435.27086910995
 21
255.8348679154255
 31
0.0
  0
ENDBLK
  5
327
330
325
100
AcDbEntity
  8
0
100
AcDbBlockEnd
  0
BLOCK
  5
32E
330
32D
100
AcDbEntity
  8
0
100
AcDbBlockBegin
  2
*G18
 70
     1
 71
     0
 10
0.0
 20
0.0
 30
0.0
  3
*G18
  1

  0
LINE
  5
330
330
32D
100
AcDbEntity
  8
5
  6
Continuous
 62
     3
370
     9
100
AcDbLine
 10
436.0747138059212
 20
261.8348734910743
 30
0.0
 11
435.27086910995
 21
258.8348707032499
 31
0.0
  0
LINE
  5
331
330
32D
100
AcDbEntity
  8
5
  6
Continuous
 62
     3
370
     9
100
AcDbLine
 10
435.27086910995
 20
258.8348707032499
 30
0.0
 11
434.4670244139788
 21
261.8348734910743
 31
0.0
  0
LINE
  5
332
330
32D
100
AcDbEntity
  8
5
  6
Continuous
 62
     3
370
     9
100
AcDbLine
 10
435.27086910995
 20
258.8348707032499
 30
0.0
 11
435.27086910995
 21
261.8348734910743
 31
0.0
  0
ENDBLK
  5
32F
330
32D
100
AcDbEntity
  8
0
100
AcDbBlockEnd
  0
BLOCK
  5
335
330
334
100
AcDbEntity
  8
0
100
AcDbBlockBegin
  2
*G19
 70
     1
 71
     0
 10
0.0
 20
0.0
 30
0.0
  3
*G19
  1

  0
LINE
  5
337
330
334
100
AcDbEntity
  8
5
  6
Continuous
 62
     3
370
     9
100
AcDbLine
 10
434.4670244139788
 20
296.8348679154256
 30
0.0
 11
435.27086910995
 21
299.83487070325
 31
0.0
  0
LINE
  5
338
330
334
100
AcDbEntity
  8
5
  6
Continuous
 62
     3
370
     9
100
AcDbLine
 10
435.27086910995
 20
299.83487070325
 30
0.0
 11
436.0747138059212
 21
296.8348679154256
 31
0.0
  0
LINE
  5
339
330
334
100
AcDbEntity
  8
5
  6
Continuous
 62
     3
370
     9
100
AcDbLine
 10
435.27086910995
 20
299.83487070325
 30
0.0
 11
435.27086910995
 21
296.8348679154256
 31
0.0
  0
ENDBLK
  5
336
330
334
100
AcDbEntity
  8
0
100
AcDbBlockEnd
  0
BLOCK
  5
33D
330
33C
100
AcDbEntity
  8
0
100
AcDbBlockBegin
  2
*G20
 70
     1
 71
     0
 10
0.0
 20
0.0
 30
0.0
  3
*G20
  1

  0
LINE
  5
33F
330
33C
100
AcDbEntity
  8
5
  6
Continuous
 62
     3
370
     9
100
AcDbLine
 10
440.4670244139788
 20
296.8348679154256
 30
0.0
 11
441.27086910995
 21
299.83487070325
 31
0.0
  0
LINE
  5
340
330
33C
100
AcDbEntity
  8
5
  6
Continuous
 62
     3
370
     9
100
AcDbLine
 10
441.27086910995
 20
299.83487070325
 30
0.0
 11
442.0747138059212
 21
296.8348679154256
 31
0.0
  0
LINE
  5
341
330
33C
100
AcDbEntity
  8
5
  6
Continuous
 62
     3
370
     9
100
AcDbLine
 10
441.27086910995
 20
299.83487070325
 30
0.0
 11
441.27086910995
 21
296.8348679154256
 31
0.0
  0
ENDBLK
  5
33E
330
33C
100
AcDbEntity
  8
0
100
AcDbBlockEnd
  0
BLOCK
  5
344
330
343
100
AcDbEntity
  8
0
100
AcDbBlockBegin
  2
*G21
 70
     1
 71
     0
 10
0.0
 20
0.0
 30
0.0
  3
*G21
  1

  0
LINE
  5
346
330
343
100
AcDbEntity
  8
5
  6
Continuous
 62
     3
370
     9
100
AcDbLine
 10
442.0747138059212
 20
245.9848734910743
 30
0.0
 11
441.27086910995
 21
242.9848707032499
 31
0.0
  0
LINE
  5
347
330
343
100
AcDbEntity
  8
5
  6
Continuous
 62
     3
370
     9
100
AcDbLine
 10
441.27086910995
 20
242.9848707032499
 30
0.0
 11
440.4670244139788
 21
245.9848734910743
 31
0.0
  0
LINE
  5
348
330
343
100
AcDbEntity
  8
5
  6
Continuous
 62
     3
370
     9
100
AcDbLine
 10
441.27086910995
 20
242.9848707032499
 30
0.0
 11
441.27086910995
 21
245.9848734910743
 31
0.0
  0
ENDBLK
  5
345
330
343
100
AcDbEntity
  8
0
100
AcDbBlockEnd
  0
BLOCK
  5
34C
330
34B
100
AcDbEntity
  8
0
100
AcDbBlockBegin
  2
*G22
 70
     1
 71
     0
 10
0.0
 20
0.0
 30
0.0
  3
*G22
  1

  0
LINE
  5
34E
330
34B
100
AcDbEntity
  8
5
  6
Continuous
 62
     3
370
     9
100
AcDbLine
 10
308.9068315585094
 20
226.3039522961405
 30
0.0
 11
305.906828770685
 21
227.1077969921117
 31
0.0
  0
LINE
  5
34F
330
34B
100
AcDbEntity
  8
5
  6
Continuous
 62
     3
370
     9
100
AcDbLine
 10
305.906828770685
 20
227.1077969921117
 30
0.0
 11
308.9068315585094
 21
227.9116416880829
 31
0.0
  0
LINE
  5
350
330
34B
100
AcDbEntity
  8
5
  6
Continuous
 62
     3
370
     9
100
AcDbLine
 10
305.906828770685
 20
227.1077969921117
 30
0.0
 11
308.9068315585094
 21
227.1077969921117
 31
0.0
  0
ENDBLK
  5
34D
330
34B
100
AcDbEntity
  8
0
100
AcDbBlockEnd
  0
BLOCK
  5
353
330
352
100
AcDbEntity
  8
0
100
AcDbBlockBegin
  2
*G23
 70
     1
 71
     0
 10
0.0
 20
0.0
 30
0.0
  3
*G23
  1

  0
LINE
  5
355
330
352
100
AcDbEntity
  8
5
  6
Continuous
 62
     3
370
     9
100
AcDbLine
 10
360.7568259828607
 20
227.9116416880829
 30
0.0
 11
363.7568287706851
 21
227.1077969921117
 31
0.0
  0
LINE
  5
356
330
352
100
AcDbEntity
  8
5
  6
Continuous
 62
     3
370
     9
100
AcDbLine
 10
363.7568287706851
 20
227.1077969921117
 30
0.0
 11
360.7568259828607
 21
226.3039522961405
 31
0.0
  0
LINE
  5
357
330
352
100
AcDbEntity
  8
5
  6
Continuous
 62
     3
370
     9
100
AcDbLine
 10
363.7568287706851
 20
227.1077969921117
 30
0.0
 11
360.7568259828607
 21
227.1077969921117
 31
0.0
  0
ENDBLK
  5
354
330
352
100
AcDbEntity
  8
0
100
AcDbBlockEnd
  0
BLOCK
  5
35B
330
35A
100
AcDbEntity
  8
0
100
AcDbBlockBegin
  2
*G24
 70
     1
 71
     0
 10
0.0
 20
0.0
 30
0.0
  3
*G24
  1

  0
LINE
  5
35D
330
35A
100
AcDbEntity
  8
5
  6
Continuous
 62
     3
370
     9
100
AcDbLine
 10
308.9068315585094
 20
218.3039522961405
 30
0.0
 11
305.906828770685
 21
219.1077969921117
 31
0.0
  0
LINE
  5
35E
330
35A
100
AcDbEntity
  8
5
  6
Continuous
 62
     3
370
     9
100
AcDbLine
 10
305.906828770685
 20
219.1077969921117
 30
0.0
 11
308.9068315585094
 21
219.9116416880829
 31
0.0
  0
LINE
  5
35F
330
35A
100
AcDbEntity
  8
5
  6
Continuous
 62
     3
370
     9
100
AcDbLine
 10
305.906828770685
 20
219.1077969921117
 30
0.0
 11
308.9068315585094
 21
219.1077969921117
 31
0.0
  0
ENDBLK
  5
35C
330
35A
100
AcDbEntity
  8
0
100
AcDbBlockEnd
  0
BLOCK
  5
362
330
361
100
AcDbEntity
  8
0
100
AcDbBlockBegin
  2
*G25
 70
     1
 71
     0
 10
0.0
 20
0.0
 30
0.0
  3
*G25
  1

  0
LINE
  5
364
330
361
100
AcDbEntity
  8
5
  6
Continuous
 62
     3
370
     9
100
AcDbLine
 10
418.2568259828615
 20
219.9116416880829
 30
0.0
 11
421.2568287706859
 21
219.1077969921117
 31
0.0
  0
LINE
  5
365
330
361
100
AcDbEntity
  8
5
  6
Continuous
 62
     3
370
     9
100
AcDbLine
 10
421.2568287706859
 20
219.1077969921117
 30
0.0
 11
418.2568259828615
 21
218.3039522961405
 31
0.0
  0
LINE
  5
366
330
361
100
AcDbEntity
  8
5
  6
Continuous
 62
     3
370
     9
100
AcDbLine
 10
421.2568287706859
 20
219.1077969921117
 30
0.0
 11
418.2568259828615
 21
219.1077969921117
 31
0.0
  0
ENDBLK
  5
363
330
361
100
AcDbEntity
  8
0
100
AcDbBlockEnd
  0
BLOCK
  5
36A
330
369
100
AcDbEntity
  8
0
100
AcDbBlockBegin
  2
*G26
 70
     1
 71
     0
 10
0.0
 20
0.0
 30
0.0
  3
*G26
  1

  0
LINE
  5
36C
330
369
100
AcDbEntity
  8
5
  6
Continuous
 62
     3
370
     9
100
AcDbLine
 10
314.9568315585094
 20
234.8039522961405
 30
0.0
 11
311.956828770685
 21
235.6077969921117
 31
0.0
  0
LINE
  5
36D
330
369
100
AcDbEntity
  8
5
  6
Continuous
 62
     3
370
     9
100
AcDbLine
 10
311.956828770685
 20
235.6077969921117
 30
0.0
 11
314.9568315585094
 21
236.4116416880829
 31
0.0
  0
LINE
  5
36E
330
369
100
AcDbEntity
  8
5
  6
Continuous
 62
     3
370
     9
100
AcDbLine
 10
311.956828770685
 20
235.6077969921117
 30
0.0
 11
314.9568315585094
 21
235.6077969921117
 31
0.0
  0
ENDBLK
  5
36B
330
369
100
AcDbEntity
  8
0
100
AcDbBlockEnd
  0
BLOCK
  5
371
330
370
100
AcDbEntity
  8
0
100
AcDbBlockBegin
  2
*G27
 70
     1
 71
     0
 10
0.0
 20
0.0
 30
0.0
  3
*G27
  1

  0
LINE
  5
373
330
370
100
AcDbEntity
  8
5
  6
Continuous
 62
     3
370
     9
100
AcDbLine
 10
360.7568259828607
 20
236.4116416880829
 30
0.0
 11
363.7568287706851
 21
235.6077969921117
 31
0.0
  0
LINE
  5
374
330
370
100
AcDbEntity
  8
5
  6
Continuous
 62
     3
370
     9
100
AcDbLine
 10
363.7568287706851
 20
235.6077969921117
 30
0.0
 11
360.7568259828607
 21
234.8039522961405
 31
0.0
  0
LINE
  5
375
330
370
100
AcDbEntity
  8
5
  6
Continuous
 62
     3
370
     9
100
AcDbLine
 10
363.7568287706851
 20
235.6077969921117
 30
0.0
 11
360.7568259828607
 21
235.6077969921117
 31
0.0
  0
ENDBLK
  5
372
330
370
100
AcDbEntity
  8
0
100
AcDbBlockEnd
  0
BLOCK
  5
379
330
378
100
AcDbEntity
  8
0
100
AcDbBlockBegin
  2
*G28
 70
     1
 71
     0
 10
0.0
 20
0.0
 30
0.0
  3
*G28
  1

  0
LINE
  5
37B
330
378
100
AcDbEntity
  8
5
  6
Continuous
 62
     3
370
     9
100
AcDbLine
 10
366.7568315585095
 20
226.3039522961405
 30
0.0
 11
363.7568287706851
 21
227.1077969921117
 31
0.0
  0
LINE
  5
37C
330
378
100
AcDbEntity
  8
5
  6
Continuous
 62
     3
370
     9
100
AcDbLine
 10
363.7568287706851
 20
227.1077969921117
 30
0.0
 11
366.7568315585095
 21
227.9116416880829
 31
0.0
  0
LINE
  5
37D
330
378
100
AcDbEntity
  8
5
  6
Continuous
 62
     3
370
     9
100
AcDbLine
 10
363.7568287706851
 20
227.1077969921117
 30
0.0
 11
366.7568315585095
 21
227.1077969921117
 31
0.0
  0
ENDBLK
  5
37A
330
378
100
AcDbEntity
  8
0
100
AcDbBlockEnd
  0
BLOCK
  5
380
330
37F
100
AcDbEntity
  8
0
100
AcDbBlockBegin
  2
*G29
 70
     1
 71
     0
 10
0.0
 20
0.0
 30
0.0
  3
*G29
  1

  0
LINE
  5
382
330
37F
100
AcDbEntity
  8
5
  6
Continuous
 62
     3
370
     9
100
AcDbLine
 10
418.2568259828615
 20
227.9116416880829
 30
0.0
 11
421.2568287706859
 21
227.1077969921117
 31
0.0
  0
LINE
  5
383
330
37F
100
AcDbEntity
  8
5
  6
Continuous
 62
     3
370
     9
100
AcDbLine
 10
421.2568287706859
 20
227.1077969921117
 30
0.0
 11
418.2568259828615
 21
226.3039522961405
 31
0.0
  0
LINE
  5
384
330
37F
100
AcDbEntity
  8
5
  6
Continuous
 62
     3
370
     9
100
AcDbLine
 10
421.2568287706859
 20
227.1077969921117
 30
0.0
 11
418.2568259828615
 21
227.1077969921117
 31
0.0
  0
ENDBLK
  5
381
330
37F
100
AcDbEntity
  8
0
100
AcDbBlockEnd
  0
BLOCK
  5
388
330
387
100
AcDbEntity
  8
0
100
AcDbBlockBegin
  2
*G30
 70
     1
 71
     0
 10
0.0
 20
0.0
 30
0.0
  3
*G30
  1

  0
LINE
  5
38A
330
387
100
AcDbEntity
  8
5
  6
Continuous
 62
     3
370
     9
100
AcDbLine
 10
428.4670507829451
 20
269.3348679154255
 30
0.0
 11
429.2708954789163
 21
272.3348707032499
 31
0.0
  0
LINE
  5
38B
330
387
100
AcDbEntity
  8
5
  6
Continuous
 62
     3
370
     9
100
AcDbLine
 10
429.2708954789163
 20
272.3348707032499
 30
0.0
 11
430.0747401748876
 21
269.3348679154255
 31
0.0
  0
LINE
  5
38C
330
387
100
AcDbEntity
  8
5
  6
Continuous
 62
     3
370
     9
100
AcDbLine
 10
429.2708954789163
 20
272.3348707032499
 30
0.0
 11
429.2708954789163
 21
269.3348679154255
 31
0.0
  0
ENDBLK
  5
389
330
387
100
AcDbEntity
  8
0
100
AcDbBlockEnd
  0
BLOCK
  5
38F
330
38E
100
AcDbEntity
  8
0
100
AcDbBlockBegin
  2
*G31
 70
     1
 71
     0
 10
0.0
 20
0.0
 30
0.0
  3
*G31
  1

  0
LINE
  5
391
330
38E
100
AcDbEntity
  8
5
  6
Continuous
 62
     3
370
     9
100
AcDbLine
 10
430.0747401748876
 20
248.3348734910743
 30
0.0
 11
429.2708954789163
 21
245.3348707032499
 31
0.0
  0
LINE
  5
392
330
38E
100
AcDbEntity
  8
5
  6
Continuous
 62
     3
370
     9
100
AcDbLine
 10
429.2708954789163
 20
245.3348707032499
 30
0.0
 11
428.4670507829451
 21
248.3348734910743
 31
0.0
  0
LINE
  5
393
330
38E
100
AcDbEntity
  8
5
  6
Continuous
 62
     3
370
     9
100
AcDbLine
 10
429.2708954789163
 20
245.3348707032499
 30
0.0
 11
429.2708954789163
 21
248.3348734910743
 31
0.0
  0
ENDBLK
  5
390
330
38E
100
AcDbEntity
  8
0
100
AcDbBlockEnd
  0
BLOCK
  5
4D0
330
4CF
100
AcDbEntity
  8
0
100
AcDbBlockBegin
  2
*G32
 70
     1
 71
     0
 10
0.0
 20
0.0
 30
0.0
  3
*G32
  1

  0
LINE
  5
4D2
330
4CF
100
AcDbEntity
  8
5
  6
Continuous
 62
     3
370
     9
100
AcDbLine
 10
209.4138863482353
 20
123.2726051686184
 30
0.0
 11
208.6100416522641
 21
120.272602380794
 31
0.0
  0
LINE
  5
4D3
330
4CF
100
AcDbEntity
  8
5
  6
Continuous
 62
     3
370
     9
100
AcDbLine
 10
208.6100416522641
 20
120.272602380794
 30
0.0
 11
207.8061969562929
 21
123.2726051686184
 31
0.0
  0
LINE
  5
4D4
330
4CF
100
AcDbEntity
  8
5
  6
Continuous
 62
     3
370
     9
100
AcDbLine
 10
208.6100416522641
 20
120.272602380794
 30
0.0
 11
208.6100416522641
 21
123.2726051686184
 31
0.0
  0
ENDBLK
  5
4D1
330
4CF
100
AcDbEntity
  8
0
100
AcDbBlockEnd
  0
BLOCK
  5
4D7
330
4D6
100
AcDbEntity
  8
0
100
AcDbBlockBegin
  2
*G33
 70
     1
 71
     0
 10
0.0
 20
0.0
 30
0.0
  3
*G33
  1

  0
LINE
  5
4D9
330
4D6
100
AcDbEntity
  8
5
  6
Continuous
 62
     3
370
     9
100
AcDbLine
 10
207.8061969562929
 20
144.2725995929695
 30
0.0
 11
208.6100416522641
 21
147.2726023807939
 31
0.0
  0
LINE
  5
4DA
330
4D6
100
AcDbEntity
  8
5
  6
Continuous
 62
     3
370
     9
100
AcDbLine
 10
208.6100416522641
 20
147.2726023807939
 30
0.0
 11
209.4138863482353
 21
144.2725995929695
 31
0.0
  0
LINE
  5
4DB
330
4D6
100
AcDbEntity
  8
5
  6
Continuous
 62
     3
370
     9
100
AcDbLine
 10
208.6100416522641
 20
147.2726023807939
 30
0.0
 11
208.6100416522641
 21
144.2725995929695
 31
0.0
  0
ENDBLK
  5
4D8
330
4D6
100
AcDbEntity
  8
0
100
AcDbBlockEnd
  0
BLOCK
  5
4DF
330
4DE
100
AcDbEntity
  8
0
100
AcDbBlockBegin
  2
*G34
 70
     1
 71
     0
 10
0.0
 20
0.0
 30
0.0
  3
*G34
  1

  0
LINE
  5
4E1
330
4DE
100
AcDbEntity
  8
5
  6
Continuous
 62
     3
370
     9
100
AcDbLine
 10
219.0323861163656
 20
136.8121878224384
 30
0.0
 11
219.670432639072
 21
133.7726023807939
 31
0.0
  0
LINE
  5
4E2
330
4DE
100
AcDbEntity
  8
5
  6
Continuous
 62
     3
370
     9
100
AcDbLine
 10
219.670432639072
 20
133.7726023807939
 30
0.0
 11
217.5980806416281
 21
136.0859420058567
 31
0.0
  0
LINE
  5
4E3
330
4DE
100
AcDbEntity
  8
5
  6
Continuous
 62
     3
370
     9
100
AcDbLine
 10
219.670432639072
 20
133.7726023807939
 30
0.0
 11
218.3152333789969
 21
136.4490649141475
 31
0.0
  0
ENDBLK
  5
4E0
330
4DE
100
AcDbEntity
  8
0
100
AcDbBlockEnd
  0
BLOCK
  5
5C5
330
5C4
100
AcDbEntity
  8
0
100
AcDbBlockBegin
  2
*G35
 70
     1
 71
     0
 10
0.0
 20
0.0
 30
0.0
  3
*G35
  1

  0
LINE
  5
5C7
330
5C4
100
AcDbEntity
  8
5
  6
Continuous
 62
     3
370
     9
100
AcDbLine
 10
412.6060052492274
 20
148.927508316267
 30
0.0
 11
412.0858429293751
 21
151.9894707888001
 31
0.0
  0
LINE
  5
5C8
330
5C4
100
AcDbEntity
  8
5
  6
Continuous
 62
     3
370
     9
100
AcDbLine
 10
412.0858429293751
 20
151.9894707888001
 30
0.0
 11
414.0672925511283
 21
149.5978101902517
 31
0.0
  0
LINE
  5
5C9
330
5C4
100
AcDbEntity
  8
5
  6
Continuous
 62
     3
370
     9
100
AcDbLine
 10
412.0858429293751
 20
151.9894707888001
 30
0.0
 11
413.3366489001779
 21
149.2626592532594
 31
0.0
  0
ENDBLK
  5
5C6
330
5C4
100
AcDbEntity
  8
0
100
AcDbBlockEnd
  0
BLOCK
  5
5CD
330
5CC
100
AcDbEntity
  8
0
100
AcDbBlockBegin
  2
*G36
 70
     1
 71
     0
 10
0.0
 20
0.0
 30
0.0
  3
*G36
  1

  0
LINE
  5
5CF
330
5CC
100
AcDbEntity
  8
5
  6
Continuous
 62
     3
370
     9
100
AcDbLine
 10
427.2411011533799
 20
195.5725995929698
 30
0.0
 11
428.0449458493511
 21
198.5726023807942
 31
0.0
  0
LINE
  5
5D0
330
5CC
100
AcDbEntity
  8
5
  6
Continuous
 62
     3
370
     9
100
AcDbLine
 10
428.0449458493511
 20
198.5726023807942
 30
0.0
 11
428.8487905453223
 21
195.5725995929698
 31
0.0
  0
LINE
  5
5D1
330
5CC
100
AcDbEntity
  8
5
  6
Continuous
 62
     3
370
     9
100
AcDbLine
 10
428.0449458493511
 20
198.5726023807942
 30
0.0
 11
428.0449458493511
 21
195.5725995929698
 31
0.0
  0
ENDBLK
  5
5CE
330
5CC
100
AcDbEntity
  8
0
100
AcDbBlockEnd
  0
BLOCK
  5
5D4
330
5D3
100
AcDbEntity
  8
0
100
AcDbBlockBegin
  2
*G37
 70
     1
 71
     0
 10
0.0
 20
0.0
 30
0.0
  3
*G37
  1

  0
LINE
  5
5D6
330
5D3
100
AcDbEntity
  8
5
  6
Continuous
 62
     3
370
     9
100
AcDbLine
 10
428.8487905453223
 20
159.2726051686185
 30
0.0
 11
428.0449458493511
 21
156.2726023807941
 31
0.0
  0
LINE
  5
5D7
330
5D3
100
AcDbEntity
  8
5
  6
Continuous
 62
     3
370
     9
100
AcDbLine
 10
428.0449458493511
 20
156.2726023807941
 30
0.0
 11
427.2411011533799
 21
159.2726051686185
 31
0.0
  0
LINE
  5
5D8
330
5D3
100
AcDbEntity
  8
5
  6
Continuous
 62
     3
370
     9
100
AcDbLine
 10
428.0449458493511
 20
156.2726023807941
 30
0.0
 11
428.0449458493511
 21
159.2726051686185
 31
0.0
  0
ENDBLK
  5
5D5
330
5D3
100
AcDbEntity
  8
0
100
AcDbBlockEnd
  0
BLOCK
  5
5DC
330
5DB
100
AcDbEntity
  8
0
100
AcDbBlockBegin
  2
*G38
 70
     1
 71
     0
 10
0.0
 20
0.0
 30
0.0
  3
*G38
  1

  0
LINE
  5
5DE
330
5DB
100
AcDbEntity
  8
5
  6
Continuous
 62
     3
370
     9
100
AcDbLine
 10
427.2411011533799
 20
153.2725995929697
 30
0.0
 11
428.0449458493511
 21
156.2726023807941
 31
0.0
  0
LINE
  5
5DF
330
5DB
100
AcDbEntity
  8
5
  6
Continuous
 62
     3
370
     9
100
AcDbLine
 10
428.0449458493511
 20
156.2726023807941
 30
0.0
 11
428.8487905453223
 21
153.2725995929697
 31
0.0
  0
LINE
  5
5E0
330
5DB
100
AcDbEntity
  8
5
  6
Continuous
 62
     3
370
     9
100
AcDbLine
 10
428.0449458493511
 20
156.2726023807941
 30
0.0
 11
428.0449458493511
 21
153.2725995929697
 31
0.0
  0
ENDBLK
  5
5DD
330
5DB
100
AcDbEntity
  8
0
100
AcDbBlockEnd
  0
BLOCK
  5
5E3
330
5E2
100
AcDbEntity
  8
0
100
AcDbBlockBegin
  2
*G39
 70
     1
 71
     0
 10
0.0
 20
0.0
 30
0.0
  3
*G39
  1

  0
LINE
  5
5E5
330
5E2
100
AcDbEntity
  8
5
  6
Continuous
 62
     3
370
     9
100
AcDbLine
 10
428.8487905453223
 20
121.6726051686184
 30
0.0
 11
428.0449458493511
 21
118.672602380794
 31
0.0
  0
LINE
  5
5E6
330
5E2
100
AcDbEntity
  8
5
  6
Continuous
 62
     3
370
     9
100
AcDbLine
 10
428.0449458493511
 20
118.672602380794
 30
0.0
 11
427.2411011533799
 21
121.6726051686184
 31
0.0
  0
LINE
  5
5E7
330
5E2
100
AcDbEntity
  8
5
  6
Continuous
 62
     3
370
     9
100
AcDbLine
 10
428.0449458493511
 20
118.672602380794
 30
0.0
 11
428.0449458493511
 21
121.6726051686184
 31
0.0
  0
ENDBLK
  5
5E4
330
5E2
100
AcDbEntity
  8
0
100
AcDbBlockEnd
  0
BLOCK
  5
5EB
330
5EA
100
AcDbEntity
  8
0
100
AcDbBlockBegin
  2
*G40
 70
     1
 71
     0
 10
0.0
 20
0.0
 30
0.0
  3
*G40
  1

  0
LINE
  5
5ED
330
5EA
100
AcDbEntity
  8
5
  6
Continuous
 62
     3
370
     9
100
AcDbLine
 10
289.4029840747137
 20
197.5725995929698
 30
0.0
 11
290.206828770685
 21
200.5726023807942
 31
0.0
  0
LINE
  5
5EE
330
5EA
100
AcDbEntity
  8
5
  6
Continuous
 62
     3
370
     9
100
AcDbLine
 10
290.206828770685
 20
200.5726023807942
 30
0.0
 11
291.0106734666562
 21
197.5725995929698
 31
0.0
  0
LINE
  5
5EF
330
5EA
100
AcDbEntity
  8
5
  6
Continuous
 62
     3
370
     9
100
AcDbLine
 10
290.206828770685
 20
200.5726023807942
 30
0.0
 11
290.206828770685
 21
197.5725995929698
 31
0.0
  0
ENDBLK
  5
5EC
330
5EA
100
AcDbEntity
  8
0
100
AcDbBlockEnd
  0
BLOCK
  5
5F2
330
5F1
100
AcDbEntity
  8
0
100
AcDbBlockBegin
  2
*G41
 70
     1
 71
     0
 10
0.0
 20
0.0
 30
0.0
  3
*G41
  1

  0
LINE
  5
5F4
330
5F1
100
AcDbEntity
  8
5
  6
Continuous
 62
     3
370
     9
100
AcDbLine
 10
291.0106734666562
 20
121.6726051686184
 30
0.0
 11
290.206828770685
 21
118.672602380794
 31
0.0
  0
LINE
  5
5F5
330
5F1
100
AcDbEntity
  8
5
  6
Continuous
 62
     3
370
     9
100
AcDbLine
 10
290.206828770685
 20
118.672602380794
 30
0.0
 11
289.4029840747137
 21
121.6726051686184
 31
0.0
  0
LINE
  5
5F6
330
5F1
100
AcDbEntity
  8
5
  6
Continuous
 62
     3
370
     9
100
AcDbLine
 10
290.206828770685
 20
118.672602380794
 30
0.0
 11
290.206828770685
 21
121.6726051686184
 31
0.0
  0
ENDBLK
  5
5F3
330
5F1
100
AcDbEntity
  8
0
100
AcDbBlockEnd
  0
BLOCK
  5
5FA
330
5F9
100
AcDbEntity
  8
0
100
AcDbBlockBegin
  2
*G42
 70
     1
 71
     0
 10
0.0
 20
0.0
 30
0.0
  3
*G42
  1

  0
LINE
  5
5FC
330
5F9
100
AcDbEntity
  8
5
  6
Continuous
 62
     3
370
     9
100
AcDbLine
 10
435.2411011533799
 20
195.5725995929698
 30
0.0
 11
436.0449458493511
 21
198.5726023807942
 31
0.0
  0
LINE
  5
5FD
330
5F9
100
AcDbEntity
  8
5
  6
Continuous
 62
     3
370
     9
100
AcDbLine
 10
436.0449458493511
 20
198.5726023807942
 30
0.0
 11
436.8487905453223
 21
195.5725995929698
 31
0.0
  0
LINE
  5
5FE
330
5F9
100
AcDbEntity
  8
5
  6
Continuous
 62
     3
370
     9
100
AcDbLine
 10
436.0449458493511
 20
198.5726023807942
 30
0.0
 11
436.0449458493511
 21
195.5725995929698
 31
0.0
  0
ENDBLK
  5
5FB
330
5F9
100
AcDbEntity
  8
0
100
AcDbBlockEnd
  0
BLOCK
  5
601
330
600
100
AcDbEntity
  8
0
100
AcDbBlockBegin
  2
*G43
 70
     1
 71
     0
 10
0.0
 20
0.0
 30
0.0
  3
*G43
  1

  0
LINE
  5
603
330
600
100
AcDbEntity
  8
5
  6
Continuous
 62
     3
370
     9
100
AcDbLine
 10
436.8487905453223
 20
121.6726051686184
 30
0.0
 11
436.0449458493511
 21
118.672602380794
 31
0.0
  0
LINE
  5
604
330
600
100
AcDbEntity
  8
5
  6
Continuous
 62
     3
370
     9
100
AcDbLine
 10
436.0449458493511
 20
118.672602380794
 30
0.0
 11
435.2411011533799
 21
121.6726051686184
 31
0.0
  0
LINE
  5
605
330
600
100
AcDbEntity
  8
5
  6
Continuous
 62
     3
370
     9
100
AcDbLine
 10
436.0449458493511
 20
118.672602380794
 30
0.0
 11
436.0449458493511
 21
121.6726051686184
 31
0.0
  0
ENDBLK
  5
602
330
600
100
AcDbEntity
  8
0
100
AcDbBlockEnd
  0
BLOCK
  5
609
330
608
100
AcDbEntity
  8
0
100
AcDbBlockBegin
  2
*G44
 70
     1
 71
     0
 10
0.0
 20
0.0
 30
0.0
  3
*G44
  1

  0
LINE
  5
60B
330
608
100
AcDbEntity
  8
5
  6
Continuous
 62
     3
370
     9
100
AcDbLine
 10
345.7568315585095
 20
207.5774583213413
 30
0.0
 11
342.7568287706851
 21
208.3813030173125
 31
0.0
  0
LINE
  5
60C
330
608
100
AcDbEntity
  8
5
  6
Continuous
 62
     3
370
     9
100
AcDbLine
 10
342.7568287706851
 20
208.3813030173125
 30
0.0
 11
345.7568315585095
 21
209.1851477132837
 31
0.0
  0
LINE
  5
60D
330
608
100
AcDbEntity
  8
5
  6
Continuous
 62
     3
370
     9
100
AcDbLine
 10
342.7568287706851
 20
208.3813030173125
 30
0.0
 11
345.7568315585095
 21
208.3813030173125
 31
0.0
  0
ENDBLK
  5
60A
330
608
100
AcDbEntity
  8
0
100
AcDbBlockEnd
  0
BLOCK
  5
610
330
60F
100
AcDbEntity
  8
0
100
AcDbBlockBegin
  2
*G45
 70
     1
 71
     0
 10
0.0
 20
0.0
 30
0.0
  3
*G45
  1

  0
LINE
  5
612
330
60F
100
AcDbEntity
  8
5
  6
Continuous
 62
     3
370
     9
100
AcDbLine
 10
381.7568259828607
 20
209.1851477132837
 30
0.0
 11
384.7568287706851
 21
208.3813030173125
 31
0.0
  0
LINE
  5
613
330
60F
100
AcDbEntity
  8
5
  6
Continuous
 62
     3
370
     9
100
AcDbLine
 10
384.7568287706851
 20
208.3813030173125
 30
0.0
 11
381.7568259828607
 21
207.5774583213413
 31
0.0
  0
LINE
  5
614
330
60F
100
AcDbEntity
  8
5
  6
Continuous
 62
     3
370
     9
100
AcDbLine
 10
384.7568287706851
 20
208.3813030173125
 30
0.0
 11
381.7568259828607
 21
208.3813030173125
 31
0.0
  0
ENDBLK
  5
611
330
60F
100
AcDbEntity
  8
0
100
AcDbBlockEnd
  0
BLOCK
  5
618
330
617
100
AcDbEntity
  8
0
100
AcDbBlockBegin
  2
*G46
 70
     1
 71
     0
 10
0.0
 20
0.0
 30
0.0
  3
*G46
  1

  0
LINE
  5
61A
330
617
100
AcDbEntity
  8
5
  6
Continuous
 62
     3
370
     9
100
AcDbLine
 10
299.0106734666562
 20
159.2726051686185
 30
0.0
 11
298.206828770685
 21
156.2726023807941
 31
0.0
  0
LINE
  5
61B
330
617
100
AcDbEntity
  8
5
  6
Continuous
 62
     3
370
     9
100
AcDbLine
 10
298.206828770685
 20
156.2726023807941
 30
0.0
 11
297.4029840747137
 21
159.2726051686185
 31
0.0
  0
LINE
  5
61C
330
617
100
AcDbEntity
  8
5
  6
Continuous
 62
     3
370
     9
100
AcDbLine
 10
298.206828770685
 20
156.2726023807941
 30
0.0
 11
298.206828770685
 21
159.2726051686185
 31
0.0
  0
ENDBLK
  5
619
330
617
100
AcDbEntity
  8
0
100
AcDbBlockEnd
  0
BLOCK
  5
61F
330
61E
100
AcDbEntity
  8
0
100
AcDbBlockBegin
  2
*G47
 70
     1
 71
     0
 10
0.0
 20
0.0
 30
0.0
  3
*G47
  1

  0
LINE
  5
621
330
61E
100
AcDbEntity
  8
5
  6
Continuous
 62
     3
370
     9
100
AcDbLine
 10
297.4029840747137
 20
197.5725995929697
 30
0.0
 11
298.206828770685
 21
200.5726023807941
 31
0.0
  0
LINE
  5
622
330
61E
100
AcDbEntity
  8
5
  6
Continuous
 62
     3
370
     9
100
AcDbLine
 10
298.206828770685
 20
200.5726023807941
 30
0.0
 11
299.0106734666562
 21
197.5725995929697
 31
0.0
  0
LINE
  5
623
330
61E
100
AcDbEntity
  8
5
  6
Continuous
 62
     3
370
     9
100
AcDbLine
 10
298.206828770685
 20
200.5726023807941
 30
0.0
 11
298.206828770685
 21
197.5725995929697
 31
0.0
  0
ENDBLK
  5
620
330
61E
100
AcDbEntity
  8
0
100
AcDbBlockEnd
  0
BLOCK
  5
627
330
626
100
AcDbEntity
  8
0
100
AcDbBlockBegin
  2
*G48
 70
     1
 71
     0
 10
0.0
 20
0.0
 30
0.0
  3
*G48
  1

  0
LINE
  5
629
330
626
100
AcDbEntity
  8
5
  6
Continuous
 62
     3
370
     9
100
AcDbLine
 10
340.5978104827614
 20
123.5399306506453
 30
0.0
 11
342.7568287706851
 21
125.7726023807941
 31
0.0
  0
LINE
  5
62A
330
626
100
AcDbEntity
  8
5
  6
Continuous
 62
     3
370
     9
100
AcDbLine
 10
342.7568287706851
 20
125.7726023807941
 30
0.0
 11
342.0033931511826
 21
122.75954450059
 31
0.0
  0
LINE
  5
62B
330
626
100
AcDbEntity
  8
5
  6
Continuous
 62
     3
370
     9
100
AcDbLine
 10
342.7568287706851
 20
125.7726023807941
 30
0.0
 11
341.300601816972
 21
123.1497375756176
 31
0.0
  0
ENDBLK
  5
628
330
626
100
AcDbEntity
  8
0
100
AcDbBlockEnd
  0
BLOCK
  5
62F
330
62E
100
AcDbEntity
  8
0
100
AcDbBlockBegin
  2
*G49
 70
     1
 71
     0
 10
0.0
 20
0.0
 30
0.0
  3
*G49
  1

  0
LINE
  5
631
330
62E
100
AcDbEntity
  8
5
  6
Continuous
 62
     3
370
     9
100
AcDbLine
 10
423.2680210469771
 20
153.9058982062133
 30
0.0
 11
421.2568287706851
 21
156.2726023807941
 31
0.0
  0
LINE
  5
632
330
62E
100
AcDbEntity
  8
5
  6
Continuous
 62
     3
370
     9
100
AcDbLine
 10
421.2568287706851
 20
156.2726023807941
 30
0.0
 11
424.1819221049209
 21
155.2285659790321
 31
0.0
  0
LINE
  5
633
330
62E
100
AcDbEntity
  8
5
  6
Continuous
 62
     3
370
     9
100
AcDbLine
 10
421.2568287706851
 20
156.2726023807941
 30
0.0
 11
423.724971575949
 21
154.5672320926226
 31
0.0
  0
ENDBLK
  5
630
330
62E
100
AcDbEntity
  8
0
100
AcDbBlockEnd
  0
BLOCK
  5
6CE
330
6CD
100
AcDbEntity
  8
0
100
AcDbBlockBegin
  2
*G50
 70
     1
 71
     0
 10
0.0
 20
0.0
 30
0.0
  3
*G50
  1

  0
LINE
  5
6D0
330
6CD
100
AcDbEntity
  8
5
  6
Continuous
 62
     3
370
     9
100
AcDbLine
 10
463.1114664219477
 20
153.2725995929697
 30
0.0
 11
463.915311117919
 21
156.2726023807941
 31
0.0
  0
LINE
  5
6D1
330
6CD
100
AcDbEntity
  8
5
  6
Continuous
 62
     3
370
     9
100
AcDbLine
 10
463.915311117919
 20
156.2726023807941
 30
0.0
 11
464.7191558138902
 21
153.2725995929697
 31
0.0
  0
LINE
  5
6D2
330
6CD
100
AcDbEntity
  8
5
  6
Continuous
 62
     3
370
     9
100
AcDbLine
 10
463.915311117919
 20
156.2726023807941
 30
0.0
 11
463.915311117919
 21
153.2725995929697
 31
0.0
  0
ENDBLK
  5
6CF
330
6CD
100
AcDbEntity
  8
0
100
AcDbBlockEnd
  0
BLOCK
  5
6D5
330
6D4
100
AcDbEntity
  8
0
100
AcDbBlockBegin
  2
*G51
 70
     1
 71
     0
 10
0.0
 20
0.0
 30
0.0
  3
*G51
  1

  0
LINE
  5
6D7
330
6D4
100
AcDbEntity
  8
5
  6
Continuous
 62
     3
370
     9
100
AcDbLine
 10
464.7191558138902
 20
136.7726051686184
 30
0.0
 11
463.915311117919
 21
133.772602380794
 31
0.0
  0
LINE
  5
6D8
330
6D4
100
AcDbEntity
  8
5
  6
Continuous
 62
     3
370
     9
100
AcDbLine
 10
463.915311117919
 20
133.772602380794
 30
0.0
 11
463.1114664219477
 21
136.7726051686184
 31
0.0
  0
LINE
  5
6D9
330
6D4
100
AcDbEntity
  8
5
  6
Continuous
 62
     3
370
     9
100
AcDbLine
 10
463.915311117919
 20
133.772602380794
 30
0.0
 11
463.915311117919
 21
136.7726051686184
 31
0.0
  0
ENDBLK
  5
6D6
330
6D4
100
AcDbEntity
  8
0
100
AcDbBlockEnd
  0
BLOCK
  5
6DD
330
6DC
100
AcDbEntity
  8
0
100
AcDbBlockBegin
  2
*G52
 70
     1
 71
     0
 10
0.0
 20
0.0
 30
0.0
  3
*G52
  1

  0
LINE
  5
6DF
330
6DC
100
AcDbEntity
  8
5
  6
Continuous
 62
     3
370
     9
100
AcDbLine
 10
463.1114664219477
 20
130.7725995929696
 30
0.0
 11
463.915311117919
 21
133.772602380794
 31
0.0
  0
LINE
  5
6E0
330
6DC
100
AcDbEntity
  8
5
  6
Continuous
 62
     3
370
     9
100
AcDbLine
 10
463.915311117919
 20
133.772602380794
 30
0.0
 11
464.7191558138902
 21
130.7725995929696
 31
0.0
  0
LINE
  5
6E1
330
6DC
100
AcDbEntity
  8
5
  6
Continuous
 62
     3
370
     9
100
AcDbLine
 10
463.915311117919
 20
133.772602380794
 30
0.0
 11
463.915311117919
 21
130.7725995929696
 31
0.0
  0
ENDBLK
  5
6DE
330
6DC
100
AcDbEntity
  8
0
100
AcDbBlockEnd
  0
BLOCK
  5
6E4
330
6E3
100
AcDbEntity
  8
0
100
AcDbBlockBegin
  2
*G53
 70
     1
 71
     0
 10
0.0
 20
0.0
 30
0.0
  3
*G53
  1

  0
LINE
  5
6E6
330
6E3
100
AcDbEntity
  8
5
  6
Continuous
 62
     3
370
     9
100
AcDbLine
 10
464.7191558138902
 20
121.7726051686184
 30
0.0
 11
463.915311117919
 21
118.772602380794
 31
0.0
  0
LINE
  5
6E7
330
6E3
100
AcDbEntity
  8
5
  6
Continuous
 62
     3
370
     9
100
AcDbLine
 10
463.915311117919
 20
118.772602380794
 30
0.0
 11
463.1114664219477
 21
121.7726051686184
 31
0.0
  0
LINE
  5
6E8
330
6E3
100
AcDbEntity
  8
5
  6
Continuous
 62
     3
370
     9
100
AcDbLine
 10
463.915311117919
 20
118.772602380794
 30
0.0
 11
463.915311117919
 21
121.7726051686184
 31
0.0
  0
ENDBLK
  5
6E5
330
6E3
100
AcDbEntity
  8
0
100
AcDbBlockEnd
  0
BLOCK
  5
6EC
330
6EB
100
AcDbEntity
  8
0
100
AcDbBlockBegin
  2
*G54
 70
     1
 71
     0
 10
0.0
 20
0.0
 30
0.0
  3
*G54
  1

  0
LINE
  5
6EE
330
6EB
100
AcDbEntity
  8
5
  6
Continuous
 62
     3
370
     9
100
AcDbLine
 10
473.0653139057434
 20
207.7687576848229
 30
0.0
 11
470.065311117919
 21
208.5726023807941
 31
0.0
  0
LINE
  5
6EF
330
6EB
100
AcDbEntity
  8
5
  6
Continuous
 62
     3
370
     9
100
AcDbLine
 10
470.065311117919
 20
208.5726023807941
 30
0.0
 11
473.0653139057434
 21
209.3764470767653
 31
0.0
  0
LINE
  5
6F0
330
6EB
100
AcDbEntity
  8
5
  6
Continuous
 62
     3
370
     9
100
AcDbLine
 10
470.065311117919
 20
208.5726023807941
 30
0.0
 11
473.0653139057434
 21
208.5726023807941
 31
0.0
  0
ENDBLK
  5
6ED
330
6EB
100
AcDbEntity
  8
0
100
AcDbBlockEnd
  0
BLOCK
  5
6F3
330
6F2
100
AcDbEntity
  8
0
100
AcDbBlockBegin
  2
*G55
 70
     1
 71
     0
 10
0.0
 20
0.0
 30
0.0
  3
*G55
  1

  0
LINE
  5
6F5
330
6F2
100
AcDbEntity
  8
5
  6
Continuous
 62
     3
370
     9
100
AcDbLine
 10
498.7653083300946
 20
209.3764470767653
 30
0.0
 11
501.765311117919
 21
208.5726023807941
 31
0.0
  0
LINE
  5
6F6
330
6F2
100
AcDbEntity
  8
5
  6
Continuous
 62
     3
370
     9
100
AcDbLine
 10
501.765311117919
 20
208.5726023807941
 30
0.0
 11
498.7653083300946
 21
207.7687576848229
 31
0.0
  0
LINE
  5
6F7
330
6F2
100
AcDbEntity
  8
5
  6
Continuous
 62
     3
370
     9
100
AcDbLine
 10
501.765311117919
 20
208.5726023807941
 30
0.0
 11
498.7653083300946
 21
208.5726023807941
 31
0.0
  0
ENDBLK
  5
6F4
330
6F2
100
AcDbEntity
  8
0
100
AcDbBlockEnd
  0
BLOCK
  5
6FB
330
6FA
100
AcDbEntity
  8
0
100
AcDbBlockBegin
  2
*G56
 70
     1
 71
     0
 10
0.0
 20
0.0
 30
0.0
  3
*G56
  1

  0
LINE
  5
6FD
330
6FA
100
AcDbEntity
  8
5
  6
Continuous
 62
     3
370
     9
100
AcDbLine
 10
534.6255331301791
 20
144.2725995929695
 30
0.0
 11
535.4293778261502
 21
147.2726023807939
 31
0.0
  0
LINE
  5
6FE
330
6FA
100
AcDbEntity
  8
5
  6
Continuous
 62
     3
370
     9
100
AcDbLine
 10
535.4293778261502
 20
147.2726023807939
 30
0.0
 11
536.2332225221214
 21
144.2725995929695
 31
0.0
  0
LINE
  5
6FF
330
6FA
100
AcDbEntity
  8
5
  6
Continuous
 62
     3
370
     9
100
AcDbLine
 10
535.4293778261502
 20
147.2726023807939
 30
0.0
 11
535.4293778261502
 21
144.2725995929695
 31
0.0
  0
ENDBLK
  5
6FC
330
6FA
100
AcDbEntity
  8
0
100
AcDbBlockEnd
  0
BLOCK
  5
702
330
701
100
AcDbEntity
  8
0
100
AcDbBlockBegin
  2
*G57
 70
     1
 71
     0
 10
0.0
 20
0.0
 30
0.0
  3
*G57
  1

  0
LINE
  5
704
330
701
100
AcDbEntity
  8
5
  6
Continuous
 62
     3
370
     9
100
AcDbLine
 10
536.2332225221214
 20
123.2726051686183
 30
0.0
 11
535.4293778261502
 21
120.2726023807939
 31
0.0
  0
LINE
  5
705
330
701
100
AcDbEntity
  8
5
  6
Continuous
 62
     3
370
     9
100
AcDbLine
 10
535.4293778261502
 20
120.2726023807939
 30
0.0
 11
534.6255331301791
 21
123.2726051686183
 31
0.0
  0
LINE
  5
706
330
701
100
AcDbEntity
  8
5
  6
Continuous
 62
     3
370
     9
100
AcDbLine
 10
535.4293778261502
 20
120.2726023807939
 30
0.0
 11
535.4293778261502
 21
123.2726051686183
 31
0.0
  0
ENDBLK
  5
703
330
701
100
AcDbEntity
  8
0
100
AcDbBlockEnd
  0
BLOCK
  5
710
330
70F
100
AcDbEntity
  8
0
100
AcDbBlockBegin
  2
*G58
 70
     1
 71
     0
 10
0.0
 20
0.0
 30
0.0
  3
*G58
  1

  0
LINE
  5
712
330
70F
100
AcDbEntity
  8
5
  6
Continuous
 62
     3
370
     9
100
AcDbLine
 10
528.987663115363
 20
136.0859420058566
 30
0.0
 11
526.9153111179191
 21
133.7726023807939
 31
0.0
  0
LINE
  5
713
330
70F
100
AcDbEntity
  8
5
  6
Continuous
 62
     3
370
     9
100
AcDbLine
 10
526.9153111179191
 20
133.7726023807939
 30
0.0
 11
527.5533576406257
 21
136.8121878224384
 31
0.0
  0
LINE
  5
714
330
70F
100
AcDbEntity
  8
5
  6
Continuous
 62
     3
370
     9
100
AcDbLine
 10
526.9153111179191
 20
133.7726023807939
 30
0.0
 11
528.2705103779944
 21
136.4490649141475
 31
0.0
  0
ENDBLK
  5
711
330
70F
100
AcDbEntity
  8
0
100
AcDbBlockEnd
  0
ENDSEC
  0
SECTION
  2
ENTITIES
  0
LINE
  5
8C
330
1F
100
AcDbEntity
  8
7
  6
DASHDOT
 62
     4
370
     9
100
AcDbLine
 10
237.9731400315663
 20
250.8348707032499
 30
0.0
 11
181.120697989481
 21
250.8348707032499
 31
0.0
  0
LINE
  5
8D
330
1F
100
AcDbEntity
  8
7
  6
DASHDOT
 62
     4
370
     9
100
AcDbLine
 10
278.5562907437454
 20
228.3348707032499
 30
0.0
 11
205.5724439027941
 21
228.33487070325
 31
0.0
  0
LINE
  5
8E
330
1F
100
AcDbEntity
  8
7
  6
DASHDOT
 62
     4
370
     9
100
AcDbLine
 10
236.7684967977861
 20
250.8348707032498
 30
0.0
 11
181.1268184814339
 21
250.8348707032498
 31
0.0
  0
LINE
  5
8F
330
1F
100
AcDbEntity
  8
7
  6
DASHDOT
 62
     4
370
     9
100
AcDbLine
 10
261.5447545197233
 20
296.4126093532868
 30
0.0
 11
261.5447545197232
 21
212.0540438373151
 31
0.0
  0
LINE
  5
90
330
1F
100
AcDbEntity
  8
7
  6
DASHDOT
 62
     4
370
     9
100
AcDbLine
 10
219.5447545197232
 20
296.4126093532868
 30
0.0
 11
219.5447545197232
 21
212.6862756402248
 31
0.0
  0
LINE
  5
91
330
1F
100
AcDbEntity
  8
7
  6
DASHDOT
 62
     4
370
     9
100
AcDbLine
 10
243.1163690078801
 20
250.83487070325
 30
0.0
 11
299.9688110499654
 21
250.8348707032499
 31
0.0
  0
LINE
  5
92
330
1F
100
AcDbEntity
  8
7
  6
DASHDOT
 62
     4
370
     9
100
AcDbLine
 10
292.3447545197231
 20
218.1037080871996
 30
0.0
 11
292.3447545197231
 21
259.9566944062885
 31
0.0
  0
LINE
  5
93
330
1F
100
AcDbEntity
  8
6
  6
Continuous
 62
     2
370
     9
100
AcDbLine
 10
216.5446877016889
 20
249.8347574957021
 30
0.0
 11
216.5446877016889
 21
248.8347574957022
 31
0.0
  0
LINE
  5
94
330
1F
100
AcDbEntity
  8
6
  6
Continuous
 62
     2
370
     9
100
AcDbLine
 10
214.5446877016889
 20
250.8347574957022
 30
0.0
 11
216.5446877016889
 21
248.8347574957022
 31
0.0
  0
LINE
  5
95
330
1F
100
AcDbEntity
  8
6
  6
Continuous
 62
     2
370
     9
100
AcDbLine
 10
218.545121311437
 20
249.8347574957021
 30
0.0
 11
216.5446877016889
 21
249.8347574957021
 31
0.0
  0
LINE
  5
96
330
1F
100
AcDbEntity
  8
6
  6
Continuous
 62
     2
370
     9
100
AcDbLine
 10
216.5446877016889
 20
252.8347574957022
 30
0.0
 11
214.5446877016889
 21
250.8347574957022
 31
0.0
  0
LINE
  5
97
330
1F
100
AcDbEntity
  8
6
  6
Continuous
 62
     2
370
     9
100
AcDbLine
 10
216.5446877016889
 20
252.8347574957022
 30
0.0
 11
216.5446877016889
 21
251.8347574957021
 31
0.0
  0
LINE
  5
98
330
1F
100
AcDbEntity
  8
6
  6
Continuous
 62
     2
370
     9
100
AcDbLine
 10
220.5451213114371
 20
251.8347574957022
 30
0.0
 11
216.5446877016889
 21
251.8347574957021
 31
0.0
  0
LINE
  5
99
330
1F
100
AcDbEntity
  8
6
  6
Continuous
 62
     2
370
     9
100
AcDbLine
 10
220.5451213114371
 20
251.8347574957022
 30
0.0
 11
220.5451213114371
 21
245.8346442881544
 31
0.0
  0
LINE
  5
9A
330
1F
100
AcDbEntity
  8
6
  6
Continuous
 62
     2
370
     9
100
AcDbLine
 10
220.5451213114371
 20
245.8346442881544
 30
0.0
 11
218.545121311437
 21
245.8346442881543
 31
0.0
  0
LINE
  5
9B
330
1F
100
AcDbEntity
  8
6
  6
Continuous
 62
     2
370
     9
100
AcDbLine
 10
218.545121311437
 20
249.8347574957021
 30
0.0
 11
218.545121311437
 21
245.8346442881543
 31
0.0
  0
LINE
  5
9C
330
1F
100
AcDbEntity
  8
26
  6
Continuous
 62
     7
370
     9
100
AcDbLine
 10
247.0831029350341
 20
214.8348707032499
 30
0.0
 11
268.0447545197232
 21
214.8348707032499
 31
0.0
  0
LINE
  5
9D
330
1F
100
AcDbEntity
  8
26
  6
Continuous
 62
     7
370
     9
100
AcDbLine
 10
247.5447545197231
 20
247.4345171209542
 30
0.0
 11
247.5447545197232
 21
245.8348707032499
 31
0.0
  0
CIRCLE
  5
9E
330
1F
100
AcDbEntity
  8
6
  6
Continuous
 62
     2
370
     9
100
AcDbCircle
 10
261.5447545197232
 20
223.3348707032499
 30
0.0
 40
1.5
  0
LINE
  5
9F
330
1F
100
AcDbEntity
  8
26
  6
Continuous
 62
     7
370
     9
100
AcDbLine
 10
234.0064061044124
 20
214.8348707032499
 30
0.0
 11
219.0447545197232
 21
214.8348707032499
 31
0.0
  0
LINE
  5
A0
330
1F
100
AcDbEntity
  8
26
  6
Continuous
 62
     7
370
     9
100
AcDbLine
 10
233.5447545197232
 20
244.5829475125219
 30
0.0
 11
233.5447545197232
 21
262.8348707032499
 31
0.0
  0
LINE
  5
A1
330
1F
100
AcDbEntity
  8
26
  6
Continuous
 62
     7
370
     9
100
AcDbLine
 10
207.0447545197232
 20
233.8348707032498
 30
0.0
 11
207.0447545197232
 21
226.8348707032498
 31
0.0
  0
LINE
  5
A2
330
1F
100
AcDbEntity
  8
26
  6
Continuous
 62
     7
370
     9
100
AcDbLine
 10
205.5447545197232
 20
262.8348707032499
 30
0.0
 11
233.5447545197232
 21
262.8348707032499
 31
0.0
  0
LINE
  5
A3
330
1F
100
AcDbEntity
  8
26
  6
Continuous
 62
     7
370
     9
100
AcDbLine
 10
272.0133814863201
 20
216.33487070325
 30
0.0
 11
274.0447545197232
 21
216.33487070325
 31
0.0
  0
LINE
  5
A4
330
1F
100
AcDbEntity
  8
26
  6
Continuous
 62
     7
370
     9
100
AcDbLine
 10
274.5447545197232
 20
231.8348707032499
 30
0.0
 11
274.5447545197232
 21
216.83487070325
 31
0.0
  0
ARC
  5
A5
330
1F
100
AcDbEntity
  8
26
  6
Continuous
 62
     7
370
     9
100
AcDbCircle
 10
274.0447545197232
 20
231.8348707032499
 30
0.0
 40
0.5
100
AcDbArc
 50
0.0
 51
89.99999999999991
  0
ARC
  5
A6
330
1F
100
AcDbEntity
  8
26
  6
Continuous
 62
     7
370
     9
100
AcDbCircle
 10
274.0447545197232
 20
216.83487070325
 30
0.0
 40
0.5
100
AcDbArc
 50
269.9999999999998
 51
0.0
  0
LINE
  5
A7
330
1F
100
AcDbEntity
  8
26
  6
Continuous
 62
     7
370
     9
100
AcDbLine
 10
247.7947545197231
 20
262.83487070325
 30
0.0
 11
247.5447545197231
 21
262.83487070325
 31
0.0
  0
LINE
  5
A8
330
1F
100
AcDbEntity
  8
26
  6
Continuous
 62
     7
370
     9
100
AcDbLine
 10
275.5447545197232
 20
262.83487070325
 30
0.0
 11
275.5447545197232
 21
262.33487070325
 31
0.0
  0
LINE
  5
A9
330
1F
100
AcDbEntity
  8
26
  6
Continuous
 62
     7
370
     9
100
AcDbLine
 10
275.2947545197232
 20
262.83487070325
 30
0.0
 11
275.5447545197232
 21
262.83487070325
 31
0.0
  0
LINE
  5
AA
330
1F
100
AcDbEntity
  8
26
  6
Continuous
 62
     7
370
     9
100
AcDbLine
 10
275.5447545197232
 20
262.83487070325
 30
0.0
 11
275.2947545197232
 21
262.83487070325
 31
0.0
  0
LINE
  5
AB
330
1F
100
AcDbEntity
  8
26
  6
Continuous
 62
     7
370
     9
100
AcDbLine
 10
275.5447545197232
 20
262.83487070325
 30
0.0
 11
275.5447545197232
 21
261.83487070325
 31
0.0
  0
ARC
  5
AC
330
1F
100
AcDbEntity
  8
26
  6
Continuous
 62
     7
370
     9
100
AcDbCircle
 10
276.5447545197233
 20
261.83487070325
 30
0.0
 40
1.0
100
AcDbArc
 50
179.9999999999998
 51
269.9999999999998
  0
LINE
  5
AD
330
1F
100
AcDbEntity
  8
26
  6
Continuous
 62
     7
370
     9
100
AcDbLine
 10
275.5447545197232
 20
262.83487070325
 30
0.0
 11
247.5447545197231
 21
262.83487070325
 31
0.0
  0
LINE
  5
AE
330
1F
100
AcDbEntity
  8
26
  6
Continuous
 62
     7
370
     9
100
AcDbLine
 10
274.0447545197233
 20
238.8348707032499
 30
0.0
 11
274.0447545197232
 21
220.8348707032499
 31
0.0
  0
ARC
  5
AF
330
1F
100
AcDbEntity
  8
26
  6
Continuous
 62
     7
370
     9
100
AcDbCircle
 10
284.0447545197232
 20
260.3348707032499
 30
0.0
 40
0.5
100
AcDbArc
 50
0.0
 51
89.99999999999991
  0
ARC
  5
B0
330
1F
100
AcDbEntity
  8
26
  6
Continuous
 62
     7
370
     9
100
AcDbCircle
 10
284.0447545197232
 20
241.33487070325
 30
0.0
 40
0.5
100
AcDbArc
 50
269.9999999999998
 51
0.0
  0
LINE
  5
B1
330
1F
100
AcDbEntity
  8
26
  6
Continuous
 62
     7
370
     9
100
AcDbLine
 10
284.5447545197233
 20
260.3348707032499
 30
0.0
 11
284.5447545197233
 21
241.33487070325
 31
0.0
  0
LINE
  5
B2
330
1F
100
AcDbEntity
  8
26
  6
Continuous
 62
     7
370
     9
100
AcDbLine
 10
284.0447545197232
 20
240.8348707032499
 30
0.0
 11
276.0447545197233
 21
240.8348707032499
 31
0.0
  0
LINE
  5
B3
330
1F
100
AcDbEntity
  8
26
  6
Continuous
 62
     7
370
     9
100
AcDbLine
 10
284.0447545197232
 20
260.8348707032499
 30
0.0
 11
276.5447545197233
 21
260.83487070325
 31
0.0
  0
LINE
  5
B4
330
1F
100
AcDbEntity
  8
26
  6
Continuous
 62
     7
370
     9
100
AcDbLine
 10
247.5447545197231
 20
244.5829475125219
 30
0.0
 11
247.5447545197231
 21
262.83487070325
 31
0.0
  0
ARC
  5
B5
330
1F
100
AcDbEntity
  8
26
  6
Continuous
 62
     7
370
     9
100
AcDbCircle
 10
276.0447545197233
 20
238.8348707032499
 30
0.0
 40
2.0
100
AcDbArc
 50
89.99999999999991
 51
179.9999999999998
  0
ARC
  5
B6
330
1F
100
AcDbEntity
  8
26
  6
Continuous
 62
     7
370
     9
100
AcDbCircle
 10
268.0447545197232
 20
220.8348707032499
 30
0.0
 40
6.0
100
AcDbArc
 50
269.9999999999998
 51
0.0
  0
ARC
  5
B7
330
1F
100
AcDbEntity
  8
26
  6
Continuous
 62
     7
370
     9
100
AcDbCircle
 10
285.342713490856
 20
250.8348707032499
 30
0.0
 40
14.00000000000006
100
AcDbArc
 50
134.4153085971943
 51
204.453574928345
  0
ARC
  5
B8
330
1F
100
AcDbEntity
  8
26
  6
Continuous
 62
     7
370
     9
100
AcDbCircle
 10
263.5966444639853
 20
240.9458879131991
 30
0.0
 40
9.888982790050818
100
AcDbArc
 50
10.571156648872
 51
24.45357492834422
  0
ARC
  5
B9
330
1F
100
AcDbEntity
  8
26
  6
Continuous
 62
     7
370
     9
100
AcDbCircle
 10
279.0768829798809
 20
243.83487070325
 30
0.0
 40
5.858525142007068
100
AcDbArc
 50
190.5711566488712
 51
210.80209502687
  0
LINE
  5
BA
330
1F
100
AcDbEntity
  8
26
  6
Continuous
 62
     7
370
     9
100
AcDbLine
 10
216.7447545197233
 20
262.3348707032499
 30
0.0
 11
216.7447545197233
 21
260.3348707032499
 31
0.0
  0
LINE
  5
BB
330
1F
100
AcDbEntity
  8
26
  6
Continuous
 62
     7
370
     9
100
AcDbLine
 10
222.3447545197232
 20
260.3348707032499
 30
0.0
 11
222.3447545197232
 21
262.3348707032499
 31
0.0
  0
LINE
  5
BC
330
1F
100
AcDbEntity
  8
26
  6
Continuous
 62
     7
370
     9
100
AcDbLine
 10
217.2447545197233
 20
259.8348707032499
 30
0.0
 11
221.8447545197232
 21
259.8348707032499
 31
0.0
  0
LINE
  5
BD
330
1F
100
AcDbEntity
  8
26
  6
Continuous
 62
     7
370
     9
100
AcDbLine
 10
213.2399944132642
 20
243.8348707032498
 30
0.0
 11
233.5447545197233
 21
243.8348707032498
 31
0.0
  0
CIRCLE
  5
BE
330
1F
100
AcDbEntity
  8
26
  6
Continuous
 62
     7
370
     9
100
AcDbCircle
 10
240.5447545197232
 20
228.33487070325
 30
0.0
 40
15.0
  0
LINE
  5
BF
330
1F
100
AcDbEntity
  8
26
  6
Continuous
 62
     7
370
     9
100
AcDbLine
 10
247.7947545197231
 20
262.83487070325
 30
0.0
 11
247.7947545197231
 21
265.9348707032499
 31
0.0
  0
LINE
  5
C0
330
1F
100
AcDbEntity
  8
26
  6
Continuous
 62
     7
370
     9
100
AcDbLine
 10
275.2947545197232
 20
262.83487070325
 30
0.0
 11
275.2947545197232
 21
265.9348707032499
 31
0.0
  0
LINE
  5
C1
330
1F
100
AcDbEntity
  8
26
  6
Continuous
 62
     7
370
     9
100
AcDbLine
 10
205.7947545197231
 20
262.83487070325
 30
0.0
 11
205.7947545197231
 21
265.9348707032499
 31
0.0
  0
LINE
  5
C2
330
1F
100
AcDbEntity
  8
26
  6
Continuous
 62
     7
370
     9
100
AcDbLine
 10
233.2947545197232
 20
262.83487070325
 30
0.0
 11
233.2947545197232
 21
265.9348707032499
 31
0.0
  0
LINE
  5
C3
330
1F
100
AcDbEntity
  8
26
  6
Continuous
 62
     7
370
     9
100
AcDbLine
 10
225.5842373609778
 20
229.4224948767969
 30
0.0
 11
232.1225857762888
 21
240.747246529703
 31
0.0
  0
CIRCLE
  5
C4
330
1F
100
AcDbEntity
  8
26
  6
Continuous
 62
     7
370
     9
100
AcDbCircle
 10
240.5447545197232
 20
228.33487070325
 30
0.0
 40
8.752434041133483
  0
CIRCLE
  5
C5
330
1F
100
AcDbEntity
  8
26
  6
Continuous
 62
     7
370
     9
100
AcDbCircle
 10
240.5447545197232
 20
228.33487070325
 30
0.0
 40
11.0
  0
CIRCLE
  5
C6
330
1F
100
AcDbEntity
  8
26
  6
Continuous
 62
     7
370
     9
100
AcDbCircle
 10
240.5447545197232
 20
228.33487070325
 30
0.0
 40
13.5
  0
LINE
  5
C7
330
1F
100
AcDbEntity
  8
26
  6
Continuous
 62
     7
370
     9
100
AcDbLine
 10
225.5842373609778
 20
227.247246529703
 30
0.0
 11
232.1225857762888
 21
215.9224948767969
 31
0.0
  0
LINE
  5
C8
330
1F
100
AcDbEntity
  8
26
  6
Continuous
 62
     7
370
     9
100
AcDbLine
 10
234.0064061044122
 20
214.83487070325
 30
0.0
 11
247.0831029350342
 21
214.83487070325
 31
0.0
  0
LINE
  5
C9
330
1F
100
AcDbEntity
  8
26
  6
Continuous
 62
     7
370
     9
100
AcDbLine
 10
248.9669232631576
 20
215.9224948767969
 30
0.0
 11
255.5052716784686
 21
227.247246529703
 31
0.0
  0
LINE
  5
CA
330
1F
100
AcDbEntity
  8
26
  6
Continuous
 62
     7
370
     9
100
AcDbLine
 10
248.9669232631576
 20
240.747246529703
 30
0.0
 11
255.5052716784686
 21
229.4224948767969
 31
0.0
  0
LINE
  5
CB
330
1F
100
AcDbEntity
  8
26
  6
Continuous
 62
     7
370
     9
100
AcDbLine
 10
234.0064061044122
 20
241.83487070325
 30
0.0
 11
247.0831029350342
 21
241.83487070325
 31
0.0
  0
LINE
  5
CC
330
1F
100
AcDbEntity
  8
26
  6
Continuous
 62
     7
370
     9
100
AcDbLine
 10
297.2107768088949
 20
255.3687889192526
 30
0.0
 11
295.5274117034884
 21
253.8003128083704
 31
0.0
  0
ARC
  5
CD
330
1F
100
AcDbEntity
  8
26
  6
Continuous
 62
     7
370
     9
100
AcDbCircle
 10
295.3447545197231
 20
253.3348707032499
 30
0.0
 40
0.5
100
AcDbArc
 50
0.0
 51
89.99999999999991
  0
ARC
  5
CE
330
1F
100
AcDbEntity
  8
26
  6
Continuous
 62
     7
370
     9
100
AcDbCircle
 10
295.8947545197231
 20
254.38487070325
 30
0.0
 40
2.5
100
AcDbArc
 50
0.0
 51
89.99999999999991
  0
ARC
  5
CF
330
1F
100
AcDbEntity
  8
26
  6
Continuous
 62
     7
370
     9
100
AcDbCircle
 10
289.3447545197231
 20
253.3348707032499
 30
0.0
 40
0.5
100
AcDbArc
 50
89.99999999999991
 51
179.9999999999998
  0
ARC
  5
D0
330
1F
100
AcDbEntity
  8
26
  6
Continuous
 62
     7
370
     9
100
AcDbCircle
 10
289.0478782687223
 20
261.8848707032499
 30
0.0
 40
5.0
100
AcDbArc
 50
218.6821874534876
 51
269.9999999999998
  0
LINE
  5
D1
330
1F
100
AcDbEntity
  8
26
  6
Continuous
 62
     7
370
     9
100
AcDbLine
 10
287.3986020970166
 20
238.8348707032499
 30
0.0
 11
286.5947545197232
 21
239.83487070325
 31
0.0
  0
LINE
  5
D2
330
1F
100
AcDbEntity
  8
26
  6
Continuous
 62
     7
370
     9
100
AcDbLine
 10
287.7500714728526
 20
222.2136028907318
 30
0.0
 11
286.7500714728527
 21
226.2136028907318
 31
0.0
  0
ARC
  5
D3
330
1F
100
AcDbEntity
  8
26
  6
Continuous
 62
     7
370
     9
100
AcDbCircle
 10
292.5947545197231
 20
229.8348707032499
 30
0.0
 40
6.0
100
AcDbArc
 50
149.9999999999988
 51
209.9999999999999
  0
ARC
  5
D4
330
1F
100
AcDbEntity
  8
26
  6
Continuous
 62
     7
370
     9
100
AcDbCircle
 10
292.5947545197231
 20
235.8348707032499
 30
0.0
 40
6.0
100
AcDbArc
 50
149.9999999999988
 51
209.9999999999999
  0
LINE
  5
D5
330
1F
100
AcDbEntity
  8
26
  6
Continuous
 62
     7
370
     9
100
AcDbLine
 10
286.2947545197233
 20
243.0074136152887
 30
0.0
 11
286.2947545197233
 21
241.58487070325
 31
0.0
  0
LINE
  5
D6
330
1F
100
AcDbEntity
  8
26
  6
Continuous
 62
     7
370
     9
100
AcDbLine
 10
287.0947545197232
 20
240.8348707032499
 30
0.0
 11
287.0947545197232
 21
239.83487070325
 31
0.0
  0
LINE
  5
D7
330
1F
100
AcDbEntity
  8
26
  6
Continuous
 62
     7
370
     9
100
AcDbLine
 10
287.0947545197232
 20
240.8348707032499
 30
0.0
 11
286.2947545197233
 21
241.58487070325
 31
0.0
  0
ARC
  5
D8
330
1F
100
AcDbEntity
  8
26
  6
Continuous
 62
     7
370
     9
100
AcDbCircle
 10
285.7947545197232
 20
243.0074136152887
 30
0.0
 40
0.5
100
AcDbArc
 50
0.0
 51
148.0615510833272
  0
ARC
  5
D9
330
1F
100
AcDbEntity
  8
26
  6
Continuous
 62
     7
370
     9
100
AcDbCircle
 10
287.2351427229254
 20
226.3348707032499
 30
0.0
 40
0.5
100
AcDbArc
 50
89.99999999999991
 51
194.0362434679198
  0
ARC
  5
DA
330
1F
100
AcDbEntity
  8
26
  6
Continuous
 62
     7
370
     9
100
AcDbCircle
 10
288.2351427229254
 20
222.3348707032499
 30
0.0
 40
0.5
100
AcDbArc
 50
194.0362434679135
 51
269.9999999999998
  0
ARC
  5
DB
330
1F
100
AcDbEntity
  8
26
  6
Continuous
 62
     7
370
     9
100
AcDbCircle
 10
289.3447545197231
 20
244.3348707032499
 30
0.0
 40
0.5
100
AcDbArc
 50
179.9999999999998
 51
269.9999999999998
  0
LINE
  5
DC
330
1F
100
AcDbEntity
  8
26
  6
Continuous
 62
     7
370
     9
100
AcDbLine
 10
288.8447545197232
 20
247.1661371134953
 30
0.0
 11
286.8581184860118
 21
245.0837261570683
 31
0.0
  0
LINE
  5
DD
330
1F
100
AcDbEntity
  8
26
  6
Continuous
 62
     7
370
     9
100
AcDbLine
 10
285.1447545197231
 20
242.9098707032499
 30
0.0
 11
285.3704460784376
 21
243.2719175786875
 31
0.0
  0
LINE
  5
DE
330
1F
100
AcDbEntity
  8
26
  6
Continuous
 62
     7
370
     9
100
AcDbLine
 10
297.5947545197231
 20
240.8348707032499
 30
0.0
 11
297.5947545197231
 21
239.83487070325
 31
0.0
  0
LINE
  5
DF
330
1F
100
AcDbEntity
  8
26
  6
Continuous
 62
     7
370
     9
100
AcDbLine
 10
297.2909069424298
 20
238.8348707032499
 30
0.0
 11
298.0947545197231
 21
239.83487070325
 31
0.0
  0
ARC
  5
E0
330
1F
100
AcDbEntity
  8
26
  6
Continuous
 62
     7
370
     9
100
AcDbCircle
 10
292.0947545197231
 20
235.8348707032499
 30
0.0
 40
6.0
100
AcDbArc
 50
329.999999999998
 51
30.00000000000121
  0
LINE
  5
E1
330
1F
100
AcDbEntity
  8
26
  6
Continuous
 62
     7
370
     9
100
AcDbLine
 10
296.9394375665936
 20
222.2136028907318
 30
0.0
 11
297.9394375665936
 21
226.2136028907317
 31
0.0
  0
ARC
  5
E2
330
1F
100
AcDbEntity
  8
26
  6
Continuous
 62
     7
370
     9
100
AcDbCircle
 10
292.0947545197231
 20
229.8348707032499
 30
0.0
 40
6.0
100
AcDbArc
 50
329.999999999998
 51
30.00000000000121
  0
ARC
  5
E3
330
1F
100
AcDbEntity
  8
26
  6
Continuous
 62
     7
370
     9
100
AcDbCircle
 10
295.3447545197231
 20
244.3348707032499
 30
0.0
 40
0.5
100
AcDbArc
 50
269.9999999999998
 51
0.0
  0
LINE
  5
E4
330
1F
100
AcDbEntity
  8
26
  6
Continuous
 62
     7
370
     9
100
AcDbLine
 10
298.3947545197231
 20
241.58487070325
 30
0.0
 11
297.5947545197231
 21
240.8348707032499
 31
0.0
  0
ARC
  5
E5
330
1F
100
AcDbEntity
  8
26
  6
Continuous
 62
     7
370
     9
100
AcDbCircle
 10
297.4543663165209
 20
226.3348707032499
 30
0.0
 40
0.5
100
AcDbArc
 50
345.9637565320621
 51
89.99999999999991
  0
ARC
  5
E6
330
1F
100
AcDbEntity
  8
26
  6
Continuous
 62
     7
370
     9
100
AcDbCircle
 10
296.4543663165209
 20
222.3348707032499
 30
0.0
 40
0.5
100
AcDbArc
 50
269.9999999999998
 51
345.9637565320826
  0
LINE
  5
E7
330
1F
100
AcDbEntity
  8
26
  6
Continuous
 62
     7
370
     9
100
AcDbLine
 10
298.3947545197231
 20
254.38487070325
 30
0.0
 11
298.3947545197231
 21
241.58487070325
 31
0.0
  0
LINE
  5
E8
330
1F
100
AcDbEntity
  8
26
  6
Continuous
 62
     7
370
     9
100
AcDbLine
 10
295.8447545197231
 20
253.3348707032499
 30
0.0
 11
295.8447545197231
 21
244.3348707032499
 31
0.0
  0
LINE
  5
E9
330
1F
100
AcDbEntity
  8
26
  6
Continuous
 62
     7
370
     9
100
AcDbLine
 10
289.3447545197231
 20
253.8348707032499
 30
0.0
 11
295.3447545197231
 21
253.8348707032499
 31
0.0
  0
LINE
  5
EA
330
1F
100
AcDbEntity
  8
26
  6
Continuous
 62
     7
370
     9
100
AcDbLine
 10
295.8947545197231
 20
256.8848707032499
 30
0.0
 11
289.0478782687223
 21
256.8848707032499
 31
0.0
  0
LINE
  5
EB
330
1F
100
AcDbEntity
  8
26
  6
Continuous
 62
     7
370
     9
100
AcDbLine
 10
288.8447545197232
 20
253.3348707032499
 30
0.0
 11
288.8447545197232
 21
244.3348707032499
 31
0.0
  0
LINE
  5
EC
330
1F
100
AcDbEntity
  8
26
  6
Continuous
 62
     7
370
     9
100
AcDbLine
 10
285.1447545197231
 20
258.7598707032499
 30
0.0
 11
285.1447545197231
 21
242.9098707032499
 31
0.0
  0
LINE
  5
ED
330
1F
100
AcDbEntity
  8
26
  6
Continuous
 62
     7
370
     9
100
AcDbLine
 10
285.1447544939252
 20
258.7598707032499
 30
0.0
 11
284.5447545197231
 21
258.7598707032499
 31
0.0
  0
LINE
  5
EE
330
1F
100
AcDbEntity
  8
26
  6
Continuous
 62
     7
370
     9
100
AcDbLine
 10
296.4543663165209
 20
221.8348707032499
 30
0.0
 11
288.2351427229254
 21
221.8348707032499
 31
0.0
  0
LINE
  5
EF
330
1F
100
AcDbEntity
  8
26
  6
Continuous
 62
     7
370
     9
100
AcDbLine
 10
297.4543663165209
 20
226.8348707032499
 30
0.0
 11
287.2351427229254
 21
226.8348707032499
 31
0.0
  0
LINE
  5
F0
330
1F
100
AcDbEntity
  8
26
  6
Continuous
 62
     7
370
     9
100
AcDbLine
 10
297.2909069424298
 20
238.8348707032499
 30
0.0
 11
287.3986020970166
 21
238.8348707032499
 31
0.0
  0
LINE
  5
F1
330
1F
100
AcDbEntity
  8
26
  6
Continuous
 62
     7
370
     9
100
AcDbLine
 10
298.0947545197231
 20
239.83487070325
 30
0.0
 11
286.5947545197232
 21
239.83487070325
 31
0.0
  0
LINE
  5
F2
330
1F
100
AcDbEntity
  8
26
  6
Continuous
 62
     7
370
     9
100
AcDbLine
 10
297.5947545197231
 20
240.8348707032499
 30
0.0
 11
287.0947545197232
 21
240.8348707032499
 31
0.0
  0
LINE
  5
F3
330
1F
100
AcDbEntity
  8
26
  6
Continuous
 62
     7
370
     9
100
AcDbLine
 10
298.3947545197231
 20
241.58487070325
 30
0.0
 11
286.2947545197233
 21
241.58487070325
 31
0.0
  0
LINE
  5
F4
330
1F
100
AcDbEntity
  8
26
  6
Continuous
 62
     7
370
     9
100
AcDbLine
 10
297.2909069424297
 20
232.83487070325
 30
0.0
 11
287.3986020970166
 21
232.83487070325
 31
0.0
  0
LINE
  5
F5
330
1F
100
AcDbEntity
  8
26
  6
Continuous
 62
     7
370
     9
100
AcDbLine
 10
289.3447545197231
 20
243.8348707032499
 30
0.0
 11
295.3447545197231
 21
243.8348707032499
 31
0.0
  0
LINE
  5
F6
330
1F
100
AcDbEntity
  8
26
  6
Continuous
 62
     7
370
     9
100
AcDbLine
 10
284.5447545197231
 20
242.9098707032499
 30
0.0
 11
285.1447545197231
 21
242.9098707032499
 31
0.0
  0
LINE
  5
F7
330
1F
100
AcDbEntity
  8
26
  6
Continuous
 62
     7
370
     9
100
AcDbLine
 10
247.5447545197231
 20
243.8348707032498
 30
0.0
 11
272.5985556900901
 21
243.8348707032498
 31
0.0
  0
CIRCLE
  5
F8
330
1F
100
AcDbEntity
  8
26
  6
Continuous
 62
     7
370
     9
100
AcDbCircle
 10
240.5447545197232
 20
228.33487070325
 30
0.0
 40
6.5
  0
ARC
  5
F9
330
1F
100
AcDbEntity
  8
26
  6
Continuous
 62
     7
370
     9
100
AcDbCircle
 10
217.2447545197233
 20
262.3348707032499
 30
0.0
 40
0.5
100
AcDbArc
 50
89.99999999999991
 51
179.9999999999998
  0
ARC
  5
FA
330
1F
100
AcDbEntity
  8
26
  6
Continuous
 62
     7
370
     9
100
AcDbCircle
 10
221.8447545197232
 20
262.3348707032499
 30
0.0
 40
0.5
100
AcDbArc
 50
0.0
 51
89.99999999999991
  0
ARC
  5
FB
330
1F
100
AcDbEntity
  8
26
  6
Continuous
 62
     7
370
     9
100
AcDbCircle
 10
217.2447545197233
 20
260.3348707032499
 30
0.0
 40
0.5
100
AcDbArc
 50
179.9999999999998
 51
269.9999999999998
  0
ARC
  5
FC
330
1F
100
AcDbEntity
  8
26
  6
Continuous
 62
     7
370
     9
100
AcDbCircle
 10
221.8447545197232
 20
260.3348707032499
 30
0.0
 40
0.5
100
AcDbArc
 50
269.9999999999998
 51
0.0
  0
ARC
  5
FD
330
1F
100
AcDbEntity
  8
26
  6
Continuous
 62
     7
370
     9
100
AcDbCircle
 10
215.8366552761747
 20
262.3365050700938
 30
0.0
 40
4.963285951533095
100
AcDbArc
 50
218.3489275723659
 51
220.2980287579806
  0
LINE
  5
FE
330
1F
100
AcDbEntity
  8
26
  6
Continuous
 62
     7
370
     9
100
AcDbLine
 10
184.0718930907092
 20
244.2965222879388
 30
0.0
 11
184.0718930907092
 21
242.4127019598155
 31
0.0
  0
LINE
  5
FF
330
1F
100
AcDbEntity
  8
26
  6
Continuous
 62
     7
370
     9
100
AcDbLine
 10
184.0718930907092
 20
235.8743535445044
 30
0.0
 11
184.0718930907092
 21
235.8348707032498
 31
0.0
  0
ARC
  5
100
330
1F
100
AcDbEntity
  8
26
  6
Continuous
 62
     7
370
     9
100
AcDbCircle
 10
203.3731816444694
 20
263.3348707032499
 30
0.0
 40
2.0
100
AcDbArc
 50
224.9999999999996
 51
269.9999999999998
  0
LINE
  5
101
330
1F
100
AcDbEntity
  8
26
  6
Continuous
 62
     7
370
     9
100
AcDbLine
 10
184.0718930907092
 20
265.8348707032498
 30
0.0
 11
184.0718930907092
 21
265.7953878619953
 31
0.0
  0
LINE
  5
102
330
1F
100
AcDbEntity
  8
26
  6
Continuous
 62
     7
370
     9
100
AcDbLine
 10
184.0718930907092
 20
259.2570394466842
 30
0.0
 11
184.0718930907092
 21
257.3732191185608
 31
0.0
  0
LINE
  5
103
330
1F
100
AcDbEntity
  8
26
  6
Continuous
 62
     7
370
     9
100
AcDbLine
 10
184.0718930907092
 20
259.2570394466842
 30
0.0
 11
211.9442140228064
 21
259.2570394466842
 31
0.0
  0
LINE
  5
104
330
1F
100
AcDbEntity
  8
26
  6
Continuous
 62
     7
370
     9
100
AcDbLine
 10
184.0718930907092
 20
257.3732191185608
 30
0.0
 11
200.0447545197231
 21
257.3732191185608
 31
0.0
  0
ARC
  5
105
330
1F
100
AcDbEntity
  8
26
  6
Continuous
 62
     7
370
     9
100
AcDbCircle
 10
215.8366552761747
 20
239.806731086248
 30
0.0
 40
4.489791201690821
100
AcDbArc
 50
142.4458382197363
 51
144.5198132058208
  0
LINE
  5
106
330
1F
100
AcDbEntity
  8
26
  6
Continuous
 62
     7
370
     9
100
AcDbLine
 10
184.0718930907092
 20
242.4127019598155
 30
0.0
 11
212.1805452065928
 21
242.4127019598155
 31
0.0
  0
LINE
  5
107
330
1F
100
AcDbEntity
  8
26
  6
Continuous
 62
     7
370
     9
100
AcDbLine
 10
184.0718930907092
 20
244.2965222879388
 30
0.0
 11
200.0447545197231
 21
244.2965222879388
 31
0.0
  0
ARC
  5
108
330
1F
100
AcDbEntity
  8
26
  6
Continuous
 62
     7
370
     9
100
AcDbCircle
 10
215.8366552761747
 20
234.2642531832338
 30
0.0
 40
8.931089424335255
100
AcDbArc
 50
114.1651949585742
 51
169.871316526595
  0
LINE
  5
109
330
1F
100
AcDbEntity
  8
26
  6
Continuous
 62
     7
370
     9
100
AcDbLine
 10
184.0718930907092
 20
235.8348707032498
 30
0.0
 11
205.0447545197233
 21
235.8348707032498
 31
0.0
  0
ARC
  5
10A
330
1F
100
AcDbEntity
  8
26
  6
Continuous
 62
     7
370
     9
100
AcDbCircle
 10
205.0447545197233
 20
233.8348707032498
 30
0.0
 40
2.0
100
AcDbArc
 50
0.0
 51
89.99999999999991
  0
ARC
  5
10B
330
1F
100
AcDbEntity
  8
26
  6
Continuous
 62
     7
370
     9
100
AcDbCircle
 10
204.368563634377
 20
250.8348707032498
 30
0.0
 40
21.32380911465373
100
AcDbArc
 50
162.1442276914248
 51
197.8557723085742
  0
ARC
  5
10C
330
1F
100
AcDbEntity
  8
26
  6
Continuous
 62
     7
370
     9
100
AcDbCircle
 10
188.7608837625066
 20
239.1435277521599
 30
0.0
 40
5.716129242783325
100
AcDbArc
 50
145.1157099204539
 51
214.8842900795454
  0
LINE
  5
10D
330
1F
100
AcDbEntity
  8
26
  6
Continuous
 62
     7
370
     9
100
AcDbLine
 10
183.0447545197232
 20
237.3348707032498
 30
0.0
 11
184.0718930907092
 21
235.8348707032498
 31
0.0
  0
ARC
  5
10E
330
1F
100
AcDbEntity
  8
26
  6
Continuous
 62
     7
370
     9
100
AcDbCircle
 10
204.5447545197234
 20
262.3348707032499
 30
0.0
 40
1.0
100
AcDbArc
 50
269.9999999999998
 51
0.0
  0
LINE
  5
10F
330
1F
100
AcDbEntity
  8
26
  6
Continuous
 62
     7
370
     9
100
AcDbLine
 10
205.5447545197234
 20
262.3348707032499
 30
0.0
 11
205.5447545197234
 21
262.8348707032496
 31
0.0
  0
LINE
  5
110
330
1F
100
AcDbEntity
  8
26
  6
Continuous
 62
     7
370
     9
100
AcDbLine
 10
201.9589680820964
 20
261.9206571408768
 30
0.0
 11
198.0447545197233
 21
265.8348707032498
 31
0.0
  0
LINE
  5
111
330
1F
100
AcDbEntity
  8
26
  6
Continuous
 62
     7
370
     9
100
AcDbLine
 10
208.6671257389845
 20
261.3348707032498
 30
0.0
 11
203.3731816444694
 21
261.3348707032498
 31
0.0
  0
LINE
  5
112
330
1F
100
AcDbEntity
  8
26
  6
Continuous
 62
     7
370
     9
100
AcDbLine
 10
184.0718930907092
 20
265.8348707032498
 30
0.0
 11
198.0447545197233
 21
265.8348707032498
 31
0.0
  0
LINE
  5
113
330
1F
100
AcDbEntity
  8
26
  6
Continuous
 62
     7
370
     9
100
AcDbLine
 10
183.0447545197232
 20
264.3348707032499
 30
0.0
 11
184.0718930907092
 21
265.8348707032498
 31
0.0
  0
ARC
  5
114
330
1F
100
AcDbEntity
  8
26
  6
Continuous
 62
     7
370
     9
100
AcDbCircle
 10
188.7608837625066
 20
262.5262136543397
 30
0.0
 40
5.716129242783325
100
AcDbArc
 50
145.1157099204539
 51
214.8842900795451
  0
LINE
  5
115
330
1F
100
AcDbEntity
  8
26
  6
Continuous
 62
     7
370
     9
100
AcDbLine
 10
183.0447545197232
 20
264.3348707032499
 30
0.0
 11
183.0447545197232
 21
237.3348707032498
 31
0.0
  0
LINE
  5
116
330
1F
100
AcDbEntity
  8
26
  6
Continuous
 62
     7
370
     9
100
AcDbLine
 10
200.0447545197231
 20
257.3732191185608
 30
0.0
 11
200.0447545197231
 21
244.2965222879388
 31
0.0
  0
LINE
  5
117
330
1F
100
AcDbEntity
  8
26
  6
Continuous
 62
     7
370
     9
100
AcDbLine
 10
201.0447545197218
 20
259.1264326791383
 30
0.0
 11
201.0447545197218
 21
242.5433087273613
 31
0.0
  0
LINE
  5
118
330
1F
100
AcDbEntity
  8
26
  6
Continuous
 62
     7
370
     9
100
AcDbLine
 10
213.2399944132642
 20
259.1264326791383
 30
0.0
 11
213.2399944132642
 21
242.5433087273613
 31
0.0
  0
LINE
  5
119
330
1F
100
AcDbEntity
  8
26
  6
Continuous
 62
     7
370
     9
100
AcDbLine
 10
201.0447545197218
 20
259.1264326791383
 30
0.0
 11
213.2399944132642
 21
259.1264326791383
 31
0.0
  0
LINE
  5
11A
330
1F
100
AcDbEntity
  8
26
  6
Continuous
 62
     7
370
     9
100
AcDbLine
 10
201.0447545197218
 20
242.5433087273613
 30
0.0
 11
213.2399944132642
 21
242.5433087273613
 31
0.0
  0
ARC
  5
11B
330
1F
100
AcDbEntity
  8
26
  6
Continuous
 62
     7
370
     9
100
AcDbCircle
 10
202.081633414221
 20
244.2965222879388
 30
0.0
 40
2.03687889449796
100
AcDbArc
 50
179.9999999999998
 51
239.3992425250159
  0
ARC
  5
11C
330
1F
100
AcDbEntity
  8
26
  6
Continuous
 62
     7
370
     9
100
AcDbCircle
 10
202.081633414221
 20
257.3732191185608
 30
0.0
 40
2.03687889449796
100
AcDbArc
 50
120.600757474983
 51
179.9999999999998
  0
ARC
  5
11D
330
1F
100
AcDbEntity
  8
26
  6
Continuous
 62
     7
370
     9
100
AcDbCircle
 10
215.5755663765124
 20
268.6074654578098
 30
0.0
 40
10.03081185678903
100
AcDbArc
 50
226.4709722640093
 51
248.7757101337523
  0
LINE
  5
11E
330
1F
100
AcDbEntity
  8
26
  6
Continuous
 62
     7
370
     9
100
AcDbLine
 10
244.5447545197232
 20
243.33487070325
 30
0.0
 11
236.5447545197232
 21
243.33487070325
 31
0.0
  0
LINE
  5
11F
330
1F
100
AcDbEntity
  8
26
  6
Continuous
 62
     7
370
     9
100
AcDbLine
 10
244.5447545197232
 20
243.9659995773992
 30
0.0
 11
244.5447545197232
 21
243.33487070325
 31
0.0
  0
LINE
  5
120
330
1F
100
AcDbEntity
  8
26
  6
Continuous
 62
     7
370
     9
100
AcDbLine
 10
236.5447545197232
 20
243.9659995773993
 30
0.0
 11
236.5447545197232
 21
243.33487070325
 31
0.0
  0
ARC
  5
121
330
1F
100
AcDbEntity
  8
26
  6
Continuous
 62
     7
370
     9
100
AcDbCircle
 10
240.5447545197232
 20
239.93487070325
 30
0.0
 40
6.5
100
AcDbArc
 50
63.61220003875615
 51
116.3877999612401
  0
ARC
  5
122
330
1F
100
AcDbEntity
  8
26
  6
Continuous
 62
     7
370
     9
100
AcDbCircle
 10
242.5447545197232
 20
243.9659995773993
 30
0.0
 40
2.0
100
AcDbArc
 50
0.0
 51
63.61220003875624
  0
ARC
  5
123
330
1F
100
AcDbEntity
  8
26
  6
Continuous
 62
     7
370
     9
100
AcDbCircle
 10
238.5447545197232
 20
243.9659995773993
 30
0.0
 40
2.0
100
AcDbArc
 50
116.3877999612401
 51
179.9999999999998
  0
LINE
  5
124
330
1F
100
AcDbEntity
  8
26
  6
Continuous
 62
     7
370
     9
100
AcDbLine
 10
242.8947545197232
 20
243.33487070325
 30
0.0
 11
242.8088284541322
 21
243.1630185720679
 31
0.0
  0
LINE
  5
125
330
1F
100
AcDbEntity
  8
26
  6
Continuous
 62
     7
370
     9
100
AcDbLine
 10
238.1947545197232
 20
243.33487070325
 30
0.0
 11
238.2806805853142
 21
243.1630185720679
 31
0.0
  0
LINE
  5
126
330
1F
100
AcDbEntity
  8
26
  6
Continuous
 62
     7
370
     9
100
AcDbLine
 10
229.4357491637069
 20
241.33487070325
 30
0.0
 11
220.5447545197232
 21
241.33487070325
 31
0.0
  0
ARC
  5
127
330
1F
100
AcDbEntity
  8
26
  6
Continuous
 62
     7
370
     9
100
AcDbCircle
 10
245.5447545197231
 20
244.5829475125219
 30
0.0
 40
2.0
100
AcDbArc
 50
252.8953648233574
 51
0.0
  0
ARC
  5
128
330
1F
100
AcDbEntity
  8
26
  6
Continuous
 62
     7
370
     9
100
AcDbCircle
 10
235.5447545197232
 20
244.5829475125219
 30
0.0
 40
2.0
100
AcDbArc
 50
179.9999999999998
 51
287.1046351766444
  0
ARC
  5
129
330
1F
100
AcDbEntity
  8
26
  6
Continuous
 62
     7
370
     9
100
AcDbCircle
 10
233.5447545197232
 20
205.5928707032522
 30
0.0
 40
38.24199999999763
100
AcDbArc
 50
89.99999999999991
 51
109.8732417213376
  0
LINE
  5
12A
330
1F
100
AcDbEntity
  8
26
  6
Continuous
 62
     7
370
     9
100
AcDbLine
 10
251.6537598757396
 20
241.33487070325
 30
0.0
 11
260.5447545197232
 21
241.33487070325
 31
0.0
  0
ARC
  5
12B
330
1F
100
AcDbEntity
  8
26
  6
Continuous
 62
     7
370
     9
100
AcDbCircle
 10
247.5447545197231
 20
205.5928707032522
 30
0.0
 40
38.2419999999976
100
AcDbArc
 50
70.12675827866235
 51
89.99999999999991
  0
LINE
  5
12C
330
1F
100
AcDbEntity
  8
26
  6
Continuous
 62
     7
370
     9
100
AcDbLine
 10
234.7981955112821
 20
231.3724782424991
 30
0.0
 11
239.6557760659439
 21
234.773792764334
 31
0.0
  0
ARC
  5
12D
330
1F
100
AcDbEntity
  8
26
  6
Continuous
 62
     7
370
     9
100
AcDbCircle
 10
271.3427134908559
 20
235.3705849889644
 30
0.0
 40
15.46428571428555
100
AcDbArc
 50
90.34248743818546
 51
120.2204721207464
  0
ARC
  5
12E
330
1F
100
AcDbEntity
  8
26
  6
Continuous
 62
     7
370
     9
100
AcDbCircle
 10
261.5447545197233
 20
239.5491564175358
 30
0.0
 40
7.785714285714164
100
AcDbArc
 50
40.7626472587211
 51
77.62917818065263
  0
LINE
  5
12F
330
1F
100
AcDbEntity
  8
26
  6
Continuous
 62
     7
370
     9
100
AcDbLine
 10
268.0447545197233
 20
242.8348707032498
 30
0.0
 11
268.0447545197232
 21
220.8348707032499
 31
0.0
  0
ARC
  5
130
330
1F
100
AcDbEntity
  8
26
  6
Continuous
 62
     7
370
     9
100
AcDbCircle
 10
219.0447545197232
 20
226.8348707032498
 30
0.0
 40
12.0
100
AcDbArc
 50
179.9999999999997
 51
269.9999999999994
  0
LINE
  5
131
330
1F
100
AcDbEntity
  8
26
  6
Continuous
 62
     7
370
     9
100
AcDbLine
 10
222.3447545197232
 20
266.2069849231482
 30
0.0
 11
222.3447545197232
 21
265.2348707032498
 31
0.0
  0
ARC
  5
132
330
1F
100
AcDbEntity
  8
26
  6
Continuous
 62
     7
370
     9
100
AcDbCircle
 10
219.5447545197232
 20
262.6348707032498
 30
0.0
 40
5.0
100
AcDbArc
 50
63.25631604959768
 51
116.7436839504023
  0
ARC
  5
133
330
1F
100
AcDbEntity
  8
26
  6
Continuous
 62
     7
370
     9
100
AcDbCircle
 10
221.3447545197232
 20
266.2069849231482
 30
0.0
 40
1.0
100
AcDbArc
 50
0.0
 51
63.25631604959768
  0
ARC
  5
134
330
1F
100
AcDbEntity
  8
26
  6
Continuous
 62
     7
370
     9
100
AcDbCircle
 10
217.7447545197232
 20
266.2069849231482
 30
0.0
 40
1.0
100
AcDbArc
 50
116.7436839504023
 51
179.9999999999998
  0
LINE
  5
135
330
1F
100
AcDbEntity
  8
26
  6
Continuous
 62
     7
370
     9
100
AcDbLine
 10
216.7447545197232
 20
266.2069849231482
 30
0.0
 11
216.7447545197232
 21
265.2348707032498
 31
0.0
  0
LINE
  5
136
330
1F
100
AcDbEntity
  8
26
  6
Continuous
 62
     7
370
     9
100
AcDbLine
 10
221.0447545197232
 20
259.2348707032499
 30
0.0
 11
218.0447545197232
 21
259.2348707032499
 31
0.0
  0
LINE
  5
137
330
1F
100
AcDbEntity
  8
26
  6
Continuous
 62
     7
370
     9
100
AcDbLine
 10
221.0447545197232
 20
259.8348707032499
 30
0.0
 11
221.0447545197232
 21
259.2348707032499
 31
0.0
  0
LINE
  5
138
330
1F
100
AcDbEntity
  8
26
  6
Continuous
 62
     7
370
     9
100
AcDbLine
 10
218.0447545197232
 20
259.8348707032499
 30
0.0
 11
218.0447545197232
 21
259.2348707032499
 31
0.0
  0
POINT
  5
139
330
1F
100
AcDbEntity
  8
6
  6
Continuous
 62
     2
370
     9
100
AcDbPoint
 10
219.5447545197232
 20
235.83487070325
 30
0.0
  0
LINE
  5
13A
330
1F
100
AcDbEntity
  8
6
  6
Continuous
 62
     2
370
     9
100
AcDbLine
 10
215.6006768279847
 20
234.21487070325
 30
0.0
 11
216.4688322114616
 21
237.4548707032499
 31
0.0
  0
LINE
  5
13B
330
1F
100
AcDbEntity
  8
6
  6
Continuous
 62
     2
370
     9
100
AcDbLine
 10
216.4688322114616
 20
237.4548707032499
 30
0.0
 11
216.9160715213989
 21
237.45487070325
 31
0.0
  0
LINE
  5
13C
330
1F
100
AcDbEntity
  8
6
  6
Continuous
 62
     2
370
     9
100
AcDbLine
 10
216.9160715213989
 20
237.45487070325
 30
0.0
 11
216.5523079968097
 21
236.0972867475433
 31
0.0
  0
LINE
  5
13D
330
1F
100
AcDbEntity
  8
6
  6
Continuous
 62
     2
370
     9
100
AcDbLine
 10
216.5523079968097
 20
236.0972867475433
 30
0.0
 11
217.9098919525165
 21
237.45487070325
 31
0.0
  0
LINE
  5
13E
330
1F
100
AcDbEntity
  8
6
  6
Continuous
 62
     2
370
     9
100
AcDbLine
 10
217.9098919525165
 20
237.45487070325
 30
0.0
 11
218.5208322114617
 21
237.4548707032499
 31
0.0
  0
LINE
  5
13F
330
1F
100
AcDbEntity
  8
6
  6
Continuous
 62
     2
370
     9
100
AcDbLine
 10
218.5208322114617
 20
237.4548707032499
 30
0.0
 11
216.7845214445079
 21
235.7185599362963
 31
0.0
  0
LINE
  5
140
330
1F
100
AcDbEntity
  8
6
  6
Continuous
 62
     2
370
     9
100
AcDbLine
 10
216.7845214445079
 20
235.7185599362963
 30
0.0
 11
217.6526768279847
 21
234.21487070325
 31
0.0
  0
LINE
  5
141
330
1F
100
AcDbEntity
  8
6
  6
Continuous
 62
     2
370
     9
100
AcDbLine
 10
217.6526768279847
 20
234.21487070325
 30
0.0
 11
217.1538461954049
 21
234.21487070325
 31
0.0
  0
LINE
  5
142
330
1F
100
AcDbEntity
  8
6
  6
Continuous
 62
     2
370
     9
100
AcDbLine
 10
217.1538461954049
 20
234.21487070325
 30
0.0
 11
216.4682754956382
 21
235.4023139874265
 31
0.0
  0
LINE
  5
143
330
1F
100
AcDbEntity
  8
6
  6
Continuous
 62
     2
370
     9
100
AcDbLine
 10
216.4682754956382
 20
235.4023139874265
 30
0.0
 11
216.3286883418412
 21
235.2627268336295
 31
0.0
  0
LINE
  5
144
330
1F
100
AcDbEntity
  8
6
  6
Continuous
 62
     2
370
     9
100
AcDbLine
 10
216.3286883418412
 20
235.2627268336295
 30
0.0
 11
216.0479161379219
 21
234.21487070325
 31
0.0
  0
LINE
  5
145
330
1F
100
AcDbEntity
  8
6
  6
Continuous
 62
     2
370
     9
100
AcDbLine
 10
216.0479161379219
 20
234.21487070325
 30
0.0
 11
215.6006768279847
 21
234.21487070325
 31
0.0
  0
ARC
  5
146
330
1F
100
AcDbEntity
  8
6
  6
Continuous
 62
     2
370
     9
100
AcDbCircle
 10
219.3599144131105
 20
235.1450380340949
 30
0.0
 40
0.9301673308449381
100
AcDbArc
 50
180.9823603667003
 51
74.99999999999902
  0
ARC
  5
147
330
1F
100
AcDbEntity
  8
6
  6
Continuous
 62
     2
370
     9
100
AcDbCircle
 10
219.7295946263359
 20
236.5247033724051
 30
0.0
 40
0.9301673308449381
100
AcDbArc
 50
0.0
 51
254.9999999999987
  0
ARC
  5
148
330
1F
100
AcDbEntity
  8
6
  6
Continuous
 62
     2
370
     9
100
AcDbCircle
 10
219.3599144131105
 20
235.1450380340949
 30
0.0
 40
0.4981673308449501
100
AcDbArc
 50
179.9999999999998
 51
75.00000000000074
  0
ARC
  5
149
330
1F
100
AcDbEntity
  8
6
  6
Continuous
 62
     2
370
     9
100
AcDbCircle
 10
219.7295946263359
 20
236.5247033724051
 30
0.0
 40
0.4981673308449501
100
AcDbArc
 50
0.0
 51
255.0000000000004
  0
LINE
  5
14A
330
1F
100
AcDbEntity
  8
6
  6
Continuous
 62
     2
370
     9
100
AcDbLine
 10
218.42988379748
 20
235.12909070325
 30
0.0
 11
218.8620024006423
 21
235.12909070325
 31
0.0
  0
LINE
  5
14B
330
1F
100
AcDbEntity
  8
6
  6
Continuous
 62
     2
370
     9
100
AcDbLine
 10
220.2277619571809
 20
236.5247033724051
 30
0.0
 11
220.6597619571808
 21
236.5247033724051
 31
0.0
  0
LINE
  5
14C
330
1F
100
AcDbEntity
  8
6
  6
Continuous
 62
     2
370
     9
100
AcDbLine
 10
221.4368322114617
 20
237.45487070325
 30
0.0
 11
221.8840715213988
 21
237.45487070325
 31
0.0
  0
LINE
  5
14D
330
1F
100
AcDbEntity
  8
6
  6
Continuous
 62
     2
370
     9
100
AcDbLine
 10
221.8840715213988
 20
237.45487070325
 30
0.0
 11
221.5203079968097
 21
236.0972867475433
 31
0.0
  0
LINE
  5
14E
330
1F
100
AcDbEntity
  8
6
  6
Continuous
 62
     2
370
     9
100
AcDbLine
 10
221.5203079968097
 20
236.0972867475433
 30
0.0
 11
222.8778919525165
 21
237.4548707032501
 31
0.0
  0
LINE
  5
14F
330
1F
100
AcDbEntity
  8
6
  6
Continuous
 62
     2
370
     9
100
AcDbLine
 10
222.8778919525165
 20
237.4548707032501
 30
0.0
 11
223.4888322114616
 21
237.4548707032501
 31
0.0
  0
LINE
  5
150
330
1F
100
AcDbEntity
  8
6
  6
Continuous
 62
     2
370
     9
100
AcDbLine
 10
223.4888322114616
 20
237.4548707032501
 30
0.0
 11
221.752521444508
 21
235.7185599362964
 31
0.0
  0
LINE
  5
151
330
1F
100
AcDbEntity
  8
6
  6
Continuous
 62
     2
370
     9
100
AcDbLine
 10
221.752521444508
 20
235.7185599362964
 30
0.0
 11
222.6206768279848
 21
234.21487070325
 31
0.0
  0
LINE
  5
152
330
1F
100
AcDbEntity
  8
6
  6
Continuous
 62
     2
370
     9
100
AcDbLine
 10
222.6206768279848
 20
234.21487070325
 30
0.0
 11
222.1218461954049
 21
234.21487070325
 31
0.0
  0
LINE
  5
153
330
1F
100
AcDbEntity
  8
6
  6
Continuous
 62
     2
370
     9
100
AcDbLine
 10
222.1218461954049
 20
234.21487070325
 30
0.0
 11
221.4362754956382
 21
235.4023139874266
 31
0.0
  0
LINE
  5
154
330
1F
100
AcDbEntity
  8
6
  6
Continuous
 62
     2
370
     9
100
AcDbLine
 10
221.4362754956382
 20
235.4023139874266
 30
0.0
 11
221.2966883418411
 21
235.2627268336295
 31
0.0
  0
LINE
  5
155
330
1F
100
AcDbEntity
  8
6
  6
Continuous
 62
     2
370
     9
100
AcDbLine
 10
221.2966883418411
 20
235.2627268336295
 30
0.0
 11
221.0159161379219
 21
234.21487070325
 31
0.0
  0
LINE
  5
156
330
1F
100
AcDbEntity
  8
6
  6
Continuous
 62
     2
370
     9
100
AcDbLine
 10
221.0159161379219
 20
234.21487070325
 30
0.0
 11
220.5686768279848
 21
234.21487070325
 31
0.0
  0
LINE
  5
157
330
1F
100
AcDbEntity
  8
6
  6
Continuous
 62
     2
370
     9
100
AcDbLine
 10
220.5686768279848
 20
234.21487070325
 30
0.0
 11
221.4368322114617
 21
237.45487070325
 31
0.0
  0
ARC
  5
158
330
1F
100
AcDbEntity
  8
6
  6
Continuous
 62
     2
370
     9
100
AcDbCircle
 10
219.5447545197232
 20
235.83487070325
 30
0.0
 40
2.268000000000001
100
AcDbArc
 50
240.811017564177
 51
299.1889824358214
  0
LINE
  5
159
330
1F
100
AcDbEntity
  8
6
  6
Continuous
 62
     2
370
     9
100
AcDbLine
 10
220.6508395074163
 20
233.85487070325
 30
0.0
 11
221.3804015446166
 21
233.85487070325
 31
0.0
  0
ARC
  5
15A
330
1F
100
AcDbEntity
  8
6
  6
Continuous
 62
     2
370
     9
100
AcDbCircle
 10
219.5447545197232
 20
235.83487070325
 30
0.0
 40
2.699999999999989
100
AcDbArc
 50
227.1665719339331
 51
312.8334280660658
  0
LINE
  5
15B
330
1F
100
AcDbEntity
  8
6
  6
Continuous
 62
     2
370
     9
100
AcDbLine
 10
217.7091074948297
 20
233.85487070325
 30
0.0
 11
218.4386695320301
 21
233.85487070325
 31
0.0
  0
ARC
  5
15C
330
1F
100
AcDbEntity
  8
6
  6
Continuous
 62
     2
370
     9
100
AcDbCircle
 10
219.5447545197232
 20
235.83487070325
 30
0.0
 40
2.268000000000001
100
AcDbArc
 50
60.81101756417826
 51
119.1889824358221
  0
LINE
  5
15D
330
1F
100
AcDbEntity
  8
6
  6
Continuous
 62
     2
370
     9
100
AcDbLine
 10
218.4386695320301
 20
237.81487070325
 30
0.0
 11
217.7091074948297
 21
237.81487070325
 31
0.0
  0
ARC
  5
15E
330
1F
100
AcDbEntity
  8
6
  6
Continuous
 62
     2
370
     9
100
AcDbCircle
 10
219.5447545197232
 20
235.83487070325
 30
0.0
 40
2.699999999999989
100
AcDbArc
 50
47.16657193393343
 51
132.8334280660666
  0
LINE
  5
15F
330
1F
100
AcDbEntity
  8
6
  6
Continuous
 62
     2
370
     9
100
AcDbLine
 10
221.3804015446166
 20
237.81487070325
 30
0.0
 11
220.6508395074163
 21
237.81487070325
 31
0.0
  0
CIRCLE
  5
160
330
1F
100
AcDbEntity
  8
6
  6
Continuous
 62
     2
370
     9
100
AcDbCircle
 10
218.1280845971586
 20
234.37687070325
 30
0.0
 40
0.1620000000000061
  0
CIRCLE
  5
161
330
1F
100
AcDbEntity
  8
6
  6
Continuous
 62
     2
370
     9
100
AcDbCircle
 10
220.3477993383851
 20
234.37687070325
 30
0.0
 40
0.1620000000000061
  0
ARC
  5
162
330
1F
100
AcDbEntity
  8
6
  6
Continuous
 62
     2
370
     9
100
AcDbCircle
 10
222.9436091658694
 20
234.37687070325
 30
0.0
 40
0.1620000000000061
100
AcDbArc
 50
57.69553575759621
 51
34.28817095655257
  0
CIRCLE
  5
163
330
1F
100
AcDbEntity
  8
6
  6
Continuous
 62
     2
370
     9
100
AcDbCircle
 10
222.9436091658694
 20
234.37687070325
 30
0.0
 40
0.1620000000000061
  0
LINE
  5
164
330
1F
100
AcDbEntity
  8
26
  6
Continuous
 62
     7
370
     9
100
AcDbLine
 10
203.6947545197232
 20
279.4348707032499
 30
0.0
 11
203.6947545197232
 21
265.9348707032499
 31
0.0
  0
LINE
  5
165
330
1F
100
AcDbEntity
  8
26
  6
Continuous
 62
     7
370
     9
100
AcDbLine
 10
216.7447545197232
 20
265.9348707032499
 30
0.0
 11
203.6947545197232
 21
265.9348707032499
 31
0.0
  0
LINE
  5
166
330
1F
100
AcDbEntity
  8
26
  6
Continuous
 62
     7
370
     9
100
AcDbLine
 10
204.6947545197232
 20
280.4348707032499
 30
0.0
 11
209.570277706118
 21
280.4348707032499
 31
0.0
  0
ARC
  5
167
330
1F
100
AcDbEntity
  8
26
  6
Continuous
 62
     7
370
     9
100
AcDbCircle
 10
209.570277706118
 20
284.43487070325
 30
0.0
 40
4.0
100
AcDbArc
 50
269.9999999999993
 51
355.9143832200251
  0
ARC
  5
168
330
1F
100
AcDbEntity
  8
26
  6
Continuous
 62
     7
370
     9
100
AcDbCircle
 10
204.6947545197232
 20
279.4348707032499
 30
0.0
 40
1.0
100
AcDbArc
 50
89.99999999999991
 51
179.9999999999998
  0
LINE
  5
169
330
1F
100
AcDbEntity
  8
26
  6
Continuous
 62
     7
370
     9
100
AcDbLine
 10
234.3947545197232
 20
280.4348707032499
 30
0.0
 11
229.5192313333284
 21
280.4348707032499
 31
0.0
  0
ARC
  5
16A
330
1F
100
AcDbEntity
  8
26
  6
Continuous
 62
     7
370
     9
100
AcDbCircle
 10
229.5192313333284
 20
284.43487070325
 30
0.0
 40
4.0
100
AcDbArc
 50
184.0856167799733
 51
269.9999999999993
  0
ARC
  5
16B
330
1F
100
AcDbEntity
  8
26
  6
Continuous
 62
     7
370
     9
100
AcDbCircle
 10
234.3947545197232
 20
279.4348707032499
 30
0.0
 40
1.0
100
AcDbArc
 50
0.0
 51
89.99999999999991
  0
LINE
  5
16C
330
1F
100
AcDbEntity
  8
26
  6
Continuous
 62
     7
370
     9
100
AcDbLine
 10
235.3947545197232
 20
279.4348707032499
 30
0.0
 11
235.3947545197232
 21
265.9348707032499
 31
0.0
  0
LINE
  5
16D
330
1F
100
AcDbEntity
  8
26
  6
Continuous
 62
     7
370
     9
100
AcDbLine
 10
222.3447545197232
 20
265.9348707032499
 30
0.0
 11
235.3947545197232
 21
265.9348707032499
 31
0.0
  0
LINE
  5
16E
330
1F
100
AcDbEntity
  8
26
  6
Continuous
 62
     7
370
     9
100
AcDbLine
 10
215.2758737231245
 20
295.1348707032498
 30
0.0
 11
219.5447545197232
 21
295.1348707032498
 31
0.0
  0
ARC
  5
16F
330
1F
100
AcDbEntity
  8
26
  6
Continuous
 62
     7
370
     9
100
AcDbCircle
 10
215.2758737231245
 20
294.1348707032499
 30
0.0
 40
1.0
100
AcDbArc
 50
89.99999999999991
 51
175.9143832200287
  0
LINE
  5
170
330
1F
100
AcDbEntity
  8
26
  6
Continuous
 62
     7
370
     9
100
AcDbLine
 10
223.8136353163219
 20
295.1348707032498
 30
0.0
 11
219.5447545197232
 21
295.1348707032498
 31
0.0
  0
ARC
  5
171
330
1F
100
AcDbEntity
  8
26
  6
Continuous
 62
     7
370
     9
100
AcDbCircle
 10
223.8136353163219
 20
294.1348707032499
 30
0.0
 40
1.0
100
AcDbArc
 50
4.08561677997128
 51
89.99999999999991
  0
LINE
  5
172
330
1F
100
AcDbEntity
  8
26
  6
Continuous
 62
     7
370
     9
100
AcDbLine
 10
214.2784150232938
 20
294.2061177532377
 30
0.0
 11
213.560112505441
 21
284.1498825032983
 31
0.0
  0
LINE
  5
173
330
1F
100
AcDbEntity
  8
26
  6
Continuous
 62
     7
370
     9
100
AcDbLine
 10
224.8110940161527
 20
294.2061177532377
 30
0.0
 11
225.5293965340055
 21
284.1498825032983
 31
0.0
  0
LINE
  5
174
330
1F
100
AcDbEntity
  8
26
  6
Continuous
 62
     7
370
     9
100
AcDbLine
 10
277.3947545197231
 20
279.4348707032499
 30
0.0
 11
277.3947545197231
 21
265.9348707032499
 31
0.0
  0
LINE
  5
175
330
1F
100
AcDbEntity
  8
26
  6
Continuous
 62
     7
370
     9
100
AcDbLine
 10
261.5447545197233
 20
265.9348707032499
 30
0.0
 11
277.3947545197231
 21
265.9348707032499
 31
0.0
  0
LINE
  5
176
330
1F
100
AcDbEntity
  8
26
  6
Continuous
 62
     7
370
     9
100
AcDbLine
 10
276.3947545197232
 20
280.4348707032499
 30
0.0
 11
271.5192313333284
 21
280.4348707032499
 31
0.0
  0
ARC
  5
177
330
1F
100
AcDbEntity
  8
26
  6
Continuous
 62
     7
370
     9
100
AcDbCircle
 10
271.5192313333284
 20
284.43487070325
 30
0.0
 40
4.0
100
AcDbArc
 50
184.0856167799733
 51
269.9999999999998
  0
ARC
  5
178
330
1F
100
AcDbEntity
  8
26
  6
Continuous
 62
     7
370
     9
100
AcDbCircle
 10
276.3947545197232
 20
279.4348707032499
 30
0.0
 40
1.0
100
AcDbArc
 50
0.0
 51
89.99999999999991
  0
LINE
  5
179
330
1F
100
AcDbEntity
  8
26
  6
Continuous
 62
     7
370
     9
100
AcDbLine
 10
246.6947545197231
 20
280.4348707032499
 30
0.0
 11
251.570277706118
 21
280.4348707032499
 31
0.0
  0
ARC
  5
17A
330
1F
100
AcDbEntity
  8
26
  6
Continuous
 62
     7
370
     9
100
AcDbCircle
 10
251.570277706118
 20
284.43487070325
 30
0.0
 40
4.0
100
AcDbArc
 50
269.9999999999993
 51
355.9143832200251
  0
ARC
  5
17B
330
1F
100
AcDbEntity
  8
26
  6
Continuous
 62
     7
370
     9
100
AcDbCircle
 10
246.6947545197231
 20
279.4348707032499
 30
0.0
 40
1.0
100
AcDbArc
 50
89.99999999999991
 51
179.9999999999998
  0
LINE
  5
17C
330
1F
100
AcDbEntity
  8
26
  6
Continuous
 62
     7
370
     9
100
AcDbLine
 10
245.6947545197231
 20
279.4348707032499
 30
0.0
 11
245.6947545197231
 21
265.9348707032499
 31
0.0
  0
LINE
  5
17D
330
1F
100
AcDbEntity
  8
26
  6
Continuous
 62
     7
370
     9
100
AcDbLine
 10
261.5447545197233
 20
265.9348707032499
 30
0.0
 11
245.6947545197231
 21
265.9348707032499
 31
0.0
  0
LINE
  5
17E
330
1F
100
AcDbEntity
  8
26
  6
Continuous
 62
     7
370
     9
100
AcDbLine
 10
265.8136353163219
 20
295.1348707032498
 30
0.0
 11
261.5447545197233
 21
295.1348707032498
 31
0.0
  0
ARC
  5
17F
330
1F
100
AcDbEntity
  8
26
  6
Continuous
 62
     7
370
     9
100
AcDbCircle
 10
265.8136353163219
 20
294.1348707032499
 30
0.0
 40
1.0
100
AcDbArc
 50
4.085616779971164
 51
89.99999999999991
  0
LINE
  5
180
330
1F
100
AcDbEntity
  8
26
  6
Continuous
 62
     7
370
     9
100
AcDbLine
 10
257.2758737231245
 20
295.1348707032498
 30
0.0
 11
261.5447545197233
 21
295.1348707032498
 31
0.0
  0
ARC
  5
181
330
1F
100
AcDbEntity
  8
26
  6
Continuous
 62
     7
370
     9
100
AcDbCircle
 10
257.2758737231245
 20
294.1348707032499
 30
0.0
 40
1.0
100
AcDbArc
 50
89.99999999999991
 51
175.9143832200288
  0
LINE
  5
182
330
1F
100
AcDbEntity
  8
26
  6
Continuous
 62
     7
370
     9
100
AcDbLine
 10
266.8110940161526
 20
294.2061177532377
 30
0.0
 11
267.5293965340054
 21
284.1498825032983
 31
0.0
  0
LINE
  5
183
330
1F
100
AcDbEntity
  8
26
  6
Continuous
 62
     7
370
     9
100
AcDbLine
 10
256.2784150232937
 20
294.2061177532377
 30
0.0
 11
255.5601125054409
 21
284.1498825032983
 31
0.0
  0
POLYLINE
  5
184
330
1F
100
AcDbEntity
  8
6
  6
Continuous
 62
     2
370
     9
100
AcDb2dPolyline
 66
     1
 10
0.0
 20
0.0
 30
0.0
  0
VERTEX
  5
186
330
184
100
AcDbEntity
  8
6
  6
Continuous
 62
     2
370
     9
100
AcDbVertex
100
AcDb2dVertex
 10
265.045
 20
250.435
 30
0.0
  0
VERTEX
  5
187
330
184
100
AcDbEntity
  8
6
  6
Continuous
 62
     2
370
     9
100
AcDbVertex
100
AcDb2dVertex
 10
265.041
 20
250.464
 30
0.0
  0
VERTEX
  5
188
330
184
100
AcDbEntity
  8
6
  6
Continuous
 62
     2
370
     9
100
AcDbVertex
100
AcDb2dVertex
 10
265.028
 20
250.494
 30
0.0
  0
VERTEX
  5
189
330
184
100
AcDbEntity
  8
6
  6
Continuous
 62
     2
370
     9
100
AcDbVertex
100
AcDb2dVertex
 10
265.007
 20
250.523
 30
0.0
  0
VERTEX
  5
18A
330
184
100
AcDbEntity
  8
6
  6
Continuous
 62
     2
370
     9
100
AcDbVertex
100
AcDb2dVertex
 10
264.978
 20
250.552
 30
0.0
  0
VERTEX
  5
18B
330
184
100
AcDbEntity
  8
6
  6
Continuous
 62
     2
370
     9
100
AcDbVertex
100
AcDb2dVertex
 10
264.94
 20
250.581
 30
0.0
  0
VERTEX
  5
18C
330
184
100
AcDbEntity
  8
6
  6
Continuous
 62
     2
370
     9
100
AcDbVertex
100
AcDb2dVertex
 10
264.894
 20
250.609
 30
0.0
  0
VERTEX
  5
18D
330
184
100
AcDbEntity
  8
6
  6
Continuous
 62
     2
370
     9
100
AcDbVertex
100
AcDb2dVertex
 10
264.84
 20
250.637
 30
0.0
  0
VERTEX
  5
18E
330
184
100
AcDbEntity
  8
6
  6
Continuous
 62
     2
370
     9
100
AcDbVertex
100
AcDb2dVertex
 10
264.778
 20
250.664
 30
0.0
  0
VERTEX
  5
18F
330
184
100
AcDbEntity
  8
6
  6
Continuous
 62
     2
370
     9
100
AcDbVertex
100
AcDb2dVertex
 10
264.709
 20
250.691
 30
0.0
  0
VERTEX
  5
190
330
184
100
AcDbEntity
  8
6
  6
Continuous
 62
     2
370
     9
100
AcDbVertex
100
AcDb2dVertex
 10
264.631
 20
250.718
 30
0.0
  0
VERTEX
  5
191
330
184
100
AcDbEntity
  8
6
  6
Continuous
 62
     2
370
     9
100
AcDbVertex
100
AcDb2dVertex
 10
264.547
 20
250.743
 30
0.0
  0
VERTEX
  5
192
330
184
100
AcDbEntity
  8
6
  6
Continuous
 62
     2
370
     9
100
AcDbVertex
100
AcDb2dVertex
 10
264.455
 20
250.768
 30
0.0
  0
VERTEX
  5
193
330
184
100
AcDbEntity
  8
6
  6
Continuous
 62
     2
370
     9
100
AcDbVertex
100
AcDb2dVertex
 10
264.356
 20
250.792
 30
0.0
  0
VERTEX
  5
194
330
184
100
AcDbEntity
  8
6
  6
Continuous
 62
     2
370
     9
100
AcDbVertex
100
AcDb2dVertex
 10
264.25
 20
250.816
 30
0.0
  0
VERTEX
  5
195
330
184
100
AcDbEntity
  8
6
  6
Continuous
 62
     2
370
     9
100
AcDbVertex
100
AcDb2dVertex
 10
264.138
 20
250.838
 30
0.0
  0
VERTEX
  5
196
330
184
100
AcDbEntity
  8
6
  6
Continuous
 62
     2
370
     9
100
AcDbVertex
100
AcDb2dVertex
 10
264.02
 20
250.859
 30
0.0
  0
VERTEX
  5
197
330
184
100
AcDbEntity
  8
6
  6
Continuous
 62
     2
370
     9
100
AcDbVertex
100
AcDb2dVertex
 10
263.895
 20
250.879
 30
0.0
  0
VERTEX
  5
198
330
184
100
AcDbEntity
  8
6
  6
Continuous
 62
     2
370
     9
100
AcDbVertex
100
AcDb2dVertex
 10
263.765
 20
250.899
 30
0.0
  0
VERTEX
  5
199
330
184
100
AcDbEntity
  8
6
  6
Continuous
 62
     2
370
     9
100
AcDbVertex
100
AcDb2dVertex
 10
263.63
 20
250.917
 30
0.0
  0
VERTEX
  5
19A
330
184
100
AcDbEntity
  8
6
  6
Continuous
 62
     2
370
     9
100
AcDbVertex
100
AcDb2dVertex
 10
263.489
 20
250.934
 30
0.0
  0
VERTEX
  5
19B
330
184
100
AcDbEntity
  8
6
  6
Continuous
 62
     2
370
     9
100
AcDbVertex
100
AcDb2dVertex
 10
263.344
 20
250.95
 30
0.0
  0
VERTEX
  5
19C
330
184
100
AcDbEntity
  8
6
  6
Continuous
 62
     2
370
     9
100
AcDbVertex
100
AcDb2dVertex
 10
263.195
 20
250.964
 30
0.0
  0
VERTEX
  5
19D
330
184
100
AcDbEntity
  8
6
  6
Continuous
 62
     2
370
     9
100
AcDbVertex
100
AcDb2dVertex
 10
263.041
 20
250.977
 30
0.0
  0
VERTEX
  5
19E
330
184
100
AcDbEntity
  8
6
  6
Continuous
 62
     2
370
     9
100
AcDbVertex
100
AcDb2dVertex
 10
262.884
 20
250.989
 30
0.0
  0
VERTEX
  5
19F
330
184
100
AcDbEntity
  8
6
  6
Continuous
 62
     2
370
     9
100
AcDbVertex
100
AcDb2dVertex
 10
262.724
 20
251.0
 30
0.0
  0
VERTEX
  5
1A0
330
184
100
AcDbEntity
  8
6
  6
Continuous
 62
     2
370
     9
100
AcDbVertex
100
AcDb2dVertex
 10
262.561
 20
251.009
 30
0.0
  0
VERTEX
  5
1A1
330
184
100
AcDbEntity
  8
6
  6
Continuous
 62
     2
370
     9
100
AcDbVertex
100
AcDb2dVertex
 10
262.395
 20
251.017
 30
0.0
  0
VERTEX
  5
1A2
330
184
100
AcDbEntity
  8
6
  6
Continuous
 62
     2
370
     9
100
AcDbVertex
100
AcDb2dVertex
 10
262.228
 20
251.023
 30
0.0
  0
VERTEX
  5
1A3
330
184
100
AcDbEntity
  8
6
  6
Continuous
 62
     2
370
     9
100
AcDbVertex
100
AcDb2dVertex
 10
262.058
 20
251.028
 30
0.0
  0
VERTEX
  5
1A4
330
184
100
AcDbEntity
  8
6
  6
Continuous
 62
     2
370
     9
100
AcDbVertex
100
AcDb2dVertex
 10
261.888
 20
251.032
 30
0.0
  0
VERTEX
  5
1A5
330
184
100
AcDbEntity
  8
6
  6
Continuous
 62
     2
370
     9
100
AcDbVertex
100
AcDb2dVertex
 10
261.716
 20
251.034
 30
0.0
  0
VERTEX
  5
1A6
330
184
100
AcDbEntity
  8
6
  6
Continuous
 62
     2
370
     9
100
AcDbVertex
100
AcDb2dVertex
 10
261.545
 20
251.035
 30
0.0
  0
VERTEX
  5
1A7
330
184
100
AcDbEntity
  8
6
  6
Continuous
 62
     2
370
     9
100
AcDbVertex
100
AcDb2dVertex
 10
261.373
 20
251.034
 30
0.0
  0
VERTEX
  5
1A8
330
184
100
AcDbEntity
  8
6
  6
Continuous
 62
     2
370
     9
100
AcDbVertex
100
AcDb2dVertex
 10
261.202
 20
251.032
 30
0.0
  0
VERTEX
  5
1A9
330
184
100
AcDbEntity
  8
6
  6
Continuous
 62
     2
370
     9
100
AcDbVertex
100
AcDb2dVertex
 10
261.031
 20
251.028
 30
0.0
  0
VERTEX
  5
1AA
330
184
100
AcDbEntity
  8
6
  6
Continuous
 62
     2
370
     9
100
AcDbVertex
100
AcDb2dVertex
 10
260.862
 20
251.023
 30
0.0
  0
VERTEX
  5
1AB
330
184
100
AcDbEntity
  8
6
  6
Continuous
 62
     2
370
     9
100
AcDbVertex
100
AcDb2dVertex
 10
260.694
 20
251.017
 30
0.0
  0
VERTEX
  5
1AC
330
184
100
AcDbEntity
  8
6
  6
Continuous
 62
     2
370
     9
100
AcDbVertex
100
AcDb2dVertex
 10
260.529
 20
251.009
 30
0.0
  0
VERTEX
  5
1AD
330
184
100
AcDbEntity
  8
6
  6
Continuous
 62
     2
370
     9
100
AcDbVertex
100
AcDb2dVertex
 10
260.366
 20
251.0
 30
0.0
  0
VERTEX
  5
1AE
330
184
100
AcDbEntity
  8
6
  6
Continuous
 62
     2
370
     9
100
AcDbVertex
100
AcDb2dVertex
 10
260.205
 20
250.989
 30
0.0
  0
VERTEX
  5
1AF
330
184
100
AcDbEntity
  8
6
  6
Continuous
 62
     2
370
     9
100
AcDbVertex
100
AcDb2dVertex
 10
260.048
 20
250.977
 30
0.0
  0
VERTEX
  5
1B0
330
184
100
AcDbEntity
  8
6
  6
Continuous
 62
     2
370
     9
100
AcDbVertex
100
AcDb2dVertex
 10
259.895
 20
250.964
 30
0.0
  0
VERTEX
  5
1B1
330
184
100
AcDbEntity
  8
6
  6
Continuous
 62
     2
370
     9
100
AcDbVertex
100
AcDb2dVertex
 10
259.745
 20
250.95
 30
0.0
  0
VERTEX
  5
1B2
330
184
100
AcDbEntity
  8
6
  6
Continuous
 62
     2
370
     9
100
AcDbVertex
100
AcDb2dVertex
 10
259.6
 20
250.934
 30
0.0
  0
VERTEX
  5
1B3
330
184
100
AcDbEntity
  8
6
  6
Continuous
 62
     2
370
     9
100
AcDbVertex
100
AcDb2dVertex
 10
259.46
 20
250.917
 30
0.0
  0
VERTEX
  5
1B4
330
184
100
AcDbEntity
  8
6
  6
Continuous
 62
     2
370
     9
100
AcDbVertex
100
AcDb2dVertex
 10
259.324
 20
250.899
 30
0.0
  0
VERTEX
  5
1B5
330
184
100
AcDbEntity
  8
6
  6
Continuous
 62
     2
370
     9
100
AcDbVertex
100
AcDb2dVertex
 10
259.194
 20
250.879
 30
0.0
  0
VERTEX
  5
1B6
330
184
100
AcDbEntity
  8
6
  6
Continuous
 62
     2
370
     9
100
AcDbVertex
100
AcDb2dVertex
 10
259.07
 20
250.859
 30
0.0
  0
VERTEX
  5
1B7
330
184
100
AcDbEntity
  8
6
  6
Continuous
 62
     2
370
     9
100
AcDbVertex
100
AcDb2dVertex
 10
258.951
 20
250.838
 30
0.0
  0
VERTEX
  5
1B8
330
184
100
AcDbEntity
  8
6
  6
Continuous
 62
     2
370
     9
100
AcDbVertex
100
AcDb2dVertex
 10
258.839
 20
250.816
 30
0.0
  0
VERTEX
  5
1B9
330
184
100
AcDbEntity
  8
6
  6
Continuous
 62
     2
370
     9
100
AcDbVertex
100
AcDb2dVertex
 10
258.734
 20
250.792
 30
0.0
  0
VERTEX
  5
1BA
330
184
100
AcDbEntity
  8
6
  6
Continuous
 62
     2
370
     9
100
AcDbVertex
100
AcDb2dVertex
 10
258.635
 20
250.768
 30
0.0
  0
VERTEX
  5
1BB
330
184
100
AcDbEntity
  8
6
  6
Continuous
 62
     2
370
     9
100
AcDbVertex
100
AcDb2dVertex
 10
258.543
 20
250.743
 30
0.0
  0
VERTEX
  5
1BC
330
184
100
AcDbEntity
  8
6
  6
Continuous
 62
     2
370
     9
100
AcDbVertex
100
AcDb2dVertex
 10
258.458
 20
250.718
 30
0.0
  0
VERTEX
  5
1BD
330
184
100
AcDbEntity
  8
6
  6
Continuous
 62
     2
370
     9
100
AcDbVertex
100
AcDb2dVertex
 10
258.381
 20
250.691
 30
0.0
  0
VERTEX
  5
1BE
330
184
100
AcDbEntity
  8
6
  6
Continuous
 62
     2
370
     9
100
AcDbVertex
100
AcDb2dVertex
 10
258.311
 20
250.664
 30
0.0
  0
VERTEX
  5
1BF
330
184
100
AcDbEntity
  8
6
  6
Continuous
 62
     2
370
     9
100
AcDbVertex
100
AcDb2dVertex
 10
258.249
 20
250.637
 30
0.0
  0
VERTEX
  5
1C0
330
184
100
AcDbEntity
  8
6
  6
Continuous
 62
     2
370
     9
100
AcDbVertex
100
AcDb2dVertex
 10
258.195
 20
250.609
 30
0.0
  0
VERTEX
  5
1C1
330
184
100
AcDbEntity
  8
6
  6
Continuous
 62
     2
370
     9
100
AcDbVertex
100
AcDb2dVertex
 10
258.15
 20
250.581
 30
0.0
  0
VERTEX
  5
1C2
330
184
100
AcDbEntity
  8
6
  6
Continuous
 62
     2
370
     9
100
AcDbVertex
100
AcDb2dVertex
 10
258.112
 20
250.552
 30
0.0
  0
VERTEX
  5
1C3
330
184
100
AcDbEntity
  8
6
  6
Continuous
 62
     2
370
     9
100
AcDbVertex
100
AcDb2dVertex
 10
258.083
 20
250.523
 30
0.0
  0
VERTEX
  5
1C4
330
184
100
AcDbEntity
  8
6
  6
Continuous
 62
     2
370
     9
100
AcDbVertex
100
AcDb2dVertex
 10
258.062
 20
250.494
 30
0.0
  0
VERTEX
  5
1C5
330
184
100
AcDbEntity
  8
6
  6
Continuous
 62
     2
370
     9
100
AcDbVertex
100
AcDb2dVertex
 10
258.049
 20
250.464
 30
0.0
  0
VERTEX
  5
1C6
330
184
100
AcDbEntity
  8
6
  6
Continuous
 62
     2
370
     9
100
AcDbVertex
100
AcDb2dVertex
 10
258.045
 20
250.435
 30
0.0
  0
VERTEX
  5
1C7
330
184
100
AcDbEntity
  8
6
  6
Continuous
 62
     2
370
     9
100
AcDbVertex
100
AcDb2dVertex
 10
258.049
 20
250.405
 30
0.0
  0
VERTEX
  5
1C8
330
184
100
AcDbEntity
  8
6
  6
Continuous
 62
     2
370
     9
100
AcDbVertex
100
AcDb2dVertex
 10
258.062
 20
250.376
 30
0.0
  0
VERTEX
  5
1C9
330
184
100
AcDbEntity
  8
6
  6
Continuous
 62
     2
370
     9
100
AcDbVertex
100
AcDb2dVertex
 10
258.083
 20
250.347
 30
0.0
  0
VERTEX
  5
1CA
330
184
100
AcDbEntity
  8
6
  6
Continuous
 62
     2
370
     9
100
AcDbVertex
100
AcDb2dVertex
 10
258.112
 20
250.318
 30
0.0
  0
VERTEX
  5
1CB
330
184
100
AcDbEntity
  8
6
  6
Continuous
 62
     2
370
     9
100
AcDbVertex
100
AcDb2dVertex
 10
258.15
 20
250.289
 30
0.0
  0
VERTEX
  5
1CC
330
184
100
AcDbEntity
  8
6
  6
Continuous
 62
     2
370
     9
100
AcDbVertex
100
AcDb2dVertex
 10
258.195
 20
250.261
 30
0.0
  0
VERTEX
  5
1CD
330
184
100
AcDbEntity
  8
6
  6
Continuous
 62
     2
370
     9
100
AcDbVertex
100
AcDb2dVertex
 10
258.249
 20
250.233
 30
0.0
  0
VERTEX
  5
1CE
330
184
100
AcDbEntity
  8
6
  6
Continuous
 62
     2
370
     9
100
AcDbVertex
100
AcDb2dVertex
 10
258.311
 20
250.205
 30
0.0
  0
VERTEX
  5
1CF
330
184
100
AcDbEntity
  8
6
  6
Continuous
 62
     2
370
     9
100
AcDbVertex
100
AcDb2dVertex
 10
258.381
 20
250.178
 30
0.0
  0
VERTEX
  5
1D0
330
184
100
AcDbEntity
  8
6
  6
Continuous
 62
     2
370
     9
100
AcDbVertex
100
AcDb2dVertex
 10
258.458
 20
250.152
 30
0.0
  0
VERTEX
  5
1D1
330
184
100
AcDbEntity
  8
6
  6
Continuous
 62
     2
370
     9
100
AcDbVertex
100
AcDb2dVertex
 10
258.543
 20
250.126
 30
0.0
  0
VERTEX
  5
1D2
330
184
100
AcDbEntity
  8
6
  6
Continuous
 62
     2
370
     9
100
AcDbVertex
100
AcDb2dVertex
 10
258.635
 20
250.102
 30
0.0
  0
VERTEX
  5
1D3
330
184
100
AcDbEntity
  8
6
  6
Continuous
 62
     2
370
     9
100
AcDbVertex
100
AcDb2dVertex
 10
258.734
 20
250.077
 30
0.0
  0
VERTEX
  5
1D4
330
184
100
AcDbEntity
  8
6
  6
Continuous
 62
     2
370
     9
100
AcDbVertex
100
AcDb2dVertex
 10
258.839
 20
250.054
 30
0.0
  0
VERTEX
  5
1D5
330
184
100
AcDbEntity
  8
6
  6
Continuous
 62
     2
370
     9
100
AcDbVertex
100
AcDb2dVertex
 10
258.951
 20
250.032
 30
0.0
  0
VERTEX
  5
1D6
330
184
100
AcDbEntity
  8
6
  6
Continuous
 62
     2
370
     9
100
AcDbVertex
100
AcDb2dVertex
 10
259.07
 20
250.011
 30
0.0
  0
VERTEX
  5
1D7
330
184
100
AcDbEntity
  8
6
  6
Continuous
 62
     2
370
     9
100
AcDbVertex
100
AcDb2dVertex
 10
259.194
 20
249.99
 30
0.0
  0
VERTEX
  5
1D8
330
184
100
AcDbEntity
  8
6
  6
Continuous
 62
     2
370
     9
100
AcDbVertex
100
AcDb2dVertex
 10
259.324
 20
249.971
 30
0.0
  0
VERTEX
  5
1D9
330
184
100
AcDbEntity
  8
6
  6
Continuous
 62
     2
370
     9
100
AcDbVertex
100
AcDb2dVertex
 10
259.46
 20
249.953
 30
0.0
  0
VERTEX
  5
1DA
330
184
100
AcDbEntity
  8
6
  6
Continuous
 62
     2
370
     9
100
AcDbVertex
100
AcDb2dVertex
 10
259.6
 20
249.936
 30
0.0
  0
VERTEX
  5
1DB
330
184
100
AcDbEntity
  8
6
  6
Continuous
 62
     2
370
     9
100
AcDbVertex
100
AcDb2dVertex
 10
259.745
 20
249.92
 30
0.0
  0
VERTEX
  5
1DC
330
184
100
AcDbEntity
  8
6
  6
Continuous
 62
     2
370
     9
100
AcDbVertex
100
AcDb2dVertex
 10
259.895
 20
249.906
 30
0.0
  0
VERTEX
  5
1DD
330
184
100
AcDbEntity
  8
6
  6
Continuous
 62
     2
370
     9
100
AcDbVertex
100
AcDb2dVertex
 10
260.048
 20
249.892
 30
0.0
  0
VERTEX
  5
1DE
330
184
100
AcDbEntity
  8
6
  6
Continuous
 62
     2
370
     9
100
AcDbVertex
100
AcDb2dVertex
 10
260.205
 20
249.881
 30
0.0
  0
VERTEX
  5
1DF
330
184
100
AcDbEntity
  8
6
  6
Continuous
 62
     2
370
     9
100
AcDbVertex
100
AcDb2dVertex
 10
260.366
 20
249.87
 30
0.0
  0
VERTEX
  5
1E0
330
184
100
AcDbEntity
  8
6
  6
Continuous
 62
     2
370
     9
100
AcDbVertex
100
AcDb2dVertex
 10
260.529
 20
249.861
 30
0.0
  0
VERTEX
  5
1E1
330
184
100
AcDbEntity
  8
6
  6
Continuous
 62
     2
370
     9
100
AcDbVertex
100
AcDb2dVertex
 10
260.694
 20
249.853
 30
0.0
  0
VERTEX
  5
1E2
330
184
100
AcDbEntity
  8
6
  6
Continuous
 62
     2
370
     9
100
AcDbVertex
100
AcDb2dVertex
 10
260.862
 20
249.846
 30
0.0
  0
VERTEX
  5
1E3
330
184
100
AcDbEntity
  8
6
  6
Continuous
 62
     2
370
     9
100
AcDbVertex
100
AcDb2dVertex
 10
261.031
 20
249.841
 30
0.0
  0
VERTEX
  5
1E4
330
184
100
AcDbEntity
  8
6
  6
Continuous
 62
     2
370
     9
100
AcDbVertex
100
AcDb2dVertex
 10
261.202
 20
249.838
 30
0.0
  0
VERTEX
  5
1E5
330
184
100
AcDbEntity
  8
6
  6
Continuous
 62
     2
370
     9
100
AcDbVertex
100
AcDb2dVertex
 10
261.373
 20
249.836
 30
0.0
  0
VERTEX
  5
1E6
330
184
100
AcDbEntity
  8
6
  6
Continuous
 62
     2
370
     9
100
AcDbVertex
100
AcDb2dVertex
 10
261.545
 20
249.835
 30
0.0
  0
VERTEX
  5
1E7
330
184
100
AcDbEntity
  8
6
  6
Continuous
 62
     2
370
     9
100
AcDbVertex
100
AcDb2dVertex
 10
261.716
 20
249.836
 30
0.0
  0
VERTEX
  5
1E8
330
184
100
AcDbEntity
  8
6
  6
Continuous
 62
     2
370
     9
100
AcDbVertex
100
AcDb2dVertex
 10
261.888
 20
249.838
 30
0.0
  0
VERTEX
  5
1E9
330
184
100
AcDbEntity
  8
6
  6
Continuous
 62
     2
370
     9
100
AcDbVertex
100
AcDb2dVertex
 10
262.058
 20
249.841
 30
0.0
  0
VERTEX
  5
1EA
330
184
100
AcDbEntity
  8
6
  6
Continuous
 62
     2
370
     9
100
AcDbVertex
100
AcDb2dVertex
 10
262.228
 20
249.846
 30
0.0
  0
VERTEX
  5
1EB
330
184
100
AcDbEntity
  8
6
  6
Continuous
 62
     2
370
     9
100
AcDbVertex
100
AcDb2dVertex
 10
262.395
 20
249.853
 30
0.0
  0
VERTEX
  5
1EC
330
184
100
AcDbEntity
  8
6
  6
Continuous
 62
     2
370
     9
100
AcDbVertex
100
AcDb2dVertex
 10
262.561
 20
249.861
 30
0.0
  0
VERTEX
  5
1ED
330
184
100
AcDbEntity
  8
6
  6
Continuous
 62
     2
370
     9
100
AcDbVertex
100
AcDb2dVertex
 10
262.724
 20
249.87
 30
0.0
  0
VERTEX
  5
1EE
330
184
100
AcDbEntity
  8
6
  6
Continuous
 62
     2
370
     9
100
AcDbVertex
100
AcDb2dVertex
 10
262.884
 20
249.881
 30
0.0
  0
VERTEX
  5
1EF
330
184
100
AcDbEntity
  8
6
  6
Continuous
 62
     2
370
     9
100
AcDbVertex
100
AcDb2dVertex
 10
263.041
 20
249.892
 30
0.0
  0
VERTEX
  5
1F0
330
184
100
AcDbEntity
  8
6
  6
Continuous
 62
     2
370
     9
100
AcDbVertex
100
AcDb2dVertex
 10
263.195
 20
249.906
 30
0.0
  0
VERTEX
  5
1F1
330
184
100
AcDbEntity
  8
6
  6
Continuous
 62
     2
370
     9
100
AcDbVertex
100
AcDb2dVertex
 10
263.344
 20
249.92
 30
0.0
  0
VERTEX
  5
1F2
330
184
100
AcDbEntity
  8
6
  6
Continuous
 62
     2
370
     9
100
AcDbVertex
100
AcDb2dVertex
 10
263.489
 20
249.936
 30
0.0
  0
VERTEX
  5
1F3
330
184
100
AcDbEntity
  8
6
  6
Continuous
 62
     2
370
     9
100
AcDbVertex
100
AcDb2dVertex
 10
263.63
 20
249.953
 30
0.0
  0
VERTEX
  5
1F4
330
184
100
AcDbEntity
  8
6
  6
Continuous
 62
     2
370
     9
100
AcDbVertex
100
AcDb2dVertex
 10
263.765
 20
249.971
 30
0.0
  0
VERTEX
  5
1F5
330
184
100
AcDbEntity
  8
6
  6
Continuous
 62
     2
370
     9
100
AcDbVertex
100
AcDb2dVertex
 10
263.895
 20
249.99
 30
0.0
  0
VERTEX
  5
1F6
330
184
100
AcDbEntity
  8
6
  6
Continuous
 62
     2
370
     9
100
AcDbVertex
100
AcDb2dVertex
 10
264.02
 20
250.011
 30
0.0
  0
VERTEX
  5
1F7
330
184
100
AcDbEntity
  8
6
  6
Continuous
 62
     2
370
     9
100
AcDbVertex
100
AcDb2dVertex
 10
264.138
 20
250.032
 30
0.0
  0
VERTEX
  5
1F8
330
184
100
AcDbEntity
  8
6
  6
Continuous
 62
     2
370
     9
100
AcDbVertex
100
AcDb2dVertex
 10
264.25
 20
250.054
 30
0.0
  0
VERTEX
  5
1F9
330
184
100
AcDbEntity
  8
6
  6
Continuous
 62
     2
370
     9
100
AcDbVertex
100
AcDb2dVertex
 10
264.356
 20
250.077
 30
0.0
  0
VERTEX
  5
1FA
330
184
100
AcDbEntity
  8
6
  6
Continuous
 62
     2
370
     9
100
AcDbVertex
100
AcDb2dVertex
 10
264.455
 20
250.102
 30
0.0
  0
VERTEX
  5
1FB
330
184
100
AcDbEntity
  8
6
  6
Continuous
 62
     2
370
     9
100
AcDbVertex
100
AcDb2dVertex
 10
264.547
 20
250.126
 30
0.0
  0
VERTEX
  5
1FC
330
184
100
AcDbEntity
  8
6
  6
Continuous
 62
     2
370
     9
100
AcDbVertex
100
AcDb2dVertex
 10
264.631
 20
250.152
 30
0.0
  0
VERTEX
  5
1FD
330
184
100
AcDbEntity
  8
6
  6
Continuous
 62
     2
370
     9
100
AcDbVertex
100
AcDb2dVertex
 10
264.709
 20
250.178
 30
0.0
  0
VERTEX
  5
1FE
330
184
100
AcDbEntity
  8
6
  6
Continuous
 62
     2
370
     9
100
AcDbVertex
100
AcDb2dVertex
 10
264.778
 20
250.205
 30
0.0
  0
VERTEX
  5
1FF
330
184
100
AcDbEntity
  8
6
  6
Continuous
 62
     2
370
     9
100
AcDbVertex
100
AcDb2dVertex
 10
264.84
 20
250.233
 30
0.0
  0
VERTEX
  5
200
330
184
100
AcDbEntity
  8
6
  6
Continuous
 62
     2
370
     9
100
AcDbVertex
100
AcDb2dVertex
 10
264.894
 20
250.261
 30
0.0
  0
VERTEX
  5
201
330
184
100
AcDbEntity
  8
6
  6
Continuous
 62
     2
370
     9
100
AcDbVertex
100
AcDb2dVertex
 10
264.94
 20
250.289
 30
0.0
  0
VERTEX
  5
202
330
184
100
AcDbEntity
  8
6
  6
Continuous
 62
     2
370
     9
100
AcDbVertex
100
AcDb2dVertex
 10
264.978
 20
250.318
 30
0.0
  0
VERTEX
  5
203
330
184
100
AcDbEntity
  8
6
  6
Continuous
 62
     2
370
     9
100
AcDbVertex
100
AcDb2dVertex
 10
265.007
 20
250.347
 30
0.0
  0
VERTEX
  5
204
330
184
100
AcDbEntity
  8
6
  6
Continuous
 62
     2
370
     9
100
AcDbVertex
100
AcDb2dVertex
 10
265.028
 20
250.376
 30
0.0
  0
VERTEX
  5
205
330
184
100
AcDbEntity
  8
6
  6
Continuous
 62
     2
370
     9
100
AcDbVertex
100
AcDb2dVertex
 10
265.041
 20
250.405
 30
0.0
  0
VERTEX
  5
206
330
184
100
AcDbEntity
  8
6
  6
Continuous
 62
     2
370
     9
100
AcDbVertex
100
AcDb2dVertex
 10
265.045
 20
250.435
 30
0.0
  0
SEQEND
  5
185
330
184
100
AcDbEntity
  8
6
  6
Continuous
370
     9
  0
CIRCLE
  5
207
330
1F
100
AcDbEntity
  8
6
  6
Continuous
 62
     2
370
     9
100
AcDbCircle
 10
261.5447545197232
 20
254.6848707032499
 30
0.0
 40
3.149999999999977
  0
CIRCLE
  5
208
330
1F
100
AcDbEntity
  8
6
  6
Continuous
 62
     2
370
     9
100
AcDbCircle
 10
260.744754519723
 20
256.1348707032499
 30
0.0
 40
1.050000000000011
  0
LINE
  5
209
330
1F
100
AcDbEntity
  8
11
  6
DASHDOT
 62
     3
370
     9
100
AcDbLine
 10
298.0447545197232
 20
221.1348707032499
 30
0.0
 11
286.644754519723
 21
221.1348707032499
 31
0.0
  0
LINE
  5
20A
330
1F
100
AcDbEntity
  8
11
  6
DASHDOT
 62
     3
370
     9
100
AcDbLine
 10
298.0447545197232
 20
220.1348707032499
 30
0.0
 11
286.644754519723
 21
220.1348707032499
 31
0.0
  0
LINE
  5
20B
330
1F
100
AcDbEntity
  8
11
  6
DASHDOT
 62
     3
370
     9
100
AcDbLine
 10
298.0447545197232
 20
221.1348707032499
 30
0.0
 11
298.0447545197232
 21
220.1348707032499
 31
0.0
  0
LINE
  5
20C
330
1F
100
AcDbEntity
  8
11
  6
DASHDOT
 62
     3
370
     9
100
AcDbLine
 10
296.1785712765455
 20
221.1348707032499
 30
0.0
 11
296.1785712765455
 21
221.8348707032499
 31
0.0
  0
LINE
  5
20D
330
1F
100
AcDbEntity
  8
11
  6
DASHDOT
 62
     3
370
     9
100
AcDbLine
 10
288.4785712765458
 20
221.1348707032499
 30
0.0
 11
288.4785712765458
 21
221.8348707032499
 31
0.0
  0
LINE
  5
20E
330
1F
100
AcDbEntity
  8
11
  6
DASHDOT
 62
     3
370
     9
100
AcDbLine
 10
286.644754519723
 20
221.1348707032499
 30
0.0
 11
286.644754519723
 21
220.1348707032499
 31
0.0
  0
LINE
  5
20F
330
1F
100
AcDbEntity
  8
26
  6
PHANTOM
 62
     7
370
     9
100
AcDbLine
 10
182.2447545197233
 20
239.0848707032499
 30
0.0
 11
182.2447545197234
 21
262.58487070325
 31
0.0
  0
LINE
  5
210
330
1F
100
AcDbEntity
  8
26
  6
PHANTOM
 62
     7
370
     9
100
AcDbLine
 10
183.0447545197234
 20
262.58487070325
 30
0.0
 11
182.2447545197234
 21
262.58487070325
 31
0.0
  0
LINE
  5
211
330
1F
100
AcDbEntity
  8
26
  6
PHANTOM
 62
     7
370
     9
100
AcDbLine
 10
183.0447545197232
 20
239.0848707032499
 30
0.0
 11
182.2447545197233
 21
239.0848707032499
 31
0.0
  0
POINT
  5
212
330
1F
100
AcDbEntity
  8
26
  6
Continuous
 62
     7
370
     9
100
AcDbPoint
 10
240.5447545197232
 20
228.33487070325
 30
0.0
  0
POINT
  5
213
330
1F
100
AcDbEntity
  8
26
  6
Continuous
 62
     7
370
     9
100
AcDbPoint
 10
275.5447545197232
 20
260.83487070325
 30
0.0
  0
POINT
  5
214
330
1F
100
AcDbEntity
  8
26
  6
Continuous
 62
     7
370
     9
100
AcDbPoint
 10
274.6305409573501
 20
240.249084265623
 30
0.0
  0
POINT
  5
215
330
1F
100
AcDbEntity
  8
26
  6
Continuous
 62
     7
370
     9
100
AcDbPoint
 10
274.0447545197233
 20
240.8348707032499
 30
0.0
  0
POINT
  5
216
330
1F
100
AcDbEntity
  8
6
  6
Continuous
 62
     2
370
     9
100
AcDbPoint
 10
219.5447545197232
 20
256.3348707032499
 30
0.0
  0
POINT
  5
217
330
1F
100
AcDbEntity
  8
26
  6
Continuous
 62
     7
370
     9
100
AcDbPoint
 10
261.5447545197232
 20
223.3348707032499
 30
0.0
  0
POINT
  5
218
330
1F
100
AcDbEntity
  8
26
  6
Continuous
 62
     7
370
     9
100
AcDbPoint
 10
274.5447545197232
 20
224.3348707032499
 30
0.0
  0
POINT
  5
219
330
1F
100
AcDbEntity
  8
26
  6
Continuous
 62
     7
370
     9
100
AcDbPoint
 10
233.9857375253484
 20
242.3381114798526
 30
0.0
  0
POINT
  5
21A
330
1F
100
AcDbEntity
  8
26
  6
Continuous
 62
     7
370
     9
100
AcDbPoint
 10
219.5447545197232
 20
225.33487070325
 30
0.0
  0
POINT
  5
21B
330
1F
100
AcDbEntity
  8
6
  6
Continuous
 62
     2
370
     9
100
AcDbPoint
 10
261.5447545197232
 20
253.8348707032499
 30
0.0
  0
TEXT
  5
21C
330
1F
100
AcDbEntity
  8
6
  6
Continuous
 62
     2
370
     9
100
AcDbText
 10
258.0199857735508
 20
226.8898469744228
 30
0.0
 40
3.0
  1
ＬＰＧ
 41
0.5468749999999993
100
AcDbText
  0
TEXT
  5
21D
330
1F
100
AcDbEntity
  8
6
  6
Continuous
 62
     2
370
     9
100
AcDbText
 10
260.4197545197232
 20
222.20987070325
 30
0.0
 40
2.25
  1
Ｆ
 41
0.6835937500000002
100
AcDbText
  0
TEXT
  5
21E
330
1F
100
AcDbEntity
  8
6
  6
Continuous
 62
     2
370
     9
100
AcDbText
 10
217.1447545197232
 20
253.3348707032498
 30
0.0
 40
6.0
  1
コ
 41
0.5468750000000016
100
AcDbText
  0
CIRCLE
  5
21F
330
1F
100
AcDbEntity
  8
26
  6
Continuous
 62
     7
370
     9
100
AcDbCircle
 10
240.5447545197232
 20
228.33487070325
 30
0.0
 40
9.260640702822457
  0
LINE
  5
220
330
1F
100
AcDbEntity
  8
26
  6
Continuous
 62
     7
370
     9
100
AcDbLine
 10
184.0718930907092
 20
235.8743535445044
 30
0.0
 11
207.0518994382411
 21
235.8743535445044
 31
0.0
  0
LINE
  5
221
330
1F
100
AcDbEntity
  8
26
  6
Continuous
 62
     7
370
     9
100
AcDbLine
 10
184.0718930907092
 20
265.7953878619953
 30
0.0
 11
198.0842373609779
 21
265.7953878619952
 31
0.0
  0
LINE
  5
222
330
1F
100
AcDbEntity
  8
26
  6
Continuous
 62
     7
370
     9
100
AcDbLine
 10
223.5447545197231
 20
265.2348707032498
 30
0.0
 11
215.5447545197232
 21
265.2348707032498
 31
0.0
  0
LINE
  5
223
330
1F
100
AcDbEntity
  8
26
  6
Continuous
 62
     7
370
     9
100
AcDbLine
 10
215.5447545197232
 20
265.2348707032498
 30
0.0
 11
215.5447545197232
 21
262.8348707032499
 31
0.0
  0
LINE
  5
224
330
1F
100
AcDbEntity
  8
26
  6
Continuous
 62
     7
370
     9
100
AcDbLine
 10
223.5447545197231
 20
265.2348707032498
 30
0.0
 11
223.5447545197231
 21
262.8348707032499
 31
0.0
  0
LINE
  5
225
330
1F
100
AcDbEntity
  8
26
  6
Continuous
 62
     7
370
     9
100
AcDbLine
 10
223.5447545197231
 20
262.8348707032499
 30
0.0
 11
215.5447545197232
 21
262.8348707032499
 31
0.0
  0
LINE
  5
226
330
1F
100
AcDbEntity
  8
26
  6
Continuous
 62
     7
370
     9
100
AcDbLine
 10
222.5447545197233
 20
262.3348707032499
 30
0.0
 11
222.5447545197233
 21
260.1348707032498
 31
0.0
  0
ARC
  5
227
330
1F
100
AcDbEntity
  8
26
  6
Continuous
 62
     7
370
     9
100
AcDbCircle
 10
222.0447545197233
 20
260.1348707032498
 30
0.0
 40
0.5
100
AcDbArc
 50
269.9999999999998
 51
0.0
  0
ARC
  5
228
330
1F
100
AcDbEntity
  8
26
  6
Continuous
 62
     7
370
     9
100
AcDbCircle
 10
222.0447545197233
 20
262.3348707032499
 30
0.0
 40
0.5
100
AcDbArc
 50
0.0
 51
89.99999999999991
  0
LINE
  5
229
330
1F
100
AcDbEntity
  8
26
  6
Continuous
 62
     7
370
     9
100
AcDbLine
 10
220.7947545197232
 20
259.8348707032499
 30
0.0
 11
220.7947545197232
 21
259.2348707032499
 31
0.0
  0
LINE
  5
22A
330
1F
100
AcDbEntity
  8
26
  6
Continuous
 62
     7
370
     9
100
AcDbLine
 10
222.0447545197233
 20
259.6348707032498
 30
0.0
 11
221.0447545197232
 21
259.6348707032498
 31
0.0
  0
ARC
  5
22B
330
1F
100
AcDbEntity
  8
26
  6
Continuous
 62
     7
370
     9
100
AcDbCircle
 10
217.0447545197233
 20
260.1348707032498
 30
0.0
 40
0.5
100
AcDbArc
 50
179.9999999999998
 51
269.9999999999998
  0
LINE
  5
22C
330
1F
100
AcDbEntity
  8
26
  6
Continuous
 62
     7
370
     9
100
AcDbLine
 10
216.5447545197233
 20
260.1348707032498
 30
0.0
 11
216.5447545197233
 21
262.3348707032499
 31
0.0
  0
LINE
  5
22D
330
1F
100
AcDbEntity
  8
26
  6
Continuous
 62
     7
370
     9
100
AcDbLine
 10
218.2947545197232
 20
259.8348707032499
 30
0.0
 11
218.2947545197232
 21
259.2348707032499
 31
0.0
  0
LINE
  5
22E
330
1F
100
AcDbEntity
  8
26
  6
Continuous
 62
     7
370
     9
100
AcDbLine
 10
218.0447545197232
 20
259.6348707032498
 30
0.0
 11
217.0447545197233
 21
259.6348707032498
 31
0.0
  0
ARC
  5
22F
330
1F
100
AcDbEntity
  8
26
  6
Continuous
 62
     7
370
     9
100
AcDbCircle
 10
217.0447545197233
 20
262.3348707032499
 30
0.0
 40
0.5
100
AcDbArc
 50
89.99999999999991
 51
179.9999999999998
  0
LINE
  5
230
330
1F
100
AcDbEntity
  8
26
  6
Continuous
 62
     7
370
     9
100
AcDbLine
 10
246.8442208137834
 20
226.7327707032499
 30
0.0
 11
234.2452882256632
 21
226.7327707032499
 31
0.0
  0
LINE
  5
231
330
1F
100
AcDbEntity
  8
26
  6
Continuous
 62
     7
370
     9
100
AcDbLine
 10
222.3447545197232
 20
262.3348707032499
 30
0.0
 11
222.3447545197232
 21
260.3348707032499
 31
0.0
  0
ARC
  5
232
330
1F
100
AcDbEntity
  8
26
  6
Continuous
 62
     7
370
     9
100
AcDbCircle
 10
221.8447545197232
 20
260.3348707032499
 30
0.0
 40
0.5
100
AcDbArc
 50
269.9999999999998
 51
0.0
  0
LINE
  5
233
330
1F
100
AcDbEntity
  8
26
  6
Continuous
 62
     7
370
     9
100
AcDbLine
 10
217.2447545197233
 20
259.8348707032499
 30
0.0
 11
221.8447545197232
 21
259.8348707032499
 31
0.0
  0
ARC
  5
234
330
1F
100
AcDbEntity
  8
26
  6
Continuous
 62
     7
370
     9
100
AcDbCircle
 10
221.8447545197232
 20
262.3348707032499
 30
0.0
 40
0.5
100
AcDbArc
 50
0.0
 51
89.99999999999991
  0
LINE
  5
235
330
1F
100
AcDbEntity
  8
26
  6
Continuous
 62
     7
370
     9
100
AcDbLine
 10
216.7447545197233
 20
262.3348707032499
 30
0.0
 11
216.7447545197233
 21
260.3348707032499
 31
0.0
  0
ARC
  5
236
330
1F
100
AcDbEntity
  8
26
  6
Continuous
 62
     7
370
     9
100
AcDbCircle
 10
217.2447545197233
 20
260.3348707032499
 30
0.0
 40
0.5
100
AcDbArc
 50
179.9999999999998
 51
269.9999999999998
  0
ARC
  5
237
330
1F
100
AcDbEntity
  8
26
  6
Continuous
 62
     7
370
     9
100
AcDbCircle
 10
217.2447545197233
 20
262.3348707032499
 30
0.0
 40
0.5
100
AcDbArc
 50
89.99999999999991
 51
179.9999999999998
  0
LINE
  5
238
330
1F
100
AcDbEntity
  8
6
  6
Continuous
 62
     2
370
     9
100
AcDbLine
 10
222.0279545197233
 20
225.33487070325
 30
0.0
 11
217.0279545197232
 21
225.33487070325
 31
0.0
  0
TEXT
  5
239
330
1F
100
AcDbEntity
  8
6
  6
Continuous
 62
     2
370
     9
100
AcDbText
 10
217.4539570607562
 20
226.2653759857026
 30
0.0
 40
3.0
  1
１
 41
1.499999999999986
100
AcDbText
  0
TEXT
  5
23A
330
1F
100
AcDbEntity
  8
6
  6
Continuous
 62
     2
370
     9
100
AcDbText
 10
218.1495164225182
 20
221.33487070325
 30
0.0
 40
3.0
  1
２
100
AcDbText
  0
TEXT
  5
23B
330
1F
100
AcDbEntity
  8
6
  6
Continuous
 62
     2
370
     9
100
AcDbText
 10
201.576355114054
 20
248.8348707032498
 30
0.0
 40
4.0
  1
フ
 41
0.5468749999999885
100
AcDbText
  0
TEXT
  5
23C
330
1F
100
AcDbEntity
  8
6
  6
Continuous
 62
     2
370
     9
100
AcDbText
 10
205.5763551140539
 20
248.8348707032498
 30
0.0
 40
4.0
  1
レ
 41
0.5468749999999885
100
AcDbText
  0
TEXT
  5
23D
330
1F
100
AcDbEntity
  8
6
  6
Continuous
 62
     2
370
     9
100
AcDbText
 10
209.5763551140539
 20
248.8348707032498
 30
0.0
 40
4.0
  1
キ
 41
0.5468749999999885
100
AcDbText
  0
LINE
  5
23E
330
1F
100
AcDbEntity
  8
7
  6
DASHDOT
 62
     4
370
     9
100
AcDbLine
 10
363.7568287706851
 20
243.9329713205288
 30
0.0
 11
363.7568287706851
 21
302.1080538836657
 31
0.0
  0
LINE
  5
23F
330
1F
100
AcDbEntity
  8
7
  6
DASHDOT
 62
     4
370
     9
100
AcDbLine
 10
342.7568287706851
 20
277.0467840960196
 30
0.0
 11
342.7568287706851
 21
239.2553869093338
 31
0.0
  0
LINE
  5
240
330
1F
100
AcDbEntity
  8
7
  6
DASHDOT
 62
     4
370
     9
100
AcDbLine
 10
311.956828770685
 20
248.1818635455639
 30
0.0
 11
311.956828770685
 21
267.0012273428518
 31
0.0
  0
LINE
  5
241
330
1F
100
AcDbEntity
  8
7
  6
DASHDOT
 62
     4
370
     9
100
AcDbLine
 10
384.7568287706851
 20
284.2809435904906
 30
0.0
 11
384.7568287706851
 21
240.2848169494894
 31
0.0
  0
LINE
  5
242
330
1F
100
AcDbEntity
  8
7
  6
DASHDOT
 62
     4
370
     9
100
AcDbLine
 10
389.9673933073345
 20
278.53487070325
 30
0.0
 11
379.9353153834174
 21
278.53487070325
 31
0.0
  0
LINE
  5
243
330
1F
100
AcDbEntity
  8
26
  6
Continuous
 62
     7
370
     9
100
AcDbLine
 10
320.7568287706851
 20
268.83487070325
 30
0.0
 11
330.4595729792492
 21
268.83487070325
 31
0.0
  0
LINE
  5
244
330
1F
100
AcDbEntity
  8
26
  6
Continuous
 62
     7
370
     9
100
AcDbLine
 10
320.756828770685
 20
248.83487070325
 30
0.0
 11
330.4595729792492
 21
248.83487070325
 31
0.0
  0
LINE
  5
245
330
1F
100
AcDbEntity
  8
26
  6
Continuous
 62
     7
370
     9
100
AcDbLine
 10
348.7963116119397
 20
281.83487070325
 30
0.0
 11
378.7568287706854
 21
281.83487070325
 31
0.0
  0
LINE
  5
246
330
1F
100
AcDbEntity
  8
26
  6
Continuous
 62
     7
370
     9
100
AcDbLine
 10
319.7568287706851
 20
267.83487070325
 30
0.0
 11
319.7568287706851
 21
249.83487070325
 31
0.0
  0
ARC
  5
247
330
1F
100
AcDbEntity
  8
26
  6
Continuous
 62
     7
370
     9
100
AcDbCircle
 10
320.7568287706851
 20
267.83487070325
 30
0.0
 40
1.0
100
AcDbArc
 50
89.99999999999991
 51
179.9999999999998
  0
ARC
  5
248
330
1F
100
AcDbEntity
  8
26
  6
Continuous
 62
     7
370
     9
100
AcDbCircle
 10
320.756828770685
 20
249.83487070325
 30
0.0
 40
1.0
100
AcDbArc
 50
179.9999999999998
 51
269.9999999999998
  0
ARC
  5
249
330
1F
100
AcDbEntity
  8
26
  6
Continuous
 62
     7
370
     9
100
AcDbCircle
 10
467.956828770685
 20
258.83487070325
 30
0.0
 40
120.0
100
AcDbArc
 50
174.9865548226558
 51
185.0134451773433
  0
ARC
  5
24A
330
1F
100
AcDbEntity
  8
26
  6
Continuous
 62
     7
370
     9
100
AcDbCircle
 10
351.0606038946233
 20
248.5801345105102
 30
0.0
 40
2.654838171071162
100
AcDbArc
 50
185.0134451773438
 51
308.9988307005643
  0
ARC
  5
24B
330
1F
100
AcDbEntity
  8
26
  6
Continuous
 62
     7
370
     9
100
AcDbCircle
 10
342.7568287706852
 20
258.83487070325
 30
0.0
 40
13.0
100
AcDbArc
 50
246.3080680839286
 51
293.6919319160698
  0
LINE
  5
24C
330
1F
100
AcDbEntity
  8
26
  6
Continuous
 62
     7
370
     9
100
AcDbLine
 10
346.9568287706851
 20
269.0014827249611
 30
0.0
 11
346.9568287706851
 21
248.6682586815389
 31
0.0
  0
ARC
  5
24D
330
1F
100
AcDbEntity
  8
26
  6
Continuous
 62
     7
370
     9
100
AcDbCircle
 10
342.7568287706852
 20
258.83487070325
 30
0.0
 40
11.0
100
AcDbArc
 50
247.5536494185492
 51
292.4463505814491
  0
ARC
  5
24E
330
1F
100
AcDbEntity
  8
26
  6
Continuous
 62
     7
370
     9
100
AcDbCircle
 10
342.7568287706852
 20
258.83487070325
 30
0.0
 40
11.0
100
AcDbArc
 50
67.55364941855014
 51
112.4463505814499
  0
ARC
  5
24F
330
1F
100
AcDbEntity
  8
26
  6
Continuous
 62
     7
370
     9
100
AcDbCircle
 10
217.5568287706852
 20
258.83487070325
 30
0.0
 40
120.0
100
AcDbArc
 50
354.9865548226553
 51
5.01344517734413
  0
LINE
  5
250
330
1F
100
AcDbEntity
  8
26
  6
Continuous
 62
     7
370
     9
100
AcDbLine
 10
338.5568287706852
 20
269.0014827249611
 30
0.0
 11
338.5568287706852
 21
248.6682586815389
 31
0.0
  0
ARC
  5
251
330
1F
100
AcDbEntity
  8
26
  6
Continuous
 62
     7
370
     9
100
AcDbCircle
 10
334.453053646747
 20
248.5801345105102
 30
0.0
 40
2.654838171071162
100
AcDbArc
 50
231.0011692994346
 51
354.9865548226549
  0
ARC
  5
252
330
1F
100
AcDbEntity
  8
26
  6
Continuous
 62
     7
370
     9
100
AcDbCircle
 10
351.0606038946233
 20
269.0896068959898
 30
0.0
 40
2.654838171071162
100
AcDbArc
 50
51.001169299435
 51
174.9865548226553
  0
ARC
  5
253
330
1F
100
AcDbEntity
  8
26
  6
Continuous
 62
     7
370
     9
100
AcDbCircle
 10
342.7568287706852
 20
258.83487070325
 30
0.0
 40
13.0
100
AcDbArc
 50
66.30806808392921
 51
113.6919319160706
  0
ARC
  5
254
330
1F
100
AcDbEntity
  8
26
  6
Continuous
 62
     7
370
     9
100
AcDbCircle
 10
334.453053646747
 20
269.0896068959898
 30
0.0
 40
2.654838171071162
100
AcDbArc
 50
5.013445177343513
 51
128.998830700565
  0
CIRCLE
  5
255
330
1F
100
AcDbEntity
  8
26
  6
Continuous
 62
     7
370
     9
100
AcDbCircle
 10
342.7568287706851
 20
258.8348707032499
 30
0.0
 40
15.85000000000002
  0
ARC
  5
256
330
1F
100
AcDbEntity
  8
26
  6
Continuous
 62
     7
370
     9
100
AcDbCircle
 10
384.7568287706851
 20
384.0348707032499
 30
0.0
 40
120.0
100
AcDbArc
 50
264.986554822655
 51
275.0134451773434
  0
ARC
  5
257
330
1F
100
AcDbEntity
  8
26
  6
Continuous
 62
     7
370
     9
100
AcDbCircle
 10
395.0115649634249
 20
267.1386458271881
 30
0.0
 40
2.654838171071162
100
AcDbArc
 50
275.0134451773444
 51
38.99883070056501
  0
ARC
  5
258
330
1F
100
AcDbEntity
  8
26
  6
Continuous
 62
     7
370
     9
100
AcDbCircle
 10
384.7568287706851
 20
258.8348707032499
 30
0.0
 40
13.0
100
AcDbArc
 50
336.3080680839286
 51
23.69193191607079
  0
LINE
  5
259
330
1F
100
AcDbEntity
  8
26
  6
Continuous
 62
     7
370
     9
100
AcDbLine
 10
374.5902167489741
 20
263.0348707032499
 30
0.0
 11
394.9234407923961
 21
263.0348707032499
 31
0.0
  0
ARC
  5
25A
330
1F
100
AcDbEntity
  8
26
  6
Continuous
 62
     7
370
     9
100
AcDbCircle
 10
384.7568287706851
 20
258.8348707032499
 30
0.0
 40
11.0
100
AcDbArc
 50
337.5536494185494
 51
22.44635058145013
  0
ARC
  5
25B
330
1F
100
AcDbEntity
  8
26
  6
Continuous
 62
     7
370
     9
100
AcDbCircle
 10
384.7568287706851
 20
258.8348707032499
 30
0.0
 40
11.0
100
AcDbArc
 50
157.5536494185499
 51
202.4463505814493
  0
ARC
  5
25C
330
1F
100
AcDbEntity
  8
26
  6
Continuous
 62
     7
370
     9
100
AcDbCircle
 10
384.7568287706851
 20
133.6348707032499
 30
0.0
 40
120.0
100
AcDbArc
 50
84.98655482265585
 51
95.01344517734414
  0
LINE
  5
25D
330
1F
100
AcDbEntity
  8
26
  6
Continuous
 62
     7
370
     9
100
AcDbLine
 10
374.5902167489741
 20
254.6348707032499
 30
0.0
 11
394.9234407923961
 21
254.6348707032499
 31
0.0
  0
ARC
  5
25E
330
1F
100
AcDbEntity
  8
26
  6
Continuous
 62
     7
370
     9
100
AcDbCircle
 10
395.0115649634249
 20
250.5310955793118
 30
0.0
 40
2.654838171071162
100
AcDbArc
 50
321.0011692994342
 51
84.98655482265528
  0
ARC
  5
25F
330
1F
100
AcDbEntity
  8
26
  6
Continuous
 62
     7
370
     9
100
AcDbCircle
 10
374.5020925779453
 20
267.1386458271881
 30
0.0
 40
2.654838171071162
100
AcDbArc
 50
141.0011692994333
 51
264.9865548226549
  0
ARC
  5
260
330
1F
100
AcDbEntity
  8
26
  6
Continuous
 62
     7
370
     9
100
AcDbCircle
 10
384.7568287706851
 20
258.8348707032499
 30
0.0
 40
13.0
100
AcDbArc
 50
156.3080680839292
 51
203.6919319160685
  0
ARC
  5
261
330
1F
100
AcDbEntity
  8
26
  6
Continuous
 62
     7
370
     9
100
AcDbCircle
 10
374.5020925779453
 20
250.5310955793118
 30
0.0
 40
2.654838171071162
100
AcDbArc
 50
95.01344517734474
 51
218.9988307005664
  0
CIRCLE
  5
262
330
1F
100
AcDbEntity
  8
26
  6
Continuous
 62
     7
370
     9
100
AcDbCircle
 10
384.7568287706851
 20
258.8348707032499
 30
0.0
 40
15.85000000000002
  0
LINE
  5
263
330
1F
100
AcDbEntity
  8
26
  6
Continuous
 62
     7
370
     9
100
AcDbLine
 10
378.7568287706851
 20
299.33487070325
 30
0.0
 11
378.7568287706851
 21
281.83487070325
 31
0.0
  0
LINE
  5
264
330
1F
100
AcDbEntity
  8
26
  6
Continuous
 62
     7
370
     9
100
AcDbLine
 10
370.2951771859961
 20
299.33487070325
 30
0.0
 11
370.2951771859961
 21
283.83487070325
 31
0.0
  0
LINE
  5
265
330
1F
100
AcDbEntity
  8
26
  6
Continuous
 62
     7
370
     9
100
AcDbLine
 10
372.2184803553741
 20
299.33487070325
 30
0.0
 11
372.2184803553741
 21
283.83487070325
 31
0.0
  0
LINE
  5
266
330
1F
100
AcDbEntity
  8
26
  6
Continuous
 62
     7
370
     9
100
AcDbLine
 10
372.1789975141195
 20
299.33487070325
 30
0.0
 11
370.2951771859961
 21
299.33487070325
 31
0.0
  0
LINE
  5
267
330
1F
100
AcDbEntity
  8
26
  6
Continuous
 62
     7
370
     9
100
AcDbLine
 10
378.7568287706851
 20
299.33487070325
 30
0.0
 11
377.8908033669007
 21
299.83487070325
 31
0.0
  0
ARC
  5
268
330
1F
100
AcDbEntity
  8
26
  6
Continuous
 62
     7
370
     9
100
AcDbCircle
 10
375.4876545630296
 20
288.89737070325
 30
0.0
 40
10.93749999999994
100
AcDbArc
 50
72.60869795397397
 51
107.3913020460259
  0
LINE
  5
269
330
1F
100
AcDbEntity
  8
26
  6
Continuous
 62
     7
370
     9
100
AcDbLine
 10
348.7963116119396
 20
299.33487070325
 30
0.0
 11
348.7963116119396
 21
281.83487070325
 31
0.0
  0
LINE
  5
26A
330
1F
100
AcDbEntity
  8
26
  6
Continuous
 62
     7
370
     9
100
AcDbLine
 10
357.2184803553741
 20
299.33487070325
 30
0.0
 11
357.2184803553741
 21
283.83487070325
 31
0.0
  0
LINE
  5
26B
330
1F
100
AcDbEntity
  8
26
  6
Continuous
 62
     7
370
     9
100
AcDbLine
 10
355.3346600272507
 20
299.33487070325
 30
0.0
 11
355.3346600272507
 21
283.83487070325
 31
0.0
  0
LINE
  5
26C
330
1F
100
AcDbEntity
  8
26
  6
Continuous
 62
     7
370
     9
100
AcDbLine
 10
355.3346600272507
 20
299.33487070325
 30
0.0
 11
357.2184803553741
 21
299.33487070325
 31
0.0
  0
LINE
  5
26D
330
1F
100
AcDbEntity
  8
26
  6
Continuous
 62
     7
370
     9
100
AcDbLine
 10
348.7963116119396
 20
299.33487070325
 30
0.0
 11
349.6623370157241
 21
299.83487070325
 31
0.0
  0
ARC
  5
26E
330
1F
100
AcDbEntity
  8
26
  6
Continuous
 62
     7
370
     9
100
AcDbCircle
 10
352.0654858195952
 20
288.89737070325
 30
0.0
 40
10.93749999999994
100
AcDbArc
 50
72.60869795397397
 51
107.3913020460259
  0
ARC
  5
26F
330
1F
100
AcDbEntity
  8
26
  6
Continuous
 62
     7
370
     9
100
AcDbCircle
 10
363.7568287706851
 20
256.83487070325
 30
0.0
 40
43.0
100
AcDbArc
 50
81.25398671675747
 51
98.74601328324253
  0
LINE
  5
270
330
1F
100
AcDbEntity
  8
26
  6
Continuous
 62
     7
370
     9
100
AcDbLine
 10
349.6623370157241
 20
299.83487070325
 30
0.0
 11
377.8513205256461
 21
299.83487070325
 31
0.0
  0
LINE
  5
271
330
1F
100
AcDbEntity
  8
26
  6
Continuous
 62
     7
370
     9
100
AcDbLine
 10
372.2184803553741
 20
283.83487070325
 30
0.0
 11
378.7568287706851
 21
283.83487070325
 31
0.0
  0
LINE
  5
272
330
1F
100
AcDbEntity
  8
26
  6
Continuous
 62
     7
370
     9
100
AcDbLine
 10
348.7963116119396
 20
283.83487070325
 30
0.0
 11
355.3346600272507
 21
283.83487070325
 31
0.0
  0
LINE
  5
273
330
1F
100
AcDbEntity
  8
26
  6
Continuous
 62
     7
370
     9
100
AcDbLine
 10
357.2184803553741
 20
283.83487070325
 30
0.0
 11
370.2951771859961
 21
283.83487070325
 31
0.0
  0
ARC
  5
274
330
1F
100
AcDbEntity
  8
26
  6
Continuous
 62
     7
370
     9
100
AcDbCircle
 10
378.2568287706851
 20
281.3348707032499
 30
0.0
 40
0.5
100
AcDbArc
 50
0.0
 51
89.99999999999991
  0
ARC
  5
275
330
1F
100
AcDbEntity
  8
26
  6
Continuous
 62
     7
370
     9
100
AcDbCircle
 10
349.2568287706851
 20
281.3348707032499
 30
0.0
 40
0.5
100
AcDbArc
 50
89.99999999999991
 51
179.9999999999998
  0
LINE
  5
276
330
1F
100
AcDbEntity
  8
26
  6
Continuous
 62
     7
370
     9
100
AcDbLine
 10
348.7568287706851
 20
281.3348707032499
 30
0.0
 11
348.7568287706851
 21
273.5053342269427
 31
0.0
  0
LINE
  5
277
330
1F
100
AcDbEntity
  8
26
  6
Continuous
 62
     7
370
     9
100
AcDbLine
 10
378.7568287706851
 20
281.3348707032499
 30
0.0
 11
378.7568287706851
 21
273.5053342269427
 31
0.0
  0
LINE
  5
278
330
1F
100
AcDbEntity
  8
26
  6
Continuous
 62
     7
370
     9
100
AcDbLine
 10
377.3256444774516
 20
244.8348707032499
 30
0.0
 11
350.1880130639186
 21
244.8348707032499
 31
0.0
  0
LINE
  5
279
330
1F
100
AcDbEntity
  8
26
  6
Continuous
 62
     7
370
     9
100
AcDbLine
 10
319.1568287706851
 20
266.75987070325
 30
0.0
 11
319.7568287706851
 21
266.75987070325
 31
0.0
  0
LINE
  5
27A
330
1F
100
AcDbEntity
  8
26
  6
Continuous
 62
     7
370
     9
100
AcDbLine
 10
319.1568287706851
 20
250.9098707032499
 30
0.0
 11
319.7568287706851
 21
250.9098707032499
 31
0.0
  0
LINE
  5
27B
330
1F
100
AcDbEntity
  8
26
  6
Continuous
 62
     7
370
     9
100
AcDbLine
 10
319.1568287706851
 20
250.9098707032499
 30
0.0
 11
319.1568287706851
 21
266.75987070325
 31
0.0
  0
LINE
  5
27C
330
1F
100
AcDbEntity
  8
26
  6
Continuous
 62
     7
370
     9
100
AcDbLine
 10
311.956828770685
 20
264.8848707032499
 30
0.0
 11
315.2537050216861
 21
264.8848707032499
 31
0.0
  0
LINE
  5
27D
330
1F
100
AcDbEntity
  8
26
  6
Continuous
 62
     7
370
     9
100
AcDbLine
 10
311.956828770685
 20
252.7848707032499
 30
0.0
 11
315.2537050216861
 21
252.7848707032499
 31
0.0
  0
ARC
  5
27E
330
1F
100
AcDbEntity
  8
26
  6
Continuous
 62
     7
370
     9
100
AcDbCircle
 10
315.2537050216861
 20
269.88487070325
 30
0.0
 40
5.0
100
AcDbArc
 50
269.9999999999998
 51
321.3178125465103
  0
ARC
  5
27F
330
1F
100
AcDbEntity
  8
26
  6
Continuous
 62
     7
370
     9
100
AcDbCircle
 10
315.2537050216861
 20
247.7848707032499
 30
0.0
 40
5.0
100
AcDbArc
 50
38.68218745348912
 51
89.99999999999991
  0
ARC
  5
280
330
1F
100
AcDbEntity
  8
22
  6
Continuous
 62
     7
370
     9
100
AcDbCircle
 10
311.956828770685
 20
258.8348707032499
 30
0.0
 40
6.050000000000011
100
AcDbArc
 50
125.3459804276013
 51
234.6540195723977
  0
ARC
  5
281
330
1F
100
AcDbEntity
  8
26
  6
Continuous
 62
     7
370
     9
100
AcDbCircle
 10
404.256828770685
 20
265.9594811474708
 30
0.0
 40
0.3746104442208207
100
AcDbArc
 50
220.8571829310684
 51
269.9999999999998
  0
ARC
  5
282
330
1F
100
AcDbEntity
  8
26
  6
Continuous
 62
     7
370
     9
100
AcDbCircle
 10
396.0195229269714
 20
258.8348707032501
 30
0.0
 40
10.51636203507496
100
AcDbArc
 50
40.85718293108317
 51
56.93706370165055
  0
ARC
  5
283
330
1F
100
AcDbEntity
  8
26
  6
Continuous
 62
     7
370
     9
100
AcDbCircle
 10
405.1355796133339
 20
265.5848707032501
 30
0.0
 40
16.12124915735188
100
AcDbArc
 50
339.4370185339745
 51
20.56298146602468
  0
LINE
  5
284
330
1F
100
AcDbEntity
  8
26
  6
Continuous
 62
     7
370
     9
100
AcDbLine
 10
420.229690199699
 20
272.3348707032497
 30
0.0
 11
420.229690199699
 21
271.2472465297031
 31
0.0
  0
LINE
  5
285
330
1F
100
AcDbEntity
  8
26
  6
Continuous
 62
     7
370
     9
100
AcDbLine
 10
420.229690199699
 20
246.422494876797
 30
0.0
 11
420.229690199699
 21
245.3348707032502
 31
0.0
  0
ARC
  5
286
330
1F
100
AcDbEntity
  8
26
  6
Continuous
 62
     7
370
     9
100
AcDbCircle
 10
404.256828770685
 20
251.7102602590292
 30
0.0
 40
0.3746104442208207
100
AcDbArc
 50
89.99999999999991
 51
139.142817068928
  0
ARC
  5
287
330
1F
100
AcDbEntity
  8
26
  6
Continuous
 62
     7
370
     9
100
AcDbCircle
 10
396.0195229269714
 20
258.8348707032501
 30
0.0
 40
10.51636203507496
100
AcDbArc
 50
303.0629362983487
 51
319.142817068916
  0
LINE
  5
288
330
1F
100
AcDbEntity
  8
26
  6
Continuous
 62
     7
370
     9
100
AcDbLine
 10
421.2568287706858
 20
272.3348707032497
 30
0.0
 11
404.4639355518734
 21
272.3348707032497
 31
0.0
  0
LINE
  5
289
330
1F
100
AcDbEntity
  8
26
  6
Continuous
 62
     7
370
     9
100
AcDbLine
 10
401.7568287706858
 20
250.0214041827233
 30
0.0
 11
401.7568287706858
 21
267.6483372237769
 31
0.0
  0
LINE
  5
28A
330
1F
100
AcDbEntity
  8
26
  6
Continuous
 62
     7
370
     9
100
AcDbLine
 10
401.7568287706858
 20
267.6483372237769
 30
0.0
 11
397.9304883947816
 21
267.6483372237769
 31
0.0
  0
LINE
  5
28B
330
1F
100
AcDbEntity
  8
26
  6
Continuous
 62
     7
370
     9
100
AcDbLine
 10
420.229690199699
 20
271.2472465297031
 30
0.0
 11
394.6135739912374
 21
271.2472465297031
 31
0.0
  0
ARC
  5
28C
330
1F
100
AcDbEntity
  8
26
  6
Continuous
 62
     7
370
     9
100
AcDbCircle
 10
393.617066633391
 20
258.83487070325
 30
0.0
 40
12.60027929603933
100
AcDbArc
 50
327.6084402462399
 51
32.39155975376357
  0
LINE
  5
28D
330
1F
100
AcDbEntity
  8
26
  6
Continuous
 62
     7
370
     9
100
AcDbLine
 10
421.2568287706858
 20
272.3348707032497
 30
0.0
 11
421.2568287706858
 21
245.3348707032502
 31
0.0
  0
LINE
  5
28E
330
1F
100
AcDbEntity
  8
26
  6
Continuous
 62
     7
370
     9
100
AcDbLine
 10
420.229690199699
 20
259.922494876797
 30
0.0
 11
420.229690199699
 21
257.7472465297031
 31
0.0
  0
LINE
  5
28F
330
1F
100
AcDbEntity
  8
26
  6
Continuous
 62
     7
370
     9
100
AcDbLine
 10
421.2568287706858
 20
245.3348707032502
 30
0.0
 11
404.4639355518732
 21
245.3348707032502
 31
0.0
  0
LINE
  5
290
330
1F
100
AcDbEntity
  8
26
  6
Continuous
 62
     7
370
     9
100
AcDbLine
 10
420.229690199699
 20
246.422494876797
 30
0.0
 11
394.6135739912378
 21
246.422494876797
 31
0.0
  0
ARC
  5
291
330
1F
100
AcDbEntity
  8
26
  6
Continuous
 62
     7
370
     9
100
AcDbCircle
 10
405.1355796133339
 20
252.08487070325
 30
0.0
 40
16.12124915735188
100
AcDbArc
 50
339.4370185339744
 51
20.56298146602478
  0
LINE
  5
292
330
1F
100
AcDbEntity
  8
26
  6
Continuous
 62
     7
370
     9
100
AcDbLine
 10
401.7568287706858
 20
250.0214041827233
 30
0.0
 11
397.9304883947819
 21
250.0214041827233
 31
0.0
  0
LINE
  5
293
330
1F
100
AcDbEntity
  8
26
  6
Continuous
 62
     7
370
     9
100
AcDbLine
 10
358.7568287706851
 20
253.8348707032499
 30
0.0
 11
368.7568287706844
 21
253.8348707032499
 31
0.0
  0
ARC
  5
294
330
1F
100
AcDbEntity
  8
26
  6
Continuous
 62
     7
370
     9
100
AcDbCircle
 10
358.7568287706851
 20
255.8348707032499
 30
0.0
 40
2.0
100
AcDbArc
 50
243.5365419258165
 51
269.9999999999998
  0
ARC
  5
295
330
1F
100
AcDbEntity
  8
26
  6
Continuous
 62
     7
370
     9
100
AcDbCircle
 10
368.7568287706844
 20
255.8348707032499
 30
0.0
 40
2.0
100
AcDbArc
 50
269.9999999999998
 51
296.4634580742006
  0
LINE
  5
296
330
1F
100
AcDbEntity
  8
26
  6
Continuous
 62
     7
370
     9
100
AcDbLine
 10
394.5022122931536
 20
271.3348707032499
 30
0.0
 11
403.0497219895003
 21
271.3348707032499
 31
0.0
  0
LINE
  5
297
330
1F
100
AcDbEntity
  8
26
  6
Continuous
 62
     7
370
     9
100
AcDbLine
 10
404.11038216128
 20
272.1884240938431
 30
0.0
 11
403.4032753800937
 21
271.4813173126566
 31
0.0
  0
LINE
  5
298
330
1F
100
AcDbEntity
  8
26
  6
Continuous
 62
     7
370
     9
100
AcDbLine
 10
394.5022122931536
 20
246.3348707032499
 30
0.0
 11
403.0497219895005
 21
246.3348707032499
 31
0.0
  0
LINE
  5
299
330
1F
100
AcDbEntity
  8
26
  6
Continuous
 62
     7
370
     9
100
AcDbLine
 10
404.1103821612799
 20
245.481317312657
 30
0.0
 11
403.4032753800937
 21
246.1884240938432
 31
0.0
  0
ARC
  5
29A
330
1F
100
AcDbEntity
  8
26
  6
Continuous
 62
     7
370
     9
100
AcDbCircle
 10
403.0497219895005
 20
245.8348707032499
 30
0.0
 40
0.5
100
AcDbArc
 50
45.0
 51
89.99999999999991
  0
ARC
  5
29B
330
1F
100
AcDbEntity
  8
26
  6
Continuous
 62
     7
370
     9
100
AcDbCircle
 10
404.4639355518732
 20
245.8348707032502
 30
0.0
 40
0.5
100
AcDbArc
 50
224.9999999999973
 51
269.9999999999998
  0
ARC
  5
29C
330
1F
100
AcDbEntity
  8
26
  6
Continuous
 62
     7
370
     9
100
AcDbCircle
 10
404.4639355518734
 20
271.8348707032498
 30
0.0
 40
0.5
100
AcDbArc
 50
89.99999999999991
 51
135.0
  0
ARC
  5
29D
330
1F
100
AcDbEntity
  8
26
  6
Continuous
 62
     7
370
     9
100
AcDbCircle
 10
403.0497219895003
 20
271.8348707032499
 30
0.0
 40
0.5
100
AcDbArc
 50
269.9999999999998
 51
314.9999999999997
  0
LINE
  5
29E
330
1F
100
AcDbEntity
  8
26
  6
Continuous
 62
     7
370
     9
100
AcDbLine
 10
308.756828770685
 20
264.8848707032499
 30
0.0
 11
315.2537050216861
 21
264.8848707032499
 31
0.0
  0
LINE
  5
29F
330
1F
100
AcDbEntity
  8
26
  6
Continuous
 62
     7
370
     9
100
AcDbLine
 10
308.756828770685
 20
252.7848707032499
 30
0.0
 11
315.2537050216861
 21
252.7848707032499
 31
0.0
  0
LINE
  5
2A0
330
1F
100
AcDbEntity
  8
26
  6
Continuous
 62
     7
370
     9
100
AcDbLine
 10
315.4568287706851
 20
264.8848707032499
 30
0.0
 11
315.4568287706851
 21
264.0886707032499
 31
0.0
  0
LINE
  5
2A1
330
1F
100
AcDbEntity
  8
26
  6
Continuous
 62
     7
370
     9
100
AcDbLine
 10
311.956828770685
 20
264.0886707032499
 30
0.0
 11
315.4568287706851
 21
264.0886707032499
 31
0.0
  0
LINE
  5
2A2
330
1F
100
AcDbEntity
  8
26
  6
Continuous
 62
     7
370
     9
100
AcDbLine
 10
308.456828770685
 20
264.5848707032499
 30
0.0
 11
308.456828770685
 21
263.7696959281186
 31
0.0
  0
LINE
  5
2A3
330
1F
100
AcDbEntity
  8
26
  6
Continuous
 62
     7
370
     9
100
AcDbLine
 10
308.456828770685
 20
253.9000454783812
 30
0.0
 11
308.456828770685
 21
253.0848707032499
 31
0.0
  0
ARC
  5
2A4
330
1F
100
AcDbEntity
  8
26
  6
Continuous
 62
     7
370
     9
100
AcDbCircle
 10
311.956828770685
 20
244.727037950184
 30
0.0
 40
19.36163275306592
100
AcDbArc
 50
89.99999999999983
 51
100.4146062514597
  0
ARC
  5
2A5
330
1F
100
AcDbEntity
  8
26
  6
Continuous
 62
     7
370
     9
100
AcDbCircle
 10
311.956828770685
 20
272.9427034563158
 30
0.0
 40
19.36163275306592
100
AcDbArc
 50
259.5853937485394
 51
269.9999999999995
  0
LINE
  5
2A6
330
1F
100
AcDbEntity
  8
26
  6
Continuous
 62
     7
370
     9
100
AcDbLine
 10
311.956828770685
 20
253.5810707032499
 30
0.0
 11
315.4568287706851
 21
253.5810707032499
 31
0.0
  0
LINE
  5
2A7
330
1F
100
AcDbEntity
  8
26
  6
Continuous
 62
     7
370
     9
100
AcDbLine
 10
315.4568287706851
 20
252.7848707032499
 30
0.0
 11
315.4568287706851
 21
253.5810707032499
 31
0.0
  0
ARC
  5
2A8
330
1F
100
AcDbEntity
  8
26
  6
Continuous
 62
     7
370
     9
100
AcDbCircle
 10
308.756828770685
 20
264.5848707032499
 30
0.0
 40
0.3000000000000114
100
AcDbArc
 50
89.99999999999991
 51
179.9999999999998
  0
ARC
  5
2A9
330
1F
100
AcDbEntity
  8
26
  6
Continuous
 62
     7
370
     9
100
AcDbCircle
 10
308.756828770685
 20
253.0848707032499
 30
0.0
 40
0.3000000000000114
100
AcDbArc
 50
179.9999999999998
 51
269.9999999999998
  0
CIRCLE
  5
2AA
330
1F
100
AcDbEntity
  8
26
  6
Continuous
 62
     7
370
     9
100
AcDbCircle
 10
363.7568287706851
 20
276.43487070325
 30
0.0
 40
4.0
  0
ARC
  5
2AB
330
1F
100
AcDbEntity
  8
26
  6
Continuous
 62
     7
370
     9
100
AcDbCircle
 10
334.7568287706857
 20
266.8348707032502
 30
0.0
 40
6.0
100
AcDbArc
 50
89.99999999999991
 51
160.52877936551
  0
ARC
  5
2AC
330
1F
100
AcDbEntity
  8
26
  6
Continuous
 62
     7
370
     9
100
AcDbCircle
 10
334.7568287706857
 20
250.8348707032503
 30
0.0
 40
6.0
100
AcDbArc
 50
199.4712206344891
 51
269.9999999999998
  0
ARC
  5
2AD
330
1F
100
AcDbEntity
  8
26
  6
Continuous
 62
     7
370
     9
100
AcDbCircle
 10
349.7568287706859
 20
274.8348707032499
 30
0.0
 40
2.0
100
AcDbArc
 50
280.570425305994
 51
0.0
  0
ARC
  5
2AE
330
1F
100
AcDbEntity
  8
26
  6
Continuous
 62
     7
370
     9
100
AcDbCircle
 10
334.92049660378
 20
258.8348707032499
 30
0.0
 40
21.83633216690583
100
AcDbArc
 50
33.00312392060236
 51
39.74470968801216
  0
ARC
  5
2AF
330
1F
100
AcDbEntity
  8
26
  6
Continuous
 62
     7
370
     9
100
AcDbCircle
 10
377.7568287706844
 20
274.8348707032499
 30
0.0
 40
2.0
100
AcDbArc
 50
179.9999999999998
 51
259.4295746940053
  0
ARC
  5
2B0
330
1F
100
AcDbEntity
  8
26
  6
Continuous
 62
     7
370
     9
100
AcDbCircle
 10
392.5931609375902
 20
258.8348707032499
 30
0.0
 40
21.83633216690583
100
AcDbArc
 50
140.2552903119878
 51
146.9968760793977
  0
CIRCLE
  5
2B1
330
1F
100
AcDbEntity
  8
26
  6
Continuous
 62
     7
370
     9
100
AcDbCircle
 10
384.9068287706852
 20
279.5348707032498
 30
0.0
 40
4.0
  0
LINE
  5
2B2
330
1F
100
AcDbEntity
  8
26
  6
Continuous
 62
     7
370
     9
100
AcDbLine
 10
381.7937835196419
 20
274.4054475339352
 30
0.0
 11
381.8536705090816
 21
276.9506445851245
 31
0.0
  0
LINE
  5
2B3
330
1F
100
AcDbEntity
  8
26
  6
Continuous
 62
     7
370
     9
100
AcDbLine
 10
387.7198740217283
 20
274.4054475339352
 30
0.0
 11
387.6672944983051
 21
276.6400772794221
 31
0.0
  0
LINE
  5
2B4
330
1F
100
AcDbEntity
  8
26
  6
Continuous
 62
     7
370
     9
100
AcDbLine
 10
420.229690199699
 20
259.922494876797
 30
0.0
 11
411.7568287706851
 21
259.922494876797
 31
0.0
  0
LINE
  5
2B5
330
1F
100
AcDbEntity
  8
26
  6
Continuous
 62
     7
370
     9
100
AcDbLine
 10
407.2568287706851
 20
259.922494876797
 30
0.0
 11
406.1703176862184
 21
259.922494876797
 31
0.0
  0
LINE
  5
2B6
330
1F
100
AcDbEntity
  8
26
  6
Continuous
 62
     7
370
     9
100
AcDbLine
 10
420.229690199699
 20
257.7472465297031
 30
0.0
 11
411.7568287706851
 21
257.7472465297031
 31
0.0
  0
LINE
  5
2B7
330
1F
100
AcDbEntity
  8
26
  6
Continuous
 62
     7
370
     9
100
AcDbLine
 10
407.2568287706851
 20
257.7472465297031
 30
0.0
 11
406.1703176862184
 21
257.7472465297031
 31
0.0
  0
LINE
  5
2B8
330
1F
100
AcDbEntity
  8
26
  6
Continuous
 62
     7
370
     9
100
AcDbLine
 10
365.2417530111768
 20
277.9197949437417
 30
0.0
 11
362.2719045301934
 21
274.9499464627582
 31
0.0
  0
LINE
  5
2B9
330
1F
100
AcDbEntity
  8
26
  6
Continuous
 62
     7
370
     9
100
AcDbLine
 10
362.2719045301934
 20
277.9197949437417
 30
0.0
 11
365.2417530111768
 21
274.9499464627582
 31
0.0
  0
CIRCLE
  5
2BA
330
1F
100
AcDbEntity
  8
26
  6
Continuous
 62
     7
370
     9
100
AcDbCircle
 10
384.7568287706851
 20
278.5348707032499
 30
0.0
 40
2.800000000000011
  0
ARC
  5
2BB
330
1F
100
AcDbEntity
  8
26
  6
Continuous
 62
     7
370
     9
100
AcDbCircle
 10
384.7568287706851
 20
258.8348707032499
 30
0.0
 40
10.80000000000001
100
AcDbArc
 50
162.1742941314635
 51
197.8257058685356
  0
CIRCLE
  5
2BC
330
1F
100
AcDbEntity
  8
26
  6
Continuous
 62
     7
370
     9
100
AcDbCircle
 10
377.2568287706851
 20
258.8348707032499
 30
0.0
 40
2.5
  0
LINE
  5
2BD
330
1F
100
AcDbEntity
  8
26
  6
Continuous
 62
     7
370
     9
100
AcDbLine
 10
375.4273057389327
 20
262.8348707032499
 30
0.0
 11
394.0863518024376
 21
262.8348707032499
 31
0.0
  0
LINE
  5
2BE
330
1F
100
AcDbEntity
  8
26
  6
Continuous
 62
     7
370
     9
100
AcDbLine
 10
394.0863518024376
 20
254.8348707032499
 30
0.0
 11
375.4273057389327
 21
254.8348707032499
 31
0.0
  0
ARC
  5
2BF
330
1F
100
AcDbEntity
  8
26
  6
Continuous
 62
     7
370
     9
100
AcDbCircle
 10
375.4273057389327
 20
261.8348707032499
 30
0.0
 40
1.0
100
AcDbArc
 50
89.99999999999991
 51
162.1742941314635
  0
ARC
  5
2C0
330
1F
100
AcDbEntity
  8
26
  6
Continuous
 62
     7
370
     9
100
AcDbCircle
 10
394.0863518024376
 20
261.8348707032499
 30
0.0
 40
1.0
100
AcDbArc
 50
17.82570586853645
 51
89.99999999999991
  0
ARC
  5
2C1
330
1F
100
AcDbEntity
  8
26
  6
Continuous
 62
     7
370
     9
100
AcDbCircle
 10
394.0863518024376
 20
255.8348707032499
 30
0.0
 40
1.0
100
AcDbArc
 50
269.9999999999998
 51
342.1742941314632
  0
ARC
  5
2C2
330
1F
100
AcDbEntity
  8
26
  6
Continuous
 62
     7
370
     9
100
AcDbCircle
 10
375.4273057389327
 20
255.8348707032499
 30
0.0
 40
1.0
100
AcDbArc
 50
197.8257058685361
 51
269.9999999999998
  0
LINE
  5
2C3
330
1F
100
AcDbEntity
  8
26
  6
Continuous
 62
     7
370
     9
100
AcDbLine
 10
394.5568287706851
 20
259.3348707032499
 30
0.0
 11
395.5452484881414
 21
259.3348707032499
 31
0.0
  0
LINE
  5
2C4
330
1F
100
AcDbEntity
  8
26
  6
Continuous
 62
     7
370
     9
100
AcDbLine
 10
395.5452484881414
 20
258.3348707032499
 30
0.0
 11
394.5568287706851
 21
258.3348707032499
 31
0.0
  0
ARC
  5
2C5
330
1F
100
AcDbEntity
  8
26
  6
Continuous
 62
     7
370
     9
100
AcDbCircle
 10
384.7568287706851
 20
258.8348707032499
 30
0.0
 40
10.80000000000001
100
AcDbArc
 50
2.653530867406154
 51
17.8257058685365
  0
ARC
  5
2C6
330
1F
100
AcDbEntity
  8
26
  6
Continuous
 62
     7
370
     9
100
AcDbCircle
 10
384.7568287706851
 20
258.8348707032499
 30
0.0
 40
10.80000000000001
100
AcDbArc
 50
342.1742941314628
 51
357.3464691325929
  0
LINE
  5
2C7
330
1F
100
AcDbEntity
  8
26
  6
Continuous
 62
     7
370
     9
100
AcDbLine
 10
394.5568287706851
 20
259.3348707032499
 30
0.0
 11
394.5568287706851
 21
258.3348707032499
 31
0.0
  0
LINE
  5
2C8
330
1F
100
AcDbEntity
  8
26
  6
Continuous
 62
     7
370
     9
100
AcDbLine
 10
394.3068287706851
 20
260.0848707032499
 30
0.0
 11
395.4842469129969
 21
260.0848707032499
 31
0.0
  0
LINE
  5
2C9
330
1F
100
AcDbEntity
  8
26
  6
Continuous
 62
     7
370
     9
100
AcDbLine
 10
395.4842469129969
 20
257.5848707032499
 30
0.0
 11
394.3068287706851
 21
257.5848707032499
 31
0.0
  0
ARC
  5
2CA
330
1F
100
AcDbEntity
  8
26
  6
Continuous
 62
     7
370
     9
100
AcDbCircle
 10
394.3068287706851
 20
258.8348707032499
 30
0.0
 40
1.25
100
AcDbArc
 50
89.99999999999991
 51
179.9999999999998
  0
ARC
  5
2CB
330
1F
100
AcDbEntity
  8
26
  6
Continuous
 62
     7
370
     9
100
AcDbCircle
 10
394.3068287706851
 20
258.8348707032499
 30
0.0
 40
1.25
100
AcDbArc
 50
179.9999999999998
 51
269.9999999999998
  0
ARC
  5
2CC
330
1F
100
AcDbEntity
  8
26
  6
Continuous
 62
     7
370
     9
100
AcDbCircle
 10
342.7568287706851
 20
258.8348707032499
 30
0.0
 40
10.80000000000001
100
AcDbArc
 50
252.1742941314628
 51
287.8257058685357
  0
CIRCLE
  5
2CD
330
1F
100
AcDbEntity
  8
26
  6
Continuous
 62
     7
370
     9
100
AcDbCircle
 10
342.7568287706851
 20
251.3348707032499
 30
0.0
 40
2.5
  0
LINE
  5
2CE
330
1F
100
AcDbEntity
  8
26
  6
Continuous
 62
     7
370
     9
100
AcDbLine
 10
338.7568287706851
 20
249.5053476714975
 30
0.0
 11
338.7568287706851
 21
268.1643937350025
 31
0.0
  0
LINE
  5
2CF
330
1F
100
AcDbEntity
  8
26
  6
Continuous
 62
     7
370
     9
100
AcDbLine
 10
346.7568287706851
 20
268.1643937350025
 30
0.0
 11
346.7568287706851
 21
249.5053476714975
 31
0.0
  0
ARC
  5
2D0
330
1F
100
AcDbEntity
  8
26
  6
Continuous
 62
     7
370
     9
100
AcDbCircle
 10
339.7568287706851
 20
249.5053476714975
 30
0.0
 40
1.0
100
AcDbArc
 50
179.9999999999998
 51
252.1742941314627
  0
ARC
  5
2D1
330
1F
100
AcDbEntity
  8
26
  6
Continuous
 62
     7
370
     9
100
AcDbCircle
 10
339.7568287706851
 20
268.1643937350025
 30
0.0
 40
1.0
100
AcDbArc
 50
107.8257058685364
 51
179.9999999999998
  0
ARC
  5
2D2
330
1F
100
AcDbEntity
  8
26
  6
Continuous
 62
     7
370
     9
100
AcDbCircle
 10
345.7568287706851
 20
268.1643937350025
 30
0.0
 40
1.0
100
AcDbArc
 50
0.0
 51
72.17429413146355
  0
ARC
  5
2D3
330
1F
100
AcDbEntity
  8
26
  6
Continuous
 62
     7
370
     9
100
AcDbCircle
 10
345.7568287706851
 20
249.5053476714975
 30
0.0
 40
1.0
100
AcDbArc
 50
287.8257058685366
 51
0.0
  0
LINE
  5
2D4
330
1F
100
AcDbEntity
  8
26
  6
Continuous
 62
     7
370
     9
100
AcDbLine
 10
342.2568287706851
 20
268.6348707032499
 30
0.0
 11
342.2568287706851
 21
269.6232904207063
 31
0.0
  0
LINE
  5
2D5
330
1F
100
AcDbEntity
  8
26
  6
Continuous
 62
     7
370
     9
100
AcDbLine
 10
343.2568287706851
 20
269.6232904207063
 30
0.0
 11
343.2568287706851
 21
268.6348707032499
 31
0.0
  0
ARC
  5
2D6
330
1F
100
AcDbEntity
  8
26
  6
Continuous
 62
     7
370
     9
100
AcDbCircle
 10
342.7568287706851
 20
258.8348707032499
 30
0.0
 40
10.80000000000001
100
AcDbArc
 50
92.65353086740647
 51
107.8257058685365
  0
ARC
  5
2D7
330
1F
100
AcDbEntity
  8
26
  6
Continuous
 62
     7
370
     9
100
AcDbCircle
 10
342.7568287706851
 20
258.8348707032499
 30
0.0
 40
10.80000000000001
100
AcDbArc
 50
72.1742941314635
 51
87.34646913259355
  0
LINE
  5
2D8
330
1F
100
AcDbEntity
  8
26
  6
Continuous
 62
     7
370
     9
100
AcDbLine
 10
342.2568287706851
 20
268.6348707032499
 30
0.0
 11
343.2568287706851
 21
268.6348707032499
 31
0.0
  0
LINE
  5
2D9
330
1F
100
AcDbEntity
  8
26
  6
Continuous
 62
     7
370
     9
100
AcDbLine
 10
341.5068287706851
 20
268.3848707032499
 30
0.0
 11
341.5068287706851
 21
269.5622888455617
 31
0.0
  0
LINE
  5
2DA
330
1F
100
AcDbEntity
  8
26
  6
Continuous
 62
     7
370
     9
100
AcDbLine
 10
344.0068287706851
 20
269.5622888455617
 30
0.0
 11
344.0068287706851
 21
268.3848707032499
 31
0.0
  0
ARC
  5
2DB
330
1F
100
AcDbEntity
  8
26
  6
Continuous
 62
     7
370
     9
100
AcDbCircle
 10
342.7568287706851
 20
268.3848707032499
 30
0.0
 40
1.25
100
AcDbArc
 50
179.9999999999998
 51
269.9999999999998
  0
ARC
  5
2DC
330
1F
100
AcDbEntity
  8
26
  6
Continuous
 62
     7
370
     9
100
AcDbCircle
 10
342.7568287706851
 20
268.3848707032499
 30
0.0
 40
1.25
100
AcDbArc
 50
269.9999999999998
 51
0.0
  0
LINE
  5
2DD
330
1F
100
AcDbEntity
  8
26
  6
Continuous
 62
     7
370
     9
100
AcDbLine
 10
386.2417530111768
 20
280.0197949437416
 30
0.0
 11
383.2719045301934
 21
277.0499464627581
 31
0.0
  0
LINE
  5
2DE
330
1F
100
AcDbEntity
  8
26
  6
Continuous
 62
     7
370
     9
100
AcDbLine
 10
383.2719045301934
 20
280.0197949437416
 30
0.0
 11
386.2417530111768
 21
277.0499464627581
 31
0.0
  0
ARC
  5
2DF
330
1F
100
AcDbEntity
  8
11
  6
PHANTOM
 62
     3
370
     9
100
AcDbCircle
 10
380.7568287706851
 20
299.83487070325
 30
0.0
 40
13.0
100
AcDbArc
 50
269.9999999999994
 51
0.0
  0
LINE
  5
2E0
330
1F
100
AcDbEntity
  8
11
  6
PHANTOM
 62
     3
370
     9
100
AcDbLine
 10
380.7568287706851
 20
286.83487070325
 30
0.0
 11
346.7568287706851
 21
286.83487070325
 31
0.0
  0
LINE
  5
2E1
330
1F
100
AcDbEntity
  8
11
  6
PHANTOM
 62
     3
370
     9
100
AcDbLine
 10
393.7568287706851
 20
299.83487070325
 30
0.0
 11
333.7568287706851
 21
299.83487070325
 31
0.0
  0
ARC
  5
2E2
330
1F
100
AcDbEntity
  8
11
  6
PHANTOM
 62
     3
370
     9
100
AcDbCircle
 10
346.7568287706851
 20
299.83487070325
 30
0.0
 40
13.0
100
AcDbArc
 50
179.9999999999997
 51
269.9999999999994
  0
LINE
  5
2E3
330
1F
100
AcDbEntity
  8
26
  6
PHANTOM
 62
     7
370
     9
100
AcDbLine
 10
422.0568287706859
 20
247.08487070325
 30
0.0
 11
422.0568287706858
 21
270.5848707032501
 31
0.0
  0
LINE
  5
2E4
330
1F
100
AcDbEntity
  8
26
  6
PHANTOM
 62
     7
370
     9
100
AcDbLine
 10
421.2568287706859
 20
247.08487070325
 30
0.0
 11
422.0568287706859
 21
247.08487070325
 31
0.0
  0
LINE
  5
2E5
330
1F
100
AcDbEntity
  8
26
  6
PHANTOM
 62
     7
370
     9
100
AcDbLine
 10
421.2568287706858
 20
270.5848707032501
 30
0.0
 11
422.0568287706858
 21
270.5848707032501
 31
0.0
  0
POINT
  5
2E6
330
1F
100
AcDbEntity
  8
26
  6
Continuous
 62
     7
370
     9
100
AcDbPoint
 10
363.7568287706851
 20
258.8348707032499
 30
0.0
  0
POINT
  5
2E7
330
1F
100
AcDbEntity
  8
26
  6
Continuous
 62
     7
370
     9
100
AcDbPoint
 10
363.7568287706851
 20
276.43487070325
 30
0.0
  0
POINT
  5
2E8
330
1F
100
AcDbEntity
  8
26
  6
Continuous
 62
     7
370
     9
100
AcDbPoint
 10
384.7568287706851
 20
278.43487070325
 30
0.0
  0
LINE
  5
2E9
330
1F
100
AcDbEntity
  8
5
  6
Continuous
 62
     3
370
     9
100
AcDbLine
 10
333.7568287706851
 20
299.83487070325
 30
0.0
 11
333.7568287706851
 21
306.3679393498945
 31
0.0
  0
LINE
  5
2EA
330
1F
100
AcDbEntity
  8
5
  6
Continuous
 62
     3
370
     9
100
AcDbLine
 10
393.7568287706851
 20
299.83487070325
 30
0.0
 11
393.7568287706851
 21
306.3679393498945
 31
0.0
  0
LINE
  5
2EB
330
1F
100
AcDbEntity
  8
5
  6
Continuous
 62
     3
370
     9
100
AcDbLine
 10
380.7568287706851
 20
286.83487070325
 30
0.0
 11
403.570728934909
 21
286.83487070325
 31
0.0
  0
LINE
  5
2EC
330
1F
100
AcDbEntity
  8
5
  6
Continuous
 62
     3
370
     9
100
AcDbLine
 10
393.7568287706851
 20
299.83487070325
 30
0.0
 11
443.6986680226403
 21
299.83487070325
 31
0.0
  0
LINE
  5
2ED
330
1F
100
AcDbEntity
  8
22
  6
Continuous
 62
     7
370
     9
100
AcDbLine
 10
363.7568287706851
 20
243.9329713205288
 30
0.0
 11
363.7568287706851
 21
226.1077969921117
 31
0.0
  0
LINE
  5
2EE
330
1F
100
AcDbEntity
  8
22
  6
Continuous
 62
     7
370
     9
100
AcDbLine
 10
305.906828770685
 20
258.8348707032499
 30
0.0
 11
305.906828770685
 21
226.1077969921117
 31
0.0
  0
LINE
  5
2EF
330
1F
100
AcDbEntity
  8
22
  6
Continuous
 62
     7
370
     9
100
AcDbLine
 10
421.2568287706859
 20
245.3348707032501
 30
0.0
 11
421.2568287706859
 21
218.1077969921117
 31
0.0
  0
LINE
  5
2F0
330
1F
100
AcDbEntity
  8
5
  6
Continuous
 62
     3
370
     9
100
AcDbLine
 10
305.906828770685
 20
258.8348707032499
 30
0.0
 11
305.906828770685
 21
218.1077969921117
 31
0.0
  0
LINE
  5
2F1
330
1F
100
AcDbEntity
  8
26
  6
Continuous
 62
     7
370
     9
100
AcDbLine
 10
363.7568287706851
 20
243.9329713205288
 30
0.0
 11
363.7568287706851
 21
234.6077969921117
 31
0.0
  0
LINE
  5
2F2
330
1F
100
AcDbEntity
  8
5
  6
Continuous
 62
     3
370
     9
100
AcDbLine
 10
311.956828770685
 20
248.181863545564
 30
0.0
 11
311.956828770685
 21
234.6077969921117
 31
0.0
  0
LINE
  5
2F3
330
1F
100
AcDbEntity
  8
5
  6
Continuous
 62
     3
370
     9
100
AcDbLine
 10
363.7568287706851
 20
243.9329713205288
 30
0.0
 11
363.7568287706851
 21
226.1077969921117
 31
0.0
  0
LINE
  5
2F4
330
1F
100
AcDbEntity
  8
5
  6
Continuous
 62
     3
370
     9
100
AcDbLine
 10
421.2568287706859
 20
245.3348707032501
 30
0.0
 11
421.2568287706859
 21
226.1077969921117
 31
0.0
  0
LINE
  5
2F5
330
1F
100
AcDbEntity
  8
5
  6
Continuous
 62
     3
370
     9
100
AcDbLine
 10
421.2568287706858
 20
272.33487070325
 30
0.0
 11
430.2708954789164
 21
272.3348707032499
 31
0.0
  0
LINE
  5
2F6
330
1F
100
AcDbEntity
  8
5
  6
Continuous
 62
     3
370
     9
100
AcDbLine
 10
421.2568287706858
 20
245.3348707032499
 30
0.0
 11
430.2708954789164
 21
245.3348707032499
 31
0.0
  0
POINT
  5
2F7
330
1F
100
AcDbEntity
  8
26
  6
Continuous
 62
     7
370
     9
100
AcDbPoint
 10
323.6568287706852
 20
258.83487070325
 30
0.0
  0
POINT
  5
2F8
330
1F
100
AcDbEntity
  8
26
  6
Continuous
 62
     7
370
     9
100
AcDbPoint
 10
409.5068287706851
 20
258.8348707032499
 30
0.0
  0
POINT
  5
2F9
330
1F
100
AcDbEntity
  8
26
  6
Continuous
 62
     7
370
     9
100
AcDbPoint
 10
384.7568287706851
 20
262.8348707032499
 30
0.0
  0
POINT
  5
2FA
330
1F
100
AcDbEntity
  8
26
  6
Continuous
 62
     7
370
     9
100
AcDbPoint
 10
373.9568287706851
 20
258.8348707032499
 30
0.0
  0
POINT
  5
2FB
330
1F
100
AcDbEntity
  8
26
  6
Continuous
 62
     7
370
     9
100
AcDbPoint
 10
384.7568287706851
 20
258.8348707032499
 30
0.0
  0
POINT
  5
2FC
330
1F
100
AcDbEntity
  8
26
  6
Continuous
 62
     7
370
     9
100
AcDbPoint
 10
338.7568287706851
 20
258.83487070325
 30
0.0
  0
POINT
  5
2FD
330
1F
100
AcDbEntity
  8
26
  6
Continuous
 62
     7
370
     9
100
AcDbPoint
 10
342.7568287706851
 20
248.0348707032499
 30
0.0
  0
POINT
  5
2FE
330
1F
100
AcDbEntity
  8
26
  6
Continuous
 62
     7
370
     9
100
AcDbPoint
 10
342.7568287706851
 20
258.83487070325
 30
0.0
  0
LINE
  5
2FF
330
1F
100
AcDbEntity
  8
5
  6
Continuous
 62
     3
370
     9
100
AcDbLine
 10
333.7568287706851
 20
305.3679393498945
 30
0.0
 11
393.7568287706851
 21
305.3679393498945
 31
0.0
  0
INSERT
  5
306
330
1F
100
AcDbEntity
  8
5
100
AcDbBlockReference
  2
*G12
 10
0.0
 20
0.0
 30
0.0
  0
INSERT
  5
30D
330
1F
100
AcDbEntity
  8
5
100
AcDbBlockReference
  2
*G13
 10
0.0
 20
0.0
 30
0.0
  0
LINE
  5
30E
330
1F
100
AcDbEntity
  8
5
  6
Continuous
 62
     3
370
     9
100
AcDbLine
 10
402.5707289349091
 20
299.83487070325
 30
0.0
 11
402.5707289349091
 21
286.83487070325
 31
0.0
  0
INSERT
  5
315
330
1F
100
AcDbEntity
  8
5
100
AcDbBlockReference
  2
*G14
 10
0.0
 20
0.0
 30
0.0
  0
INSERT
  5
31C
330
1F
100
AcDbEntity
  8
5
100
AcDbBlockReference
  2
*G15
 10
0.0
 20
0.0
 30
0.0
  0
LINE
  5
31D
330
1F
100
AcDbEntity
  8
5
  6
Continuous
 62
     3
370
     9
100
AcDbLine
 10
435.27086910995
 20
242.9848707032499
 30
0.0
 11
435.27086910995
 21
258.8348707032499
 31
0.0
  0
INSERT
  5
324
330
1F
100
AcDbEntity
  8
5
100
AcDbBlockReference
  2
*G16
 10
0.0
 20
0.0
 30
0.0
  0
INSERT
  5
32B
330
1F
100
AcDbEntity
  8
5
100
AcDbBlockReference
  2
*G17
 10
0.0
 20
0.0
 30
0.0
  0
LINE
  5
32C
330
1F
100
AcDbEntity
  8
5
  6
Continuous
 62
     3
370
     9
100
AcDbLine
 10
435.27086910995
 20
258.8348707032499
 30
0.0
 11
435.27086910995
 21
299.83487070325
 31
0.0
  0
INSERT
  5
333
330
1F
100
AcDbEntity
  8
5
100
AcDbBlockReference
  2
*G18
 10
0.0
 20
0.0
 30
0.0
  0
INSERT
  5
33A
330
1F
100
AcDbEntity
  8
5
100
AcDbBlockReference
  2
*G19
 10
0.0
 20
0.0
 30
0.0
  0
LINE
  5
33B
330
1F
100
AcDbEntity
  8
5
  6
Continuous
 62
     3
370
     9
100
AcDbLine
 10
441.27086910995
 20
299.83487070325
 30
0.0
 11
441.27086910995
 21
242.9848707032499
 31
0.0
  0
INSERT
  5
342
330
1F
100
AcDbEntity
  8
5
100
AcDbBlockReference
  2
*G20
 10
0.0
 20
0.0
 30
0.0
  0
INSERT
  5
349
330
1F
100
AcDbEntity
  8
5
100
AcDbBlockReference
  2
*G21
 10
0.0
 20
0.0
 30
0.0
  0
LINE
  5
34A
330
1F
100
AcDbEntity
  8
5
  6
Continuous
 62
     3
370
     9
100
AcDbLine
 10
305.906828770685
 20
227.1077969921117
 30
0.0
 11
363.7568287706851
 21
227.1077969921117
 31
0.0
  0
INSERT
  5
351
330
1F
100
AcDbEntity
  8
5
100
AcDbBlockReference
  2
*G22
 10
0.0
 20
0.0
 30
0.0
  0
INSERT
  5
358
330
1F
100
AcDbEntity
  8
5
100
AcDbBlockReference
  2
*G23
 10
0.0
 20
0.0
 30
0.0
  0
LINE
  5
359
330
1F
100
AcDbEntity
  8
5
  6
Continuous
 62
     3
370
     9
100
AcDbLine
 10
305.906828770685
 20
219.1077969921117
 30
0.0
 11
421.2568287706859
 21
219.1077969921117
 31
0.0
  0
INSERT
  5
360
330
1F
100
AcDbEntity
  8
5
100
AcDbBlockReference
  2
*G24
 10
0.0
 20
0.0
 30
0.0
  0
INSERT
  5
367
330
1F
100
AcDbEntity
  8
5
100
AcDbBlockReference
  2
*G25
 10
0.0
 20
0.0
 30
0.0
  0
LINE
  5
368
330
1F
100
AcDbEntity
  8
5
  6
Continuous
 62
     3
370
     9
100
AcDbLine
 10
311.956828770685
 20
235.6077969921117
 30
0.0
 11
363.7568287706851
 21
235.6077969921117
 31
0.0
  0
INSERT
  5
36F
330
1F
100
AcDbEntity
  8
5
100
AcDbBlockReference
  2
*G26
 10
0.0
 20
0.0
 30
0.0
  0
INSERT
  5
376
330
1F
100
AcDbEntity
  8
5
100
AcDbBlockReference
  2
*G27
 10
0.0
 20
0.0
 30
0.0
  0
LINE
  5
377
330
1F
100
AcDbEntity
  8
5
  6
Continuous
 62
     3
370
     9
100
AcDbLine
 10
363.7568287706851
 20
227.1077969921117
 30
0.0
 11
421.2568287706859
 21
227.1077969921117
 31
0.0
  0
INSERT
  5
37E
330
1F
100
AcDbEntity
  8
5
100
AcDbBlockReference
  2
*G28
 10
0.0
 20
0.0
 30
0.0
  0
INSERT
  5
385
330
1F
100
AcDbEntity
  8
5
100
AcDbBlockReference
  2
*G29
 10
0.0
 20
0.0
 30
0.0
  0
LINE
  5
386
330
1F
100
AcDbEntity
  8
5
  6
Continuous
 62
     3
370
     9
100
AcDbLine
 10
429.2708954789163
 20
272.33487070325
 30
0.0
 11
429.2708954789163
 21
248.3348734910743
 31
0.0
  0
INSERT
  5
38D
330
1F
100
AcDbEntity
  8
5
100
AcDbBlockReference
  2
*G30
 10
0.0
 20
0.0
 30
0.0
  0
INSERT
  5
394
330
1F
100
AcDbEntity
  8
5
100
AcDbBlockReference
  2
*G31
 10
0.0
 20
0.0
 30
0.0
  0
TEXT
  5
395
330
1F
100
AcDbEntity
  8
26
  6
Continuous
 62
     7
370
     9
100
AcDbText
 10
322.1568287706852
 20
260.0348707032499
 30
0.0
 40
3.0
  1
開
 50
-89.99999999999991
 41
0.5468750000000079
100
AcDbText
  0
TEXT
  5
396
330
1F
100
AcDbEntity
  8
26
  6
Continuous
 62
     7
370
     9
100
AcDbText
 10
411.0068287706851
 20
257.6348707032499
 30
0.0
 40
3.0
  1
開
 50
89.99999999999991
 41
0.5468749999999948
100
AcDbText
  0
LINE
  5
397
330
1F
100
AcDbEntity
  8
26
  6
Continuous
 62
     7
370
     9
100
AcDbLine
 10
321.4068287706852
 20
255.33487070325
 30
0.0
 11
321.4068287706852
 21
262.33487070325
 31
0.0
  0
LINE
  5
398
330
1F
100
AcDbEntity
  8
26
  6
Continuous
 62
     7
370
     9
100
AcDbLine
 10
325.9068287706852
 20
259.83487070325
 30
0.0
 11
325.4068287706852
 21
259.83487070325
 31
0.0
  0
LINE
  5
399
330
1F
100
AcDbEntity
  8
26
  6
Continuous
 62
     7
370
     9
100
AcDbLine
 10
325.4068287706852
 20
257.83487070325
 30
0.0
 11
325.4068287706852
 21
259.83487070325
 31
0.0
  0
LINE
  5
39A
330
1F
100
AcDbEntity
  8
26
  6
Continuous
 62
     7
370
     9
100
AcDbLine
 10
325.9068287706852
 20
257.83487070325
 30
0.0
 11
325.4068287706852
 21
257.83487070325
 31
0.0
  0
LINE
  5
39B
330
1F
100
AcDbEntity
  8
26
  6
Continuous
 62
     7
370
     9
100
AcDbLine
 10
325.9068287706852
 20
255.33487070325
 30
0.0
 11
321.4068287706852
 21
255.33487070325
 31
0.0
  0
LINE
  5
39C
330
1F
100
AcDbEntity
  8
26
  6
Continuous
 62
     7
370
     9
100
AcDbLine
 10
325.9068287706852
 20
262.33487070325
 30
0.0
 11
321.4068287706852
 21
262.33487070325
 31
0.0
  0
LINE
  5
39D
330
1F
100
AcDbEntity
  8
26
  6
Continuous
 62
     7
370
     9
100
AcDbLine
 10
325.9068287706852
 20
262.33487070325
 30
0.0
 11
325.9068287706852
 21
255.33487070325
 31
0.0
  0
LINE
  5
39E
330
1F
100
AcDbEntity
  8
26
  6
Continuous
 62
     7
370
     9
100
AcDbLine
 10
407.2568287706851
 20
262.3348707032499
 30
0.0
 11
407.2568287706851
 21
255.3348707032499
 31
0.0
  0
LINE
  5
39F
330
1F
100
AcDbEntity
  8
26
  6
Continuous
 62
     7
370
     9
100
AcDbLine
 10
407.2568287706851
 20
255.3348707032499
 30
0.0
 11
411.7568287706851
 21
255.3348707032499
 31
0.0
  0
LINE
  5
3A0
330
1F
100
AcDbEntity
  8
26
  6
Continuous
 62
     7
370
     9
100
AcDbLine
 10
411.7568287706851
 20
255.3348707032499
 30
0.0
 11
411.7568287706851
 21
262.3348707032499
 31
0.0
  0
LINE
  5
3A1
330
1F
100
AcDbEntity
  8
26
  6
Continuous
 62
     7
370
     9
100
AcDbLine
 10
407.2568287706851
 20
262.3348707032499
 30
0.0
 11
411.7568287706851
 21
262.3348707032499
 31
0.0
  0
LINE
  5
3A2
330
1F
100
AcDbEntity
  8
26
  6
Continuous
 62
     7
370
     9
100
AcDbLine
 10
407.2568287706851
 20
257.8348707032499
 30
0.0
 11
407.7568287706851
 21
257.8348707032499
 31
0.0
  0
LINE
  5
3A3
330
1F
100
AcDbEntity
  8
26
  6
Continuous
 62
     7
370
     9
100
AcDbLine
 10
407.2568287706851
 20
259.8348707032499
 30
0.0
 11
407.7568287706851
 21
259.8348707032499
 31
0.0
  0
LINE
  5
3A4
330
1F
100
AcDbEntity
  8
26
  6
Continuous
 62
     7
370
     9
100
AcDbLine
 10
407.7568287706851
 20
257.8348707032499
 30
0.0
 11
407.7568287706851
 21
259.8348707032499
 31
0.0
  0
LINE
  5
3A5
330
1F
100
AcDbEntity
  8
26
  6
Continuous
 62
     7
370
     9
100
AcDbLine
 10
382.2186590652316
 20
260.5719086032499
 30
0.0
 11
381.3524746842917
 21
257.0978328032499
 31
0.0
  0
LINE
  5
3A6
330
1F
100
AcDbEntity
  8
26
  6
Continuous
 62
     7
370
     9
100
AcDbLine
 10
384.8165228986939
 20
260.5719086032499
 30
0.0
 11
381.901427176232
 21
257.0978328032499
 31
0.0
  0
LINE
  5
3A7
330
1F
100
AcDbEntity
  8
26
  6
Continuous
 62
     7
370
     9
100
AcDbLine
 10
382.6408795686366
 20
260.5719086032499
 30
0.0
 11
382.3894124223471
 21
259.5633289675014
 31
0.0
  0
LINE
  5
3A8
330
1F
100
AcDbEntity
  8
26
  6
Continuous
 62
     7
370
     9
100
AcDbLine
 10
383.5697525266398
 20
258.4637760024703
 30
0.0
 11
384.0135743760019
 21
257.0978328032499
 31
0.0
  0
LINE
  5
3A9
330
1F
100
AcDbEntity
  8
26
  6
Continuous
 62
     7
370
     9
100
AcDbLine
 10
381.901427176232
 20
257.0978328032499
 30
0.0
 11
381.3524746842917
 21
257.0978328032499
 31
0.0
  0
LINE
  5
3AA
330
1F
100
AcDbEntity
  8
26
  6
Continuous
 62
     7
370
     9
100
AcDbLine
 10
382.423590091965
 20
257.0978328032499
 30
0.0
 11
384.0135743760019
 21
257.0978328032499
 31
0.0
  0
LINE
  5
3AB
330
1F
100
AcDbEntity
  8
26
  6
Continuous
 62
     7
370
     9
100
AcDbLine
 10
382.2186590652316
 20
260.5719086032499
 30
0.0
 11
382.6408795686366
 21
260.5719086032499
 31
0.0
  0
LINE
  5
3AC
330
1F
100
AcDbEntity
  8
26
  6
Continuous
 62
     7
370
     9
100
AcDbLine
 10
383.2357112227167
 20
260.5719086032499
 30
0.0
 11
384.8165228986939
 21
260.5719086032499
 31
0.0
  0
LINE
  5
3AD
330
1F
100
AcDbEntity
  8
26
  6
Continuous
 62
     7
370
     9
100
AcDbLine
 10
383.2357112227166
 20
260.5719086032499
 30
0.0
 11
382.3894124223471
 21
259.5633289675014
 31
0.0
  0
LINE
  5
3AE
330
1F
100
AcDbEntity
  8
26
  6
Continuous
 62
     7
370
     9
100
AcDbLine
 10
383.5697525266398
 20
258.4637760024703
 30
0.0
 11
382.423590091965
 21
257.09783280325
 31
0.0
  0
LINE
  5
3AF
330
1F
100
AcDbEntity
  8
26
  6
Continuous
 62
     7
370
     9
100
AcDbLine
 10
381.0372593797562
 20
257.0978328032499
 30
0.0
 11
381.903443760696
 21
260.5719086032499
 31
0.0
  0
LINE
  5
3B0
330
1F
100
AcDbEntity
  8
26
  6
Continuous
 62
     7
370
     9
100
AcDbLine
 10
380.7220440752207
 20
257.0978328032499
 30
0.0
 11
381.5882284561604
 21
260.5719086032499
 31
0.0
  0
LINE
  5
3B1
330
1F
100
AcDbEntity
  8
26
  6
Continuous
 62
     7
370
     9
100
AcDbLine
 10
380.4068287706851
 20
257.0978328032499
 30
0.0
 11
381.2730131516249
 21
260.5719086032499
 31
0.0
  0
LINE
  5
3B2
330
1F
100
AcDbEntity
  8
26
  6
Continuous
 62
     7
370
     9
100
AcDbLine
 10
341.0197908706851
 20
256.2967009977964
 30
0.0
 11
344.4938666706851
 21
255.4305166168566
 31
0.0
  0
LINE
  5
3B3
330
1F
100
AcDbEntity
  8
26
  6
Continuous
 62
     7
370
     9
100
AcDbLine
 10
341.0197908706851
 20
258.8945648312587
 30
0.0
 11
344.4938666706851
 21
255.9794691087968
 31
0.0
  0
LINE
  5
3B4
330
1F
100
AcDbEntity
  8
26
  6
Continuous
 62
     7
370
     9
100
AcDbLine
 10
341.0197908706851
 20
256.7189215012014
 30
0.0
 11
342.0283705064337
 21
256.4674543549119
 31
0.0
  0
LINE
  5
3B5
330
1F
100
AcDbEntity
  8
26
  6
Continuous
 62
     7
370
     9
100
AcDbLine
 10
343.1279234714647
 20
257.6477944592047
 30
0.0
 11
344.4938666706851
 21
258.0916163085667
 31
0.0
  0
LINE
  5
3B6
330
1F
100
AcDbEntity
  8
26
  6
Continuous
 62
     7
370
     9
100
AcDbLine
 10
344.4938666706851
 20
255.9794691087968
 30
0.0
 11
344.4938666706851
 21
255.4305166168565
 31
0.0
  0
LINE
  5
3B7
330
1F
100
AcDbEntity
  8
26
  6
Continuous
 62
     7
370
     9
100
AcDbLine
 10
344.4938666706851
 20
256.5016320245298
 30
0.0
 11
344.4938666706851
 21
258.0916163085667
 31
0.0
  0
LINE
  5
3B8
330
1F
100
AcDbEntity
  8
26
  6
Continuous
 62
     7
370
     9
100
AcDbLine
 10
341.0197908706851
 20
256.2967009977964
 30
0.0
 11
341.0197908706851
 21
256.7189215012014
 31
0.0
  0
LINE
  5
3B9
330
1F
100
AcDbEntity
  8
26
  6
Continuous
 62
     7
370
     9
100
AcDbLine
 10
341.0197908706851
 20
257.3137531552815
 30
0.0
 11
341.0197908706851
 21
258.8945648312588
 31
0.0
  0
LINE
  5
3BA
330
1F
100
AcDbEntity
  8
26
  6
Continuous
 62
     7
370
     9
100
AcDbLine
 10
341.0197908706852
 20
257.3137531552814
 30
0.0
 11
342.0283705064337
 21
256.4674543549119
 31
0.0
  0
LINE
  5
3BB
330
1F
100
AcDbEntity
  8
26
  6
Continuous
 62
     7
370
     9
100
AcDbLine
 10
343.1279234714648
 20
257.6477944592046
 30
0.0
 11
344.493866670685
 21
256.5016320245298
 31
0.0
  0
LINE
  5
3BC
330
1F
100
AcDbEntity
  8
26
  6
Continuous
 62
     7
370
     9
100
AcDbLine
 10
344.4938666706851
 20
255.115301312321
 30
0.0
 11
341.0197908706851
 21
255.9814856932608
 31
0.0
  0
LINE
  5
3BD
330
1F
100
AcDbEntity
  8
26
  6
Continuous
 62
     7
370
     9
100
AcDbLine
 10
344.4938666706851
 20
254.8000860077855
 30
0.0
 11
341.0197908706851
 21
255.6662703887253
 31
0.0
  0
LINE
  5
3BE
330
1F
100
AcDbEntity
  8
26
  6
Continuous
 62
     7
370
     9
100
AcDbLine
 10
344.4938666706851
 20
254.4848707032499
 30
0.0
 11
341.0197908706851
 21
255.3510550841898
 31
0.0
  0
LINE
  5
3BF
330
1F
100
AcDbEntity
  8
26
  6
Continuous
 62
     7
370
     9
100
AcDbLine
 10
384.7903758381379
 20
260.5407477498965
 30
0.0
 11
381.3499677878917
 21
257.1003396996499
 31
0.0
  0
LINE
  5
3C0
330
1F
100
AcDbEntity
  8
26
  6
Continuous
 62
     7
370
     9
100
AcDbLine
 10
384.5386939790182
 20
260.5719086032499
 30
0.0
 11
381.4480832694489
 21
257.4812978936806
 31
0.0
  0
LINE
  5
3C1
330
1F
100
AcDbEntity
  8
26
  6
Continuous
 62
     7
370
     9
100
AcDbLine
 10
384.2558512665436
 20
260.5719086032499
 30
0.0
 11
381.5420265747635
 21
257.8580839114699
 31
0.0
  0
LINE
  5
3C2
330
1F
100
AcDbEntity
  8
26
  6
Continuous
 62
     7
370
     9
100
AcDbLine
 10
383.973008554069
 20
260.5719086032499
 30
0.0
 11
381.6359698800781
 21
258.2348699292591
 31
0.0
  0
LINE
  5
3C3
330
1F
100
AcDbEntity
  8
26
  6
Continuous
 62
     7
370
     9
100
AcDbLine
 10
383.6901658415943
 20
260.5719086032499
 30
0.0
 11
381.7299131853928
 21
258.6116559470483
 31
0.0
  0
LINE
  5
3C4
330
1F
100
AcDbEntity
  8
26
  6
Continuous
 62
     7
370
     9
100
AcDbLine
 10
383.4073231291197
 20
260.5719086032499
 30
0.0
 11
381.8238564907074
 21
258.9884419648376
 31
0.0
  0
LINE
  5
3C5
330
1F
100
AcDbEntity
  8
26
  6
Continuous
 62
     7
370
     9
100
AcDbLine
 10
382.4802565081469
 20
259.9276846947518
 30
0.0
 11
381.917799796022
 21
259.3652279826269
 31
0.0
  0
LINE
  5
3C6
330
1F
100
AcDbEntity
  8
26
  6
Continuous
 62
     7
370
     9
100
AcDbLine
 10
382.5741998134615
 20
260.304470712541
 30
0.0
 11
382.0117431013366
 21
259.7420140004161
 31
0.0
  0
LINE
  5
3C7
330
1F
100
AcDbEntity
  8
26
  6
Continuous
 62
     7
370
     9
100
AcDbLine
 10
382.5587949916958
 20
260.5719086032499
 30
0.0
 11
382.1056864066513
 21
260.1188000182054
 31
0.0
  0
LINE
  5
3C8
330
1F
100
AcDbEntity
  8
26
  6
Continuous
 62
     7
370
     9
100
AcDbLine
 10
382.2759522792212
 20
260.5719086032499
 30
0.0
 11
382.1996297119659
 21
260.4955860359946
 31
0.0
  0
LINE
  5
3C9
330
1F
100
AcDbEntity
  8
26
  6
Continuous
 62
     7
370
     9
100
AcDbLine
 10
383.3153436958485
 20
258.7828728951312
 30
0.0
 11
381.6303036039672
 21
257.0978328032499
 31
0.0
  0
LINE
  5
3CA
330
1F
100
AcDbEntity
  8
26
  6
Continuous
 62
     7
370
     9
100
AcDbLine
 10
383.6511225750826
 20
258.213344743959
 30
0.0
 11
382.5356106343734
 21
257.0978328032499
 31
0.0
  0
LINE
  5
3CB
330
1F
100
AcDbEntity
  8
26
  6
Continuous
 62
     7
370
     9
100
AcDbLine
 10
383.5817589989501
 20
258.4268238803014
 30
0.0
 11
383.3144321760963
 21
258.1594970574476
 31
0.0
  0
LINE
  5
3CC
330
1F
100
AcDbEntity
  8
26
  6
Continuous
 62
     7
370
     9
100
AcDbLine
 10
383.7204861512148
 20
257.9998656076171
 30
0.0
 11
382.8184533468475
 21
257.0978328032499
 31
0.0
  0
LINE
  5
3CD
330
1F
100
AcDbEntity
  8
26
  6
Continuous
 62
     7
370
     9
100
AcDbLine
 10
383.7898497273473
 20
257.7863864712747
 30
0.0
 11
383.1012960593225
 21
257.0978328032499
 31
0.0
  0
LINE
  5
3CE
330
1F
100
AcDbEntity
  8
26
  6
Continuous
 62
     7
370
     9
100
AcDbLine
 10
383.8592133034796
 20
257.5729073349324
 30
0.0
 11
383.3841387717971
 21
257.0978328032499
 31
0.0
  0
LINE
  5
3CF
330
1F
100
AcDbEntity
  8
26
  6
Continuous
 62
     7
370
     9
100
AcDbLine
 10
383.928576879612
 20
257.3594281985902
 30
0.0
 11
383.6669814842717
 21
257.0978328032499
 31
0.0
  0
LINE
  5
3D0
330
1F
100
AcDbEntity
  8
26
  6
Continuous
 62
     7
370
     9
100
AcDbLine
 10
383.9979404557444
 20
257.1459490622479
 30
0.0
 11
383.9498241967464
 21
257.0978328032499
 31
0.0
  0
LINE
  5
3D1
330
1F
100
AcDbEntity
  8
26
  6
Continuous
 62
     7
370
     9
100
AcDbLine
 10
341.0509517240385
 20
258.8684177707027
 30
0.0
 11
344.491359774285
 21
255.4280097204566
 31
0.0
  0
LINE
  5
3D2
330
1F
100
AcDbEntity
  8
26
  6
Continuous
 62
     7
370
     9
100
AcDbLine
 10
341.0197908706851
 20
258.616735911583
 30
0.0
 11
344.1104015802544
 21
255.5261252020137
 31
0.0
  0
LINE
  5
3D3
330
1F
100
AcDbEntity
  8
26
  6
Continuous
 62
     7
370
     9
100
AcDbLine
 10
341.0197908706851
 20
258.3338931991085
 30
0.0
 11
343.7336155624652
 21
255.6200685073284
 31
0.0
  0
LINE
  5
3D4
330
1F
100
AcDbEntity
  8
26
  6
Continuous
 62
     7
370
     9
100
AcDbLine
 10
341.0197908706851
 20
258.0510504866338
 30
0.0
 11
343.3568295446759
 21
255.714011812643
 31
0.0
  0
LINE
  5
3D5
330
1F
100
AcDbEntity
  8
26
  6
Continuous
 62
     7
370
     9
100
AcDbLine
 10
341.0197908706851
 20
257.7682077741592
 30
0.0
 11
342.9800435268867
 21
255.8079551179576
 31
0.0
  0
LINE
  5
3D6
330
1F
100
AcDbEntity
  8
26
  6
Continuous
 62
     7
370
     9
100
AcDbLine
 10
341.0197908706851
 20
257.4853650616845
 30
0.0
 11
342.6032575090974
 21
255.9018984232722
 31
0.0
  0
LINE
  5
3D7
330
1F
100
AcDbEntity
  8
26
  6
Continuous
 62
     7
370
     9
100
AcDbLine
 10
341.6640147791833
 20
256.5582984407118
 30
0.0
 11
342.2264714913081
 21
255.9958417285869
 31
0.0
  0
LINE
  5
3D8
330
1F
100
AcDbEntity
  8
26
  6
Continuous
 62
     7
370
     9
100
AcDbLine
 10
341.287228761394
 20
256.6522417460264
 30
0.0
 11
341.8496854735189
 21
256.0897850339015
 31
0.0
  0
LINE
  5
3D9
330
1F
100
AcDbEntity
  8
26
  6
Continuous
 62
     7
370
     9
100
AcDbLine
 10
341.0197908706851
 20
256.6368369242606
 30
0.0
 11
341.4728994557297
 21
256.1837283392161
 31
0.0
  0
LINE
  5
3DA
330
1F
100
AcDbEntity
  8
26
  6
Continuous
 62
     7
370
     9
100
AcDbLine
 10
341.0197908706851
 20
256.353994211786
 30
0.0
 11
341.0961134379404
 21
256.2776716445307
 31
0.0
  0
LINE
  5
3DB
330
1F
100
AcDbEntity
  8
26
  6
Continuous
 62
     7
370
     9
100
AcDbLine
 10
342.8088265788038
 20
257.3933856284134
 30
0.0
 11
344.4938666706851
 21
255.7083455365321
 31
0.0
  0
LINE
  5
3DC
330
1F
100
AcDbEntity
  8
26
  6
Continuous
 62
     7
370
     9
100
AcDbLine
 10
343.378354729976
 20
257.7291645076474
 30
0.0
 11
344.4938666706851
 21
256.6136525669383
 31
0.0
  0
LINE
  5
3DD
330
1F
100
AcDbEntity
  8
26
  6
Continuous
 62
     7
370
     9
100
AcDbLine
 10
343.1648755936336
 20
257.659800931515
 30
0.0
 11
343.4322024164874
 21
257.3924741086611
 31
0.0
  0
LINE
  5
3DE
330
1F
100
AcDbEntity
  8
26
  6
Continuous
 62
     7
370
     9
100
AcDbLine
 10
343.5918338663179
 20
257.7985280837797
 30
0.0
 11
344.4938666706851
 21
256.8964952794124
 31
0.0
  0
LINE
  5
3DF
330
1F
100
AcDbEntity
  8
26
  6
Continuous
 62
     7
370
     9
100
AcDbLine
 10
343.8053130026603
 20
257.8678916599121
 30
0.0
 11
344.4938666706851
 21
257.1793379918873
 31
0.0
  0
LINE
  5
3E0
330
1F
100
AcDbEntity
  8
26
  6
Continuous
 62
     7
370
     9
100
AcDbLine
 10
344.0187921390026
 20
257.9372552360445
 30
0.0
 11
344.4938666706851
 21
257.4621807043619
 31
0.0
  0
LINE
  5
3E1
330
1F
100
AcDbEntity
  8
26
  6
Continuous
 62
     7
370
     9
100
AcDbLine
 10
344.2322712753448
 20
258.0066188121769
 30
0.0
 11
344.4938666706851
 21
257.7450234168365
 31
0.0
  0
LINE
  5
3E2
330
1F
100
AcDbEntity
  8
26
  6
Continuous
 62
     7
370
     9
100
AcDbLine
 10
344.445750411687
 20
258.0759823883093
 30
0.0
 11
344.4938666706851
 21
258.0278661293112
 31
0.0
  0
TEXT
  5
3E3
330
1F
100
AcDbEntity
  8
26
  6
Continuous
 62
     7
370
     9
100
AcDbText
 10
375.7936886653076
 20
256.614607579283
 30
0.0
 40
4.166666984558105
  1
押
 41
0.8571428571428633
100
AcDbText
  0
TEXT
  5
3E4
330
1F
100
AcDbEntity
  8
26
  6
Continuous
 62
     7
370
     9
100
AcDbText
 10
344.9770918946521
 20
249.8717305978724
 30
0.0
 40
4.166666984558105
  1
押
 50
89.99999999999991
 41
0.857142857142856
100
AcDbText
  0
LINE
  5
3E5
330
1F
100
AcDbEntity
  8
26
  6
Continuous
 62
     7
370
     9
100
AcDbLine
 10
334.7568287706857
 20
244.8348707032502
 30
0.0
 11
335.325644477451
 21
244.8348707032502
 31
0.0
  0
LINE
  5
3E6
330
1F
100
AcDbEntity
  8
26
  6
Continuous
 62
     7
370
     9
100
AcDbLine
 10
334.7568287706857
 20
272.8348707032502
 30
0.0
 11
335.3256444774522
 21
272.8348707032502
 31
0.0
  0
LINE
  5
3E7
330
1F
100
AcDbEntity
  8
26
  6
Continuous
 62
     7
370
     9
100
AcDbLine
 10
385.4625250378875
 20
258.8020964032499
 30
0.0
 11
384.7826479484979
 21
258.0470163992282
 31
0.0
  0
LINE
  5
3E8
330
1F
100
AcDbEntity
  8
26
  6
Continuous
 62
     7
370
     9
100
AcDbLine
 10
384.7826479484979
 20
258.0470163992282
 30
0.0
 11
385.0910563941725
 21
257.0978328032499
 31
0.0
  0
LINE
  5
3E9
330
1F
100
AcDbEntity
  8
26
  6
Continuous
 62
     7
370
     9
100
AcDbLine
 10
390.2044043687227
 20
257.9663517532499
 30
0.0
 11
389.9878582734877
 21
257.0978328032499
 31
0.0
  0
LINE
  5
3EA
330
1F
100
AcDbEntity
  8
26
  6
Continuous
 62
     7
370
     9
100
AcDbLine
 10
392.4068287706851
 20
258.8020964032499
 30
0.0
 11
392.2779184826346
 21
258.8020964032499
 31
0.0
  0
LINE
  5
3EB
330
1F
100
AcDbEntity
  8
26
  6
Continuous
 62
     7
370
     9
100
AcDbLine
 10
391.4448111254528
 20
257.0978328032499
 30
0.0
 11
391.9819081309788
 21
257.0978328032499
 31
0.0
  0
LINE
  5
3EC
330
1F
100
AcDbEntity
  8
26
  6
Continuous
 62
     7
370
     9
100
AcDbLine
 10
391.2136698574658
 20
258.8020964032499
 30
0.0
 11
390.4127789131941
 21
258.8020964032499
 31
0.0
  0
LINE
  5
3ED
330
1F
100
AcDbEntity
  8
26
  6
Continuous
 62
     7
370
     9
100
AcDbLine
 10
389.102523228535
 20
257.0978328032499
 30
0.0
 11
389.6395085886578
 21
257.0978328032499
 31
0.0
  0
LINE
  5
3EE
330
1F
100
AcDbEntity
  8
26
  6
Continuous
 62
     7
370
     9
100
AcDbLine
 10
389.1292285828427
 20
258.8020964032499
 30
0.0
 11
388.2615832178662
 21
258.8020964032499
 31
0.0
  0
LINE
  5
3EF
330
1F
100
AcDbEntity
  8
26
  6
Continuous
 62
     7
370
     9
100
AcDbLine
 10
387.6234234544196
 20
257.0978328032499
 30
0.0
 11
388.4910688193962
 21
257.0978328032499
 31
0.0
  0
LINE
  5
3F0
330
1F
100
AcDbEntity
  8
26
  6
Continuous
 62
     7
370
     9
100
AcDbLine
 10
387.9301223531724
 20
258.8020964032499
 30
0.0
 11
386.9167931450004
 21
258.8020964032499
 31
0.0
  0
LINE
  5
3F1
330
1F
100
AcDbEntity
  8
26
  6
Continuous
 62
     7
370
     9
100
AcDbLine
 10
386.6634608429574
 20
258.8020964032499
 30
0.0
 11
386.534550554907
 21
258.8020964032499
 31
0.0
  0
LINE
  5
3F2
330
1F
100
AcDbEntity
  8
26
  6
Continuous
 62
     7
370
     9
100
AcDbLine
 10
385.7014431977251
 20
257.0978328032499
 30
0.0
 11
386.2385402032511
 21
257.0978328032499
 31
0.0
  0
LINE
  5
3F3
330
1F
100
AcDbEntity
  8
26
  6
Continuous
 62
     7
370
     9
100
AcDbLine
 10
384.8357999767979
 20
258.8020964032499
 30
0.0
 11
384.4108793370915
 21
257.0978328032499
 31
0.0
  0
LINE
  5
3F4
330
1F
100
AcDbEntity
  8
26
  6
Continuous
 62
     7
370
     9
100
AcDbLine
 10
386.534550554907
 20
258.8020964032501
 30
0.0
 11
385.2963305705754
 21
257.09783280325
 31
0.0
  0
LINE
  5
3F5
330
1F
100
AcDbEntity
  8
26
  6
Continuous
 62
     7
370
     9
100
AcDbLine
 10
386.6634608429574
 20
258.8020964032499
 30
0.0
 11
386.2385402032511
 21
257.0978328032499
 31
0.0
  0
LINE
  5
3F6
330
1F
100
AcDbEntity
  8
26
  6
Continuous
 62
     7
370
     9
100
AcDbLine
 10
387.4234577490864
 20
258.8020964032499
 30
0.0
 11
386.9985371093801
 21
257.0978328032499
 31
0.0
  0
LINE
  5
3F7
330
1F
100
AcDbEntity
  8
26
  6
Continuous
 62
     7
370
     9
100
AcDbLine
 10
388.1645536452386
 20
258.7262885928098
 30
0.0
 11
388.0317932976589
 21
258.1938159220077
 31
0.0
  0
LINE
  5
3F8
330
1F
100
AcDbEntity
  8
26
  6
Continuous
 62
     7
370
     9
100
AcDbLine
 10
388.6645028312834
 20
257.8216600198164
 30
0.0
 11
388.0881492059789
 21
258.0782691866835
 31
0.0
  0
LINE
  5
3F9
330
1F
100
AcDbEntity
  8
26
  6
Continuous
 62
     7
370
     9
100
AcDbLine
 10
388.7208587396035
 20
257.7061132844921
 30
0.0
 11
388.5880983920238
 21
257.1736406136899
 31
0.0
  0
LINE
  5
3FA
330
1F
100
AcDbEntity
  8
26
  6
Continuous
 62
     7
370
     9
100
AcDbLine
 10
389.399449705022
 20
258.8020964032499
 30
0.0
 11
389.0054936559073
 21
257.2220249928099
 31
0.0
  0
LINE
  5
3FB
330
1F
100
AcDbEntity
  8
26
  6
Continuous
 62
     7
370
     9
100
AcDbLine
 10
390.1425577910148
 20
258.8020964032499
 30
0.0
 11
389.7365381612854
 21
257.1736406136899
 31
0.0
  0
LINE
  5
3FC
330
1F
100
AcDbEntity
  8
26
  6
Continuous
 62
     7
370
     9
100
AcDbLine
 10
391.3106994300934
 20
258.67790421369
 30
0.0
 11
391.1521904861907
 21
258.04215956369
 31
0.0
  0
LINE
  5
3FD
330
1F
100
AcDbEntity
  8
26
  6
Continuous
 62
     7
370
     9
100
AcDbLine
 10
391.0551609135631
 20
257.9663517532499
 30
0.0
 11
390.2044043687227
 21
257.9663517532499
 31
0.0
  0
LINE
  5
3FE
330
1F
100
AcDbEntity
  8
26
  6
Continuous
 62
     7
370
     9
100
AcDbLine
 10
390.951475660382
 20
257.9663517532499
 30
0.0
 11
391.0122084216681
 21
257.0978328032499
 31
0.0
  0
LINE
  5
3FF
330
1F
100
AcDbEntity
  8
26
  6
Continuous
 62
     7
370
     9
100
AcDbLine
 10
392.2779184826346
 20
258.8020964032499
 30
0.0
 11
391.0396984983031
 21
257.0978328032499
 31
0.0
  0
LINE
  5
400
330
1F
100
AcDbEntity
  8
26
  6
Continuous
 62
     7
370
     9
100
AcDbLine
 10
392.4068287706851
 20
258.8020964032499
 30
0.0
 11
391.9819081309788
 21
257.0978328032499
 31
0.0
  0
ARC
  5
401
330
1F
100
AcDbEntity
  8
26
  6
Continuous
 62
     7
370
     9
100
AcDbCircle
 10
391.2136698574658
 20
258.7020964032499
 30
0.0
 40
0.1000000000000227
100
AcDbArc
 50
345.9999999999914
 51
89.99999999999991
  0
ARC
  5
402
330
1F
100
AcDbEntity
  8
26
  6
Continuous
 62
     7
370
     9
100
AcDbCircle
 10
391.0551609135631
 20
258.0663517532499
 30
0.0
 40
0.1000000000000227
100
AcDbArc
 50
269.9999999999998
 51
345.9999999999914
  0
ARC
  5
403
330
1F
100
AcDbEntity
  8
26
  6
Continuous
 62
     7
370
     9
100
AcDbCircle
 10
389.102523228535
 20
257.1978328032499
 30
0.0
 40
0.1000000000000227
100
AcDbArc
 50
165.9999999999917
 51
269.9999999999998
  0
ARC
  5
404
330
1F
100
AcDbEntity
  8
26
  6
Continuous
 62
     7
370
     9
100
AcDbCircle
 10
389.6395085886578
 20
257.1978328032499
 30
0.0
 40
0.1000000000000227
100
AcDbArc
 50
269.9999999999998
 51
345.9999999999914
  0
ARC
  5
405
330
1F
100
AcDbEntity
  8
26
  6
Continuous
 62
     7
370
     9
100
AcDbCircle
 10
388.2615832178662
 20
258.7020964032499
 30
0.0
 40
0.1000000000000227
100
AcDbArc
 50
89.99999999999991
 51
165.9999999999917
  0
ARC
  5
406
330
1F
100
AcDbEntity
  8
26
  6
Continuous
 62
     7
370
     9
100
AcDbCircle
 10
388.1288228702865
 20
258.1696237324477
 30
0.0
 40
0.1000000000000227
100
AcDbArc
 50
165.9999999999917
 51
246.000000000002
  0
ARC
  5
407
330
1F
100
AcDbEntity
  8
26
  6
Continuous
 62
     7
370
     9
100
AcDbCircle
 10
388.6238291669759
 20
257.7303054740521
 30
0.0
 40
0.1000000000000227
100
AcDbArc
 50
345.9999999999914
 51
66.00000000000237
  0
ARC
  5
408
330
1F
100
AcDbEntity
  8
26
  6
Continuous
 62
     7
370
     9
100
AcDbCircle
 10
388.4910688193962
 20
257.1978328032499
 30
0.0
 40
0.1000000000000227
100
AcDbArc
 50
269.9999999999998
 51
345.9999999999914
  0
LINE
  5
409
330
1F
100
AcDbEntity
  8
26
  6
Continuous
 62
     7
370
     9
100
AcDbLine
 10
342.7896030706851
 20
259.5405669704523
 30
0.0
 11
343.5446830747068
 21
258.8606898810628
 31
0.0
  0
LINE
  5
40A
330
1F
100
AcDbEntity
  8
26
  6
Continuous
 62
     7
370
     9
100
AcDbLine
 10
343.5446830747068
 20
258.8606898810628
 30
0.0
 11
344.4938666706851
 21
259.1690983267373
 31
0.0
  0
LINE
  5
40B
330
1F
100
AcDbEntity
  8
26
  6
Continuous
 62
     7
370
     9
100
AcDbLine
 10
343.6253477206851
 20
264.2824463012875
 30
0.0
 11
344.4938666706851
 21
264.0659002060526
 31
0.0
  0
LINE
  5
40C
330
1F
100
AcDbEntity
  8
26
  6
Continuous
 62
     7
370
     9
100
AcDbLine
 10
342.7896030706851
 20
266.48487070325
 30
0.0
 11
342.7896030706851
 21
266.3559604151994
 31
0.0
  0
LINE
  5
40D
330
1F
100
AcDbEntity
  8
26
  6
Continuous
 62
     7
370
     9
100
AcDbLine
 10
344.4938666706851
 20
265.5228530580176
 30
0.0
 11
344.4938666706851
 21
266.0599500635436
 31
0.0
  0
LINE
  5
40E
330
1F
100
AcDbEntity
  8
26
  6
Continuous
 62
     7
370
     9
100
AcDbLine
 10
342.7896030706851
 20
265.2917117900306
 30
0.0
 11
342.7896030706851
 21
264.4908208457589
 31
0.0
  0
LINE
  5
40F
330
1F
100
AcDbEntity
  8
26
  6
Continuous
 62
     7
370
     9
100
AcDbLine
 10
344.4938666706851
 20
263.1805651610998
 30
0.0
 11
344.4938666706851
 21
263.7175505212227
 31
0.0
  0
LINE
  5
410
330
1F
100
AcDbEntity
  8
26
  6
Continuous
 62
     7
370
     9
100
AcDbLine
 10
342.7896030706851
 20
263.2072705154076
 30
0.0
 11
342.7896030706851
 21
262.339625150431
 31
0.0
  0
LINE
  5
411
330
1F
100
AcDbEntity
  8
26
  6
Continuous
 62
     7
370
     9
100
AcDbLine
 10
344.4938666706851
 20
261.7014653869844
 30
0.0
 11
344.4938666706851
 21
262.569110751961
 31
0.0
  0
LINE
  5
412
330
1F
100
AcDbEntity
  8
26
  6
Continuous
 62
     7
370
     9
100
AcDbLine
 10
342.7896030706851
 20
262.0081642857373
 30
0.0
 11
342.7896030706851
 21
260.9948350775653
 31
0.0
  0
LINE
  5
413
330
1F
100
AcDbEntity
  8
26
  6
Continuous
 62
     7
370
     9
100
AcDbLine
 10
342.7896030706851
 20
260.7415027755223
 30
0.0
 11
342.7896030706851
 21
260.6125924874718
 31
0.0
  0
LINE
  5
414
330
1F
100
AcDbEntity
  8
26
  6
Continuous
 62
     7
370
     9
100
AcDbLine
 10
344.4938666706851
 20
259.7794851302899
 30
0.0
 11
344.4938666706851
 21
260.3165821358159
 31
0.0
  0
LINE
  5
415
330
1F
100
AcDbEntity
  8
26
  6
Continuous
 62
     7
370
     9
100
AcDbLine
 10
342.7896030706851
 20
258.9138419093627
 30
0.0
 11
344.4938666706851
 21
258.4889212696564
 31
0.0
  0
LINE
  5
416
330
1F
100
AcDbEntity
  8
26
  6
Continuous
 62
     7
370
     9
100
AcDbLine
 10
342.789603070685
 20
260.6125924874718
 30
0.0
 11
344.493866670685
 21
259.3743725031402
 31
0.0
  0
LINE
  5
417
330
1F
100
AcDbEntity
  8
26
  6
Continuous
 62
     7
370
     9
100
AcDbLine
 10
342.7896030706851
 20
260.7415027755223
 30
0.0
 11
344.4938666706851
 21
260.3165821358159
 31
0.0
  0
LINE
  5
418
330
1F
100
AcDbEntity
  8
26
  6
Continuous
 62
     7
370
     9
100
AcDbLine
 10
342.7896030706851
 20
261.5014996816512
 30
0.0
 11
344.4938666706851
 21
261.0765790419449
 31
0.0
  0
LINE
  5
419
330
1F
100
AcDbEntity
  8
26
  6
Continuous
 62
     7
370
     9
100
AcDbLine
 10
342.8654108811251
 20
262.2425955778034
 30
0.0
 11
343.3978835519273
 21
262.1098352302237
 31
0.0
  0
LINE
  5
41A
330
1F
100
AcDbEntity
  8
26
  6
Continuous
 62
     7
370
     9
100
AcDbLine
 10
343.7700394541187
 20
262.7425447638482
 30
0.0
 11
343.5134302872516
 21
262.1661911385437
 31
0.0
  0
LINE
  5
41B
330
1F
100
AcDbEntity
  8
26
  6
Continuous
 62
     7
370
     9
100
AcDbLine
 10
343.8855861894429
 20
262.7989006721683
 30
0.0
 11
344.4180588602451
 21
262.6661403245886
 31
0.0
  0
LINE
  5
41C
330
1F
100
AcDbEntity
  8
26
  6
Continuous
 62
     7
370
     9
100
AcDbLine
 10
342.7896030706851
 20
263.4774916375868
 30
0.0
 11
344.3696744811251
 21
263.0835355884721
 31
0.0
  0
LINE
  5
41D
330
1F
100
AcDbEntity
  8
26
  6
Continuous
 62
     7
370
     9
100
AcDbLine
 10
342.7896030706851
 20
264.2205997235797
 30
0.0
 11
344.4180588602451
 21
263.8145800938503
 31
0.0
  0
LINE
  5
41E
330
1F
100
AcDbEntity
  8
26
  6
Continuous
 62
     7
370
     9
100
AcDbLine
 10
342.9137952602451
 20
265.3887413626583
 30
0.0
 11
343.5495399102451
 21
265.2302324187555
 31
0.0
  0
LINE
  5
41F
330
1F
100
AcDbEntity
  8
26
  6
Continuous
 62
     7
370
     9
100
AcDbLine
 10
343.6253477206851
 20
265.1332028461279
 30
0.0
 11
343.6253477206851
 21
264.2824463012875
 31
0.0
  0
LINE
  5
420
330
1F
100
AcDbEntity
  8
26
  6
Continuous
 62
     7
370
     9
100
AcDbLine
 10
343.6253477206851
 20
265.0295175929468
 30
0.0
 11
344.4938666706851
 21
265.0902503542329
 31
0.0
  0
LINE
  5
421
330
1F
100
AcDbEntity
  8
26
  6
Continuous
 62
     7
370
     9
100
AcDbLine
 10
342.7896030706851
 20
266.3559604151994
 30
0.0
 11
344.4938666706851
 21
265.1177404308679
 31
0.0
  0
LINE
  5
422
330
1F
100
AcDbEntity
  8
26
  6
Continuous
 62
     7
370
     9
100
AcDbLine
 10
342.7896030706851
 20
266.48487070325
 30
0.0
 11
344.4938666706851
 21
266.0599500635436
 31
0.0
  0
ARC
  5
423
330
1F
100
AcDbEntity
  8
26
  6
Continuous
 62
     7
370
     9
100
AcDbCircle
 10
342.8896030706851
 20
265.2917117900306
 30
0.0
 40
0.1000000000000227
100
AcDbArc
 50
75.9999999999917
 51
179.9999999999998
  0
ARC
  5
424
330
1F
100
AcDbEntity
  8
26
  6
Continuous
 62
     7
370
     9
100
AcDbCircle
 10
343.5253477206851
 20
265.1332028461279
 30
0.0
 40
0.1000000000000227
100
AcDbArc
 50
0.0
 51
75.9999999999917
  0
ARC
  5
425
330
1F
100
AcDbEntity
  8
26
  6
Continuous
 62
     7
370
     9
100
AcDbCircle
 10
344.3938666706851
 20
263.1805651610998
 30
0.0
 40
0.1000000000000227
100
AcDbArc
 50
255.9999999999913
 51
0.0
  0
ARC
  5
426
330
1F
100
AcDbEntity
  8
26
  6
Continuous
 62
     7
370
     9
100
AcDbCircle
 10
344.3938666706851
 20
263.7175505212227
 30
0.0
 40
0.1000000000000227
100
AcDbArc
 50
0.0
 51
75.9999999999917
  0
ARC
  5
427
330
1F
100
AcDbEntity
  8
26
  6
Continuous
 62
     7
370
     9
100
AcDbCircle
 10
342.8896030706851
 20
262.339625150431
 30
0.0
 40
0.1000000000000227
100
AcDbArc
 50
179.9999999999998
 51
255.9999999999913
  0
ARC
  5
428
330
1F
100
AcDbEntity
  8
26
  6
Continuous
 62
     7
370
     9
100
AcDbCircle
 10
343.4220757414873
 20
262.2068648028513
 30
0.0
 40
0.1000000000000227
100
AcDbArc
 50
255.9999999999913
 51
336.000000000002
  0
ARC
  5
429
330
1F
100
AcDbEntity
  8
26
  6
Continuous
 62
     7
370
     9
100
AcDbCircle
 10
343.8613939998829
 20
262.7018710995407
 30
0.0
 40
0.1000000000000227
100
AcDbArc
 50
75.9999999999917
 51
156.0000000000024
  0
ARC
  5
42A
330
1F
100
AcDbEntity
  8
26
  6
Continuous
 62
     7
370
     9
100
AcDbCircle
 10
344.3938666706851
 20
262.569110751961
 30
0.0
 40
0.1000000000000227
100
AcDbArc
 50
0.0
 51
75.9999999999917
  0
TEXT
  5
42B
330
1F
100
AcDbEntity
  8
5
  6
Continuous
 62
     3
370
     9
100
AcDbText
 10
359.5444485655204
 20
305.9997068163603
 30
0.0
 40
2.5
  1
φ60
 41
0.8203125
100
AcDbText
  0
TEXT
  5
42C
330
1F
100
AcDbEntity
  8
5
  6
Continuous
 62
     3
370
     9
100
AcDbText
 10
402.0707289349091
 20
291.03487070325
 30
0.0
 40
2.5
  1
13
 50
89.99999999999991
 41
1.09375
100
AcDbText
  0
TEXT
  5
42D
330
1F
100
AcDbEntity
  8
5
  6
Continuous
 62
     3
370
     9
100
AcDbText
 10
434.77086910995
 20
246.9098707032499
 30
0.0
 40
2.5
  1
15.8
 50
89.99999999999991
 41
1.09375
100
AcDbText
  0
TEXT
  5
42E
330
1F
100
AcDbEntity
  8
5
  6
Continuous
 62
     3
370
     9
100
AcDbText
 10
434.77086910995
 20
277.33487070325
 30
0.0
 40
2.5
  1
41
 50
89.99999999999991
 41
1.09375
100
AcDbText
  0
TEXT
  5
42F
330
1F
100
AcDbEntity
  8
5
  6
Continuous
 62
     3
370
     9
100
AcDbText
 10
440.7708691099499
 20
267.4098707032499
 30
0.0
 40
2.5
  1
56.8
 50
89.99999999999991
 41
1.09375
100
AcDbText
  0
TEXT
  5
430
330
1F
100
AcDbEntity
  8
5
  6
Continuous
 62
     3
370
     9
100
AcDbText
 10
330.8318287706851
 20
227.6077969921117
 30
0.0
 40
2.5
  1
57.8
 41
1.09375
100
AcDbText
  0
TEXT
  5
431
330
1F
100
AcDbEntity
  8
5
  6
Continuous
 62
     3
370
     9
100
AcDbText
 10
358.5818287706855
 20
219.6077969921117
 30
0.0
 40
2.5
  1
115.3
 41
1.09375
100
AcDbText
  0
TEXT
  5
432
330
1F
100
AcDbEntity
  8
5
  6
Continuous
 62
     3
370
     9
100
AcDbText
 10
333.8568287706851
 20
236.1077969921117
 30
0.0
 40
2.5
  1
51.8
 41
1.09375
100
AcDbText
  0
TEXT
  5
433
330
1F
100
AcDbEntity
  8
5
  6
Continuous
 62
     3
370
     9
100
AcDbText
 10
388.5068287706855
 20
227.6077969921117
 30
0.0
 40
2.5
  1
57.5
 41
1.09375
100
AcDbText
  0
TEXT
  5
434
330
1F
100
AcDbEntity
  8
5
  6
Continuous
 62
     3
370
     9
100
AcDbText
 10
428.2708954789163
 20
249.7348707032499
 30
0.0
 40
2.5
  1
Ｆ27×（φ30）
 50
89.99999999999991
 41
0.703125
100
AcDbText
  0
LINE
  5
435
330
1F
100
AcDbEntity
  8
5
  6
Continuous
 62
     3
370
     9
100
AcDbLine
 10
384.7568287706851
 20
242.9848707032499
 30
0.0
 11
444.3660720642037
 21
242.9848707032499
 31
0.0
  0
LINE
  5
436
330
1F
100
AcDbEntity
  8
7
  6
DASHDOT
 62
     4
370
     9
100
AcDbLine
 10
260.6704326390721
 20
201.8893209532362
 30
0.0
 11
260.670432639072
 21
115.6991017263397
 31
0.0
  0
LINE
  5
437
330
1F
100
AcDbEntity
  8
7
  6
DASHDOT
 62
     4
370
     9
100
AcDbLine
 10
219.1929093833001
 20
133.772602380794
 30
0.0
 11
279.2426411169155
 21
133.772602380794
 31
0.0
  0
LINE
  5
438
330
1F
100
AcDbEntity
  8
26
  6
Continuous
 62
     7
370
     9
100
AcDbLine
 10
274.6704326390721
 20
168.272602380794
 30
0.0
 11
260.6704326390721
 21
168.272602380794
 31
0.0
  0
LINE
  5
439
330
1F
100
AcDbEntity
  8
26
  6
Continuous
 62
     7
370
     9
100
AcDbLine
 10
246.9204326390721
 20
168.272602380794
 30
0.0
 11
238.6704326390722
 21
168.2726023807941
 31
0.0
  0
LINE
  5
43A
330
1F
100
AcDbEntity
  8
26
  6
Continuous
 62
     7
370
     9
100
AcDbLine
 10
274.6704326390721
 20
168.272602380794
 30
0.0
 11
274.4204326390721
 21
168.272602380794
 31
0.0
  0
ARC
  5
43B
330
1F
100
AcDbEntity
  8
26
  6
Continuous
 62
     7
370
     9
100
AcDbCircle
 10
238.170432639072
 20
148.272602380794
 30
0.0
 40
0.5
100
AcDbArc
 50
89.99999999999991
 51
179.9999999999998
  0
LINE
  5
43C
330
1F
100
AcDbEntity
  8
26
  6
Continuous
 62
     7
370
     9
100
AcDbLine
 10
238.170432639072
 20
148.7726023807941
 30
0.0
 11
246.7406080776686
 21
148.7726023807939
 31
0.0
  0
ARC
  5
43D
330
1F
100
AcDbEntity
  8
26
  6
Continuous
 62
     7
370
     9
100
AcDbCircle
 10
238.170432639072
 20
119.2726023807939
 30
0.0
 40
0.5
100
AcDbArc
 50
179.9999999999998
 51
269.9999999999998
  0
LINE
  5
43E
330
1F
100
AcDbEntity
  8
26
  6
Continuous
 62
     7
370
     9
100
AcDbLine
 10
238.170432639072
 20
118.772602380794
 30
0.0
 11
266.670432639072
 21
118.772602380794
 31
0.0
  0
LINE
  5
43F
330
1F
100
AcDbEntity
  8
26
  6
Continuous
 62
     7
370
     9
100
AcDbLine
 10
255.8871342942965
 20
120.272602380794
 30
0.0
 11
268.670432639072
 21
120.272602380794
 31
0.0
  0
LINE
  5
440
330
1F
100
AcDbEntity
  8
26
  6
Continuous
 62
     7
370
     9
100
AcDbLine
 10
246.6704326390721
 20
168.272602380794
 30
0.0
 11
246.6704326390721
 21
149.2726023807938
 31
0.0
  0
LINE
  5
441
330
1F
100
AcDbEntity
  8
26
  6
Continuous
 62
     7
370
     9
100
AcDbLine
 10
274.6704326390721
 20
168.272602380794
 30
0.0
 11
274.670432639072
 21
126.272602380794
 31
0.0
  0
LINE
  5
442
330
1F
100
AcDbEntity
  8
26
  6
Continuous
 62
     7
370
     9
100
AcDbLine
 10
237.670432639072
 20
148.7726023807939
 30
0.0
 11
237.670432639072
 21
118.772602380794
 31
0.0
  0
LINE
  5
443
330
1F
100
AcDbEntity
  8
26
  6
Continuous
 62
     7
370
     9
100
AcDbLine
 10
237.670432639072
 20
148.272602380794
 30
0.0
 11
237.670432639072
 21
119.2726023807939
 31
0.0
  0
ARC
  5
444
330
1F
100
AcDbEntity
  8
26
  6
Continuous
 62
     7
370
     9
100
AcDbCircle
 10
268.670432639072
 20
126.272602380794
 30
0.0
 40
6.0
100
AcDbArc
 50
269.9999999999998
 51
0.0
  0
LINE
  5
445
330
1F
100
AcDbEntity
  8
26
  6
Continuous
 62
     7
370
     9
100
AcDbLine
 10
220.5364580428565
 20
147.272602380794
 30
0.0
 11
220.5364580428565
 21
146.184978207247
 31
0.0
  0
LINE
  5
446
330
1F
100
AcDbEntity
  8
26
  6
Continuous
 62
     7
370
     9
100
AcDbLine
 10
235.670432639072
 20
148.772602380794
 30
0.0
 11
235.670432639072
 21
147.272602380794
 31
0.0
  0
LINE
  5
447
330
1F
100
AcDbEntity
  8
26
  6
Continuous
 62
     7
370
     9
100
AcDbLine
 10
219.670432639072
 20
147.272602380794
 30
0.0
 11
235.670432639072
 21
147.272602380794
 31
0.0
  0
LINE
  5
448
330
1F
100
AcDbEntity
  8
26
  6
Continuous
 62
     7
370
     9
100
AcDbLine
 10
220.5364580428565
 20
146.184978207247
 30
0.0
 11
235.670432639072
 21
146.184978207247
 31
0.0
  0
LINE
  5
449
330
1F
100
AcDbEntity
  8
26
  6
Continuous
 62
     7
370
     9
100
AcDbLine
 10
220.5364580428564
 20
121.3602265543409
 30
0.0
 11
220.5364580428564
 21
120.272602380794
 31
0.0
  0
LINE
  5
44A
330
1F
100
AcDbEntity
  8
26
  6
Continuous
 62
     7
370
     9
100
AcDbLine
 10
235.670432639072
 20
120.272602380794
 30
0.0
 11
235.670432639072
 21
118.772602380794
 31
0.0
  0
LINE
  5
44B
330
1F
100
AcDbEntity
  8
26
  6
Continuous
 62
     7
370
     9
100
AcDbLine
 10
219.670432639072
 20
147.272602380794
 30
0.0
 11
219.670432639072
 21
120.272602380794
 31
0.0
  0
ARC
  5
44C
330
1F
100
AcDbEntity
  8
26
  6
Continuous
 62
     7
370
     9
100
AcDbCircle
 10
238.6147383468565
 20
140.522602380794
 30
0.0
 40
18.94430570778454
100
AcDbArc
 50
162.6086979539724
 51
197.3913020460269
  0
LINE
  5
44D
330
1F
100
AcDbEntity
  8
26
  6
Continuous
 62
     7
370
     9
100
AcDbLine
 10
235.670432639072
 20
148.772602380794
 30
0.0
 11
237.670432639072
 21
148.7726023807939
 31
0.0
  0
LINE
  5
44E
330
1F
100
AcDbEntity
  8
26
  6
Continuous
 62
     7
370
     9
100
AcDbLine
 10
235.670432639072
 20
146.184978207247
 30
0.0
 11
235.670432639072
 21
134.8602265543409
 31
0.0
  0
ARC
  5
44F
330
1F
100
AcDbEntity
  8
26
  6
Continuous
 62
     7
370
     9
100
AcDbCircle
 10
238.6147383468563
 20
127.022602380794
 30
0.0
 40
18.94430570778439
100
AcDbArc
 50
162.6086979539724
 51
197.3913020460269
  0
LINE
  5
450
330
1F
100
AcDbEntity
  8
26
  6
Continuous
 62
     7
370
     9
100
AcDbLine
 10
219.670432639072
 20
120.272602380794
 30
0.0
 11
235.670432639072
 21
120.272602380794
 31
0.0
  0
LINE
  5
451
330
1F
100
AcDbEntity
  8
26
  6
Continuous
 62
     7
370
     9
100
AcDbLine
 10
220.5364580428564
 20
121.3602265543409
 30
0.0
 11
235.670432639072
 21
121.3602265543409
 31
0.0
  0
LINE
  5
452
330
1F
100
AcDbEntity
  8
26
  6
Continuous
 62
     7
370
     9
100
AcDbLine
 10
235.670432639072
 20
118.772602380794
 30
0.0
 11
237.670432639072
 21
118.772602380794
 31
0.0
  0
LINE
  5
453
330
1F
100
AcDbEntity
  8
26
  6
Continuous
 62
     7
370
     9
100
AcDbLine
 10
235.670432639072
 20
132.684978207247
 30
0.0
 11
235.670432639072
 21
121.3602265543409
 31
0.0
  0
LINE
  5
454
330
1F
100
AcDbEntity
  8
26
  6
Continuous
 62
     7
370
     9
100
AcDbLine
 10
220.5364580428564
 20
134.8602265543409
 30
0.0
 11
235.670432639072
 21
134.8602265543409
 31
0.0
  0
LINE
  5
455
330
1F
100
AcDbEntity
  8
26
  6
Continuous
 62
     7
370
     9
100
AcDbLine
 10
220.5364580428564
 20
134.8602265543409
 30
0.0
 11
220.5364580428564
 21
132.684978207247
 31
0.0
  0
LINE
  5
456
330
1F
100
AcDbEntity
  8
26
  6
Continuous
 62
     7
370
     9
100
AcDbLine
 10
220.5364580428564
 20
132.684978207247
 30
0.0
 11
235.670432639072
 21
132.684978207247
 31
0.0
  0
LINE
  5
457
330
1F
100
AcDbEntity
  8
26
  6
Continuous
 62
     7
370
     9
100
AcDbLine
 10
274.4204326390721
 20
168.272602380794
 30
0.0
 11
274.4204326390721
 21
171.3726023807941
 31
0.0
  0
ARC
  5
458
330
1F
100
AcDbEntity
  8
26
  6
Continuous
 62
     7
370
     9
100
AcDbCircle
 10
266.670432639072
 20
120.772602380794
 30
0.0
 40
2.0
100
AcDbArc
 50
269.9999999999998
 51
322.9381658537183
  0
ARC
  5
459
330
1F
100
AcDbEntity
  8
26
  6
Continuous
 62
     7
370
     9
100
AcDbCircle
 10
269.8623748816122
 20
118.3618961107794
 30
0.0
 40
2.0
100
AcDbArc
 50
98.56856122538937
 51
142.938165853719
  0
LINE
  5
45A
330
1F
100
AcDbEntity
  8
26
  6
Continuous
 62
     7
370
     9
100
AcDbLine
 10
246.6704326390719
 20
149.2726023807938
 30
0.0
 11
250.0155458699819
 21
125.4386706105608
 31
0.0
  0
ARC
  5
45B
330
1F
100
AcDbEntity
  8
26
  6
Continuous
 62
     7
370
     9
100
AcDbCircle
 10
255.9573097328931
 20
126.272602380794
 30
0.0
 40
5.999999999999972
100
AcDbArc
 50
187.9893267663985
 51
269.9999999999994
  0
LINE
  5
45C
330
1F
100
AcDbEntity
  8
26
  6
Continuous
 62
     7
370
     9
100
AcDbLine
 10
239.0704326390721
 20
149.4037312549433
 30
0.0
 11
239.0704326390721
 21
148.772602380794
 31
0.0
  0
ARC
  5
45D
330
1F
100
AcDbEntity
  8
26
  6
Continuous
 62
     7
370
     9
100
AcDbCircle
 10
241.0704326390721
 20
149.4037312549433
 30
0.0
 40
2.0
100
AcDbArc
 50
116.3877999612438
 51
179.9999999999998
  0
LINE
  5
45E
330
1F
100
AcDbEntity
  8
26
  6
Continuous
 62
     7
370
     9
100
AcDbLine
 10
239.0704326390721
 20
148.772602380794
 30
0.0
 11
246.7406080776683
 21
148.772602380794
 31
0.0
  0
ARC
  5
45F
330
1F
100
AcDbEntity
  8
26
  6
Continuous
 62
     7
370
     9
100
AcDbCircle
 10
245.0704326390721
 20
149.4037312549433
 30
0.0
 40
2.0
100
AcDbArc
 50
36.86989764584272
 51
63.61220003875987
  0
ARC
  5
460
330
1F
100
AcDbEntity
  8
26
  6
Continuous
 62
     7
370
     9
100
AcDbCircle
 10
243.0704326390721
 20
145.372602380794
 30
0.0
 40
6.5
100
AcDbArc
 50
63.61220003875985
 51
116.3877999612437
  0
LINE
  5
461
330
1F
100
AcDbEntity
  8
26
  6
Continuous
 62
     7
370
     9
100
AcDbLine
 10
260.6704326390721
 20
171.3726023807941
 30
0.0
 11
276.520432639072
 21
171.3726023807941
 31
0.0
  0
LINE
  5
462
330
1F
100
AcDbEntity
  8
26
  6
Continuous
 62
     7
370
     9
100
AcDbLine
 10
276.520432639072
 20
185.8726023807941
 30
0.0
 11
276.520432639072
 21
171.3726023807941
 31
0.0
  0
LINE
  5
463
330
1F
100
AcDbEntity
  8
26
  6
Continuous
 62
     7
370
     9
100
AcDbLine
 10
260.6704326390721
 20
200.5726023807941
 30
0.0
 11
272.1498701133619
 21
200.5726023807941
 31
0.0
  0
ARC
  5
464
330
1F
100
AcDbEntity
  8
26
  6
Continuous
 62
     7
370
     9
100
AcDbCircle
 10
191.9736008801873
 20
177.1071452030511
 30
0.0
 40
85.0
100
AcDbArc
 50
5.919036782070687
 51
14.98819155946394
  0
ARC
  5
465
330
1F
100
AcDbEntity
  8
26
  6
Continuous
 62
     7
370
     9
100
AcDbCircle
 10
272.1498701133619
 20
198.5726023807941
 30
0.0
 40
2.0
100
AcDbArc
 50
14.98819155946355
 51
89.99999999999991
  0
ARC
  5
466
330
1F
100
AcDbEntity
  8
26
  6
Continuous
 62
     7
370
     9
100
AcDbCircle
 10
249.1909951647822
 20
198.5726023807941
 30
0.0
 40
2.0
100
AcDbArc
 50
89.99999999999991
 51
165.0118084405355
  0
LINE
  5
467
330
1F
100
AcDbEntity
  8
26
  6
Continuous
 62
     7
370
     9
100
AcDbLine
 10
260.6704326390721
 20
171.3726023807941
 30
0.0
 11
244.8204326390722
 21
171.3726023807941
 31
0.0
  0
LINE
  5
468
330
1F
100
AcDbEntity
  8
26
  6
Continuous
 62
     7
370
     9
100
AcDbLine
 10
244.8204326390722
 20
185.8726023807941
 30
0.0
 11
244.8204326390722
 21
171.3726023807941
 31
0.0
  0
ARC
  5
469
330
1F
100
AcDbEntity
  8
26
  6
Continuous
 62
     7
370
     9
100
AcDbCircle
 10
329.3672643979568
 20
177.1071452030511
 30
0.0
 40
85.0
100
AcDbArc
 50
165.0118084405356
 51
174.0809632179293
  0
LINE
  5
46A
330
1F
100
AcDbEntity
  8
26
  6
Continuous
 62
     7
370
     9
100
AcDbLine
 10
260.6704326390721
 20
200.5726023807941
 30
0.0
 11
249.1909951647822
 21
200.5726023807941
 31
0.0
  0
LINE
  5
46B
330
1F
100
AcDbEntity
  8
26
  6
Continuous
 62
     7
370
     9
100
AcDbLine
 10
266.4204326390721
 20
159.272602380794
 30
0.0
 11
265.6052326390721
 21
159.272602380794
 31
0.0
  0
ARC
  5
46C
330
1F
100
AcDbEntity
  8
26
  6
Continuous
 62
     7
370
     9
100
AcDbCircle
 10
266.4204326390721
 20
158.972602380794
 30
0.0
 40
0.3000000000000114
100
AcDbArc
 50
0.0
 51
89.99999999999991
  0
LINE
  5
46D
330
1F
100
AcDbEntity
  8
26
  6
Continuous
 62
     7
370
     9
100
AcDbLine
 10
265.9204326390721
 20
146.2726023807939
 30
0.0
 11
265.9204326390721
 21
145.2726023807939
 31
0.0
  0
LINE
  5
46E
330
1F
100
AcDbEntity
  8
26
  6
Continuous
 62
     7
370
     9
100
AcDbLine
 10
265.6165850617786
 20
144.2726023807939
 30
0.0
 11
266.420432639072
 21
145.2726023807939
 31
0.0
  0
LINE
  5
46F
330
1F
100
AcDbEntity
  8
26
  6
Continuous
 62
     7
370
     9
100
AcDbLine
 10
266.7204326390721
 20
147.0226023807939
 30
0.0
 11
265.9204326390721
 21
146.2726023807939
 31
0.0
  0
LINE
  5
470
330
1F
100
AcDbEntity
  8
26
  6
Continuous
 62
     7
370
     9
100
AcDbLine
 10
266.7204326390721
 20
149.272602380794
 30
0.0
 11
265.605232639072
 21
149.272602380794
 31
0.0
  0
ARC
  5
471
330
1F
100
AcDbEntity
  8
26
  6
Continuous
 62
     7
370
     9
100
AcDbCircle
 10
265.7800444358699
 20
131.7726023807939
 30
0.0
 40
0.5
100
AcDbArc
 50
345.9637565320621
 51
89.99999999999991
  0
ARC
  5
472
330
1F
100
AcDbEntity
  8
26
  6
Continuous
 62
     7
370
     9
100
AcDbCircle
 10
264.7800444358698
 20
127.7726023807939
 30
0.0
 40
0.5
100
AcDbArc
 50
269.9999999999998
 51
345.9637565320826
  0
LINE
  5
473
330
1F
100
AcDbEntity
  8
26
  6
Continuous
 62
     7
370
     9
100
AcDbLine
 10
265.2651156859425
 20
127.6513345682758
 30
0.0
 11
266.2651156859425
 21
131.6513345682756
 31
0.0
  0
LINE
  5
474
330
1F
100
AcDbEntity
  8
26
  6
Continuous
 62
     7
370
     9
100
AcDbLine
 10
266.7204326390721
 20
158.972602380794
 30
0.0
 11
266.7204326390721
 21
147.0226023807939
 31
0.0
  0
ARC
  5
475
330
1F
100
AcDbEntity
  8
26
  6
Continuous
 62
     7
370
     9
100
AcDbCircle
 10
260.6704326390722
 20
156.2726023807941
 30
0.0
 40
8.5
100
AcDbArc
 50
315.3786786359181
 51
89.99999999999991
  0
ARC
  5
476
330
1F
100
AcDbEntity
  8
26
  6
Continuous
 62
     7
370
     9
100
AcDbCircle
 10
260.6704326390722
 20
156.2726023807941
 30
0.0
 40
10.0
100
AcDbArc
 50
307.2288418750741
 51
89.99999999999991
  0
ARC
  5
477
330
1F
100
AcDbEntity
  8
26
  6
Continuous
 62
     7
370
     9
100
AcDbCircle
 10
260.670432639072
 20
156.272602380794
 30
0.0
 40
6.050000000000011
100
AcDbArc
 50
29.72698827112528
 51
89.99999999999991
  0
LINE
  5
478
330
1F
100
AcDbEntity
  8
26
  6
Continuous
 62
     7
370
     9
100
AcDbLine
 10
265.6052326390721
 20
159.272602380794
 30
0.0
 11
265.605232639072
 21
149.272602380794
 31
0.0
  0
ARC
  5
479
330
1F
100
AcDbEntity
  8
26
  6
Continuous
 62
     7
370
     9
100
AcDbCircle
 10
260.420432639072
 20
141.2726023807939
 30
0.0
 40
6.0
100
AcDbArc
 50
329.9999999999977
 51
30.00000000000121
  0
LINE
  5
47A
330
1F
100
AcDbEntity
  8
26
  6
Continuous
 62
     7
370
     9
100
AcDbLine
 10
265.6165850617786
 20
144.2726023807939
 30
0.0
 11
260.670432639072
 21
144.2726023807939
 31
0.0
  0
LINE
  5
47B
330
1F
100
AcDbEntity
  8
26
  6
Continuous
 62
     7
370
     9
100
AcDbLine
 10
266.420432639072
 20
145.2726023807939
 30
0.0
 11
260.670432639072
 21
145.2726023807939
 31
0.0
  0
LINE
  5
47C
330
1F
100
AcDbEntity
  8
26
  6
Continuous
 62
     7
370
     9
100
AcDbLine
 10
265.9204326390721
 20
146.2726023807939
 30
0.0
 11
260.670432639072
 21
146.2726023807939
 31
0.0
  0
LINE
  5
47D
330
1F
100
AcDbEntity
  8
26
  6
Continuous
 62
     7
370
     9
100
AcDbLine
 10
266.7204326390721
 20
147.0226023807939
 30
0.0
 11
260.670432639072
 21
147.0226023807939
 31
0.0
  0
ARC
  5
47E
330
1F
100
AcDbEntity
  8
26
  6
Continuous
 62
     7
370
     9
100
AcDbCircle
 10
260.420432639072
 20
135.2726023807939
 30
0.0
 40
6.0
100
AcDbArc
 50
329.9999999999977
 51
30.00000000000121
  0
LINE
  5
47F
330
1F
100
AcDbEntity
  8
26
  6
Continuous
 62
     7
370
     9
100
AcDbLine
 10
265.7800444358699
 20
132.2726023807939
 30
0.0
 11
260.670432639072
 21
132.2726023807939
 31
0.0
  0
LINE
  5
480
330
1F
100
AcDbEntity
  8
26
  6
Continuous
 62
     7
370
     9
100
AcDbLine
 10
264.7800444358698
 20
127.2726023807939
 30
0.0
 11
260.670432639072
 21
127.2726023807939
 31
0.0
  0
ARC
  5
481
330
1F
100
AcDbEntity
  8
26
  6
Continuous
 62
     7
370
     9
100
AcDbCircle
 10
232.8127008972203
 20
184.899479778269
 30
0.0
 40
42.49999999999997
100
AcDbArc
 50
6.333130946171364
 51
19.50510723608038
  0
LINE
  5
482
330
1F
100
AcDbEntity
  8
26
  6
Continuous
 62
     7
370
     9
100
AcDbLine
 10
271.7278308323177
 20
185.8726023807941
 30
0.0
 11
260.6704326390721
 21
185.8726023807941
 31
0.0
  0
ARC
  5
483
330
1F
100
AcDbEntity
  8
26
  6
Continuous
 62
     7
370
     9
100
AcDbCircle
 10
271.7278308323177
 20
189.2185282899447
 30
0.0
 40
3.345925909150651
100
AcDbArc
 50
269.9999999999998
 51
6.333130946171366
  0
LINE
  5
484
330
1F
100
AcDbEntity
  8
26
  6
Continuous
 62
     7
370
     9
100
AcDbLine
 10
273.670432639072
 20
149.2726023807938
 30
0.0
 11
268.0804952708221
 21
149.2726023807938
 31
0.0
  0
ARC
  5
485
330
1F
100
AcDbEntity
  8
26
  6
Continuous
 62
     7
370
     9
100
AcDbCircle
 10
260.6704326390722
 20
138.7726023807942
 30
0.0
 40
17.49999999999989
100
AcDbArc
 50
42.02462757937788
 51
53.27013958533562
  0
ARC
  5
486
330
1F
100
AcDbEntity
  8
26
  6
Continuous
 62
     7
370
     9
100
AcDbCircle
 10
238.6704326390722
 20
165.7609760640648
 30
0.0
 40
0.5
100
AcDbArc
 50
179.9999999999998
 51
268.6521127197996
  0
LINE
  5
487
330
1F
100
AcDbEntity
  8
26
  6
Continuous
 62
     7
370
     9
100
AcDbLine
 10
246.6704326390721
 20
165.0726023807942
 30
0.0
 11
238.6586711885042
 21
165.2611144149252
 31
0.0
  0
ARC
  5
488
330
1F
100
AcDbEntity
  8
26
  6
Continuous
 62
     7
370
     9
100
AcDbCircle
 10
244.670432639072
 20
163.1191076477118
 30
0.0
 40
2.0
100
AcDbArc
 50
0.0
 51
88.6521127198
  0
LINE
  5
489
330
1F
100
AcDbEntity
  8
26
  6
Continuous
 62
     7
370
     9
100
AcDbLine
 10
238.1704326390722
 20
167.7726023807941
 30
0.0
 11
238.1704326390722
 21
165.7609760640648
 31
0.0
  0
ARC
  5
48A
330
1F
100
AcDbEntity
  8
26
  6
Continuous
 62
     7
370
     9
100
AcDbCircle
 10
238.6704326390722
 20
167.7726023807941
 30
0.0
 40
0.5
100
AcDbArc
 50
89.99999999999991
 51
179.9999999999998
  0
ARC
  5
48B
330
1F
100
AcDbEntity
  8
26
  6
Continuous
 62
     7
370
     9
100
AcDbCircle
 10
258.670432639072
 20
129.772602380794
 30
0.0
 40
8.0
100
AcDbArc
 50
284.4775121859292
 51
23.95053329354491
  0
LINE
  5
48C
330
1F
100
AcDbEntity
  8
26
  6
Continuous
 62
     7
370
     9
100
AcDbLine
 10
243.8704326390721
 20
170.6726023807942
 30
0.0
 11
238.2704326390721
 21
170.6726023807942
 31
0.0
  0
LINE
  5
48D
330
1F
100
AcDbEntity
  8
26
  6
Continuous
 62
     7
370
     9
100
AcDbLine
 10
238.2704326390721
 20
171.6447166006925
 30
0.0
 11
238.2704326390721
 21
170.6726023807942
 31
0.0
  0
LINE
  5
48E
330
1F
100
AcDbEntity
  8
26
  6
Continuous
 62
     7
370
     9
100
AcDbLine
 10
243.8704326390722
 20
171.6447166006925
 30
0.0
 11
243.8704326390722
 21
170.6726023807942
 31
0.0
  0
ARC
  5
48F
330
1F
100
AcDbEntity
  8
26
  6
Continuous
 62
     7
370
     9
100
AcDbCircle
 10
239.270432639072
 20
171.6447166006925
 30
0.0
 40
1.0
100
AcDbArc
 50
116.7436839504023
 51
179.9999999999998
  0
ARC
  5
490
330
1F
100
AcDbEntity
  8
26
  6
Continuous
 62
     7
370
     9
100
AcDbCircle
 10
242.8704326390722
 20
171.6447166006925
 30
0.0
 40
1.0
100
AcDbArc
 50
0.0
 51
63.25631604959768
  0
ARC
  5
491
330
1F
100
AcDbEntity
  8
26
  6
Continuous
 62
     7
370
     9
100
AcDbCircle
 10
241.0704326390722
 20
168.0726023807942
 30
0.0
 40
5.0
100
AcDbArc
 50
63.25631604959768
 51
116.7436839504023
  0
LINE
  5
492
330
1F
100
AcDbEntity
  8
26
  6
Continuous
 62
     7
370
     9
100
AcDbLine
 10
242.5704326390722
 20
164.6726023807943
 30
0.0
 11
239.5704326390722
 21
164.6726023807943
 31
0.0
  0
LINE
  5
493
330
1F
100
AcDbEntity
  8
26
  6
Continuous
 62
     7
370
     9
100
AcDbLine
 10
242.5704326390722
 20
165.1690729690295
 30
0.0
 11
242.5704326390722
 21
164.6726023807943
 31
0.0
  0
LINE
  5
494
330
1F
100
AcDbEntity
  8
26
  6
Continuous
 62
     7
370
     9
100
AcDbLine
 10
239.5704326390722
 20
165.2396612043237
 30
0.0
 11
239.5704326390722
 21
164.6726023807943
 31
0.0
  0
LINE
  5
495
330
1F
100
AcDbEntity
  8
11
  6
PHANTOM
 62
     3
370
     9
100
AcDbLine
 10
219.670432639072
 20
103.772602380794
 30
0.0
 11
219.6704326390719
 21
163.772602380794
 31
0.0
  0
ARC
  5
496
330
1F
100
AcDbEntity
  8
11
  6
PHANTOM
 62
     3
370
     9
100
AcDbCircle
 10
219.670432639072
 20
116.772602380794
 30
0.0
 40
13.0
100
AcDbArc
 50
269.9999999999994
 51
0.0
  0
ARC
  5
497
330
1F
100
AcDbEntity
  8
11
  6
PHANTOM
 62
     3
370
     9
100
AcDbCircle
 10
219.670432639072
 20
150.772602380794
 30
0.0
 40
13.0
100
AcDbArc
 50
0.0
 51
89.99999999999987
  0
LINE
  5
498
330
1F
100
AcDbEntity
  8
11
  6
PHANTOM
 62
     3
370
     9
100
AcDbLine
 10
232.670432639072
 20
116.772602380794
 30
0.0
 11
232.6704326390721
 21
150.772602380794
 31
0.0
  0
POINT
  5
499
330
1F
100
AcDbEntity
  8
26
  6
Continuous
 62
     7
370
     9
100
AcDbPoint
 10
260.6704326390722
 20
156.2726023807941
 30
0.0
  0
POINT
  5
49A
330
1F
100
AcDbEntity
  8
26
  6
Continuous
 62
     7
370
     9
100
AcDbPoint
 10
241.0704326390722
 20
173.0726023807942
 30
0.0
  0
ARC
  5
49B
330
1F
100
AcDbEntity
  8
26
  6
Continuous
 62
     7
370
     9
100
AcDbCircle
 10
258.670432639072
 20
129.772602380794
 30
0.0
 40
6.5
100
AcDbArc
 50
287.9202131393919
 51
337.3801350519582
  0
ARC
  5
49C
330
1F
100
AcDbEntity
  8
26
  6
Continuous
 62
     7
370
     9
100
AcDbCircle
 10
258.670432639072
 20
129.772602380794
 30
0.0
 40
7.0
100
AcDbArc
 50
286.6015495990189
 51
355.0446571718846
  0
LINE
  5
49D
330
1F
100
AcDbEntity
  8
26
  6
Continuous
 62
     7
370
     9
100
AcDbLine
 10
242.3204326390722
 20
165.1749553219707
 30
0.0
 11
242.3204326390722
 21
164.6726023807943
 31
0.0
  0
LINE
  5
49E
330
1F
100
AcDbEntity
  8
26
  6
Continuous
 62
     7
370
     9
100
AcDbLine
 10
239.8204326390722
 20
165.2337788513824
 30
0.0
 11
239.8204326390722
 21
164.6726023807943
 31
0.0
  0
LINE
  5
49F
330
1F
100
AcDbEntity
  8
26
  6
Continuous
 62
     7
370
     9
100
AcDbLine
 10
236.0732326390721
 20
170.6726023807943
 30
0.0
 11
236.0732326390721
 21
168.2726023807942
 31
0.0
  0
LINE
  5
4A0
330
1F
100
AcDbEntity
  8
26
  6
Continuous
 62
     7
370
     9
100
AcDbLine
 10
236.0732326390721
 20
170.6726023807943
 30
0.0
 11
244.073232639072
 21
170.6726023807943
 31
0.0
  0
LINE
  5
4A1
330
1F
100
AcDbEntity
  8
26
  6
Continuous
 62
     7
370
     9
100
AcDbLine
 10
244.073232639072
 20
170.6726023807943
 30
0.0
 11
244.073232639072
 21
168.2726023807942
 31
0.0
  0
LINE
  5
4A2
330
1F
100
AcDbEntity
  8
26
  6
Continuous
 62
     7
370
     9
100
AcDbLine
 10
236.0732326390721
 20
168.2726023807942
 30
0.0
 11
244.073232639072
 21
168.2726023807942
 31
0.0
  0
POINT
  5
4A3
330
1F
100
AcDbEntity
  8
26
  6
Continuous
 62
     7
370
     9
100
AcDbPoint
 10
260.6704326390721
 20
178.2726023807941
 30
0.0
  0
POINT
  5
4A4
330
1F
100
AcDbEntity
  8
26
  6
Continuous
 62
     7
370
     9
100
AcDbPoint
 10
260.6704326390721
 20
178.2726023807941
 30
0.0
  0
POINT
  5
4A5
330
1F
100
AcDbEntity
  8
26
  6
Continuous
 62
     7
370
     9
100
AcDbPoint
 10
260.6704326390721
 20
178.2726023807941
 30
0.0
  0
POINT
  5
4A6
330
1F
100
AcDbEntity
  8
26
  6
Continuous
 62
     7
370
     9
100
AcDbPoint
 10
260.6704326390721
 20
178.2726023807941
 30
0.0
  0
POINT
  5
4A7
330
1F
100
AcDbEntity
  8
26
  6
Continuous
 62
     7
370
     9
100
AcDbPoint
 10
260.6704326390721
 20
178.2726023807941
 30
0.0
  0
POINT
  5
4A8
330
1F
100
AcDbEntity
  8
26
  6
Continuous
 62
     7
370
     9
100
AcDbPoint
 10
260.6704326390721
 20
178.2726023807941
 30
0.0
  0
POINT
  5
4A9
330
1F
100
AcDbEntity
  8
26
  6
Continuous
 62
     7
370
     9
100
AcDbPoint
 10
260.6704326390721
 20
178.2726023807941
 30
0.0
  0
LINE
  5
4AA
330
1F
100
AcDbEntity
  8
26
  6
Continuous
 62
     7
370
     9
100
AcDbLine
 10
246.6704326390721
 20
168.272602380794
 30
0.0
 11
260.6704326390721
 21
168.272602380794
 31
0.0
  0
LINE
  5
4AB
330
1F
100
AcDbEntity
  8
26
  6
Continuous
 62
     7
370
     9
100
AcDbLine
 10
254.9204326390721
 20
159.272602380794
 30
0.0
 11
255.7356326390721
 21
159.272602380794
 31
0.0
  0
ARC
  5
4AC
330
1F
100
AcDbEntity
  8
26
  6
Continuous
 62
     7
370
     9
100
AcDbCircle
 10
254.9204326390721
 20
158.972602380794
 30
0.0
 40
0.3000000000000114
100
AcDbArc
 50
89.99999999999991
 51
179.9999999999998
  0
LINE
  5
4AD
330
1F
100
AcDbEntity
  8
26
  6
Continuous
 62
     7
370
     9
100
AcDbLine
 10
255.4204326390721
 20
146.2726023807939
 30
0.0
 11
255.4204326390721
 21
145.2726023807939
 31
0.0
  0
LINE
  5
4AE
330
1F
100
AcDbEntity
  8
26
  6
Continuous
 62
     7
370
     9
100
AcDbLine
 10
255.7242802163655
 20
144.2726023807939
 30
0.0
 11
254.9204326390721
 21
145.2726023807939
 31
0.0
  0
LINE
  5
4AF
330
1F
100
AcDbEntity
  8
26
  6
Continuous
 62
     7
370
     9
100
AcDbLine
 10
254.6204326390721
 20
147.0226023807939
 30
0.0
 11
255.4204326390721
 21
146.2726023807939
 31
0.0
  0
LINE
  5
4B0
330
1F
100
AcDbEntity
  8
26
  6
Continuous
 62
     7
370
     9
100
AcDbLine
 10
254.6204326390721
 20
149.272602380794
 30
0.0
 11
255.7356326390721
 21
149.272602380794
 31
0.0
  0
ARC
  5
4B1
330
1F
100
AcDbEntity
  8
26
  6
Continuous
 62
     7
370
     9
100
AcDbCircle
 10
255.5608208422743
 20
131.7726023807939
 30
0.0
 40
0.5000000000000284
100
AcDbArc
 50
89.99999999999991
 51
194.0362434679356
  0
ARC
  5
4B2
330
1F
100
AcDbEntity
  8
26
  6
Continuous
 62
     7
370
     9
100
AcDbCircle
 10
256.5608208422743
 20
127.7726023807939
 30
0.0
 40
0.5
100
AcDbArc
 50
194.0362434679166
 51
269.9999999999998
  0
LINE
  5
4B3
330
1F
100
AcDbEntity
  8
26
  6
Continuous
 62
     7
370
     9
100
AcDbLine
 10
256.0757495922015
 20
127.6513345682758
 30
0.0
 11
255.0757495922016
 21
131.6513345682756
 31
0.0
  0
ARC
  5
4B4
330
1F
100
AcDbEntity
  8
26
  6
Continuous
 62
     7
370
     9
100
AcDbCircle
 10
260.670432639072
 20
156.2726023807941
 30
0.0
 40
8.5
100
AcDbArc
 50
89.99999999999991
 51
224.6213213640763
  0
ARC
  5
4B5
330
1F
100
AcDbEntity
  8
26
  6
Continuous
 62
     7
370
     9
100
AcDbCircle
 10
260.670432639072
 20
156.2726023807941
 30
0.0
 40
10.0
100
AcDbArc
 50
89.99999999999991
 51
232.7711581249243
  0
ARC
  5
4B6
330
1F
100
AcDbEntity
  8
26
  6
Continuous
 62
     7
370
     9
100
AcDbCircle
 10
260.670432639072
 20
156.272602380794
 30
0.0
 40
6.050000000000011
100
AcDbArc
 50
89.99999999999991
 51
150.2730117288743
  0
LINE
  5
4B7
330
1F
100
AcDbEntity
  8
26
  6
Continuous
 62
     7
370
     9
100
AcDbLine
 10
255.7356326390721
 20
159.272602380794
 30
0.0
 11
255.7356326390721
 21
149.272602380794
 31
0.0
  0
ARC
  5
4B8
330
1F
100
AcDbEntity
  8
26
  6
Continuous
 62
     7
370
     9
100
AcDbCircle
 10
260.920432639072
 20
141.2726023807939
 30
0.0
 40
6.0
100
AcDbArc
 50
149.999999999998
 51
210.0000000000012
  0
LINE
  5
4B9
330
1F
100
AcDbEntity
  8
26
  6
Continuous
 62
     7
370
     9
100
AcDbLine
 10
255.7242802163655
 20
144.2726023807939
 30
0.0
 11
260.670432639072
 21
144.2726023807939
 31
0.0
  0
LINE
  5
4BA
330
1F
100
AcDbEntity
  8
26
  6
Continuous
 62
     7
370
     9
100
AcDbLine
 10
254.9204326390721
 20
145.2726023807939
 30
0.0
 11
260.670432639072
 21
145.2726023807939
 31
0.0
  0
LINE
  5
4BB
330
1F
100
AcDbEntity
  8
26
  6
Continuous
 62
     7
370
     9
100
AcDbLine
 10
255.4204326390721
 20
146.2726023807939
 30
0.0
 11
260.670432639072
 21
146.2726023807939
 31
0.0
  0
LINE
  5
4BC
330
1F
100
AcDbEntity
  8
26
  6
Continuous
 62
     7
370
     9
100
AcDbLine
 10
254.6204326390721
 20
147.0226023807939
 30
0.0
 11
260.670432639072
 21
147.0226023807939
 31
0.0
  0
ARC
  5
4BD
330
1F
100
AcDbEntity
  8
26
  6
Continuous
 62
     7
370
     9
100
AcDbCircle
 10
260.920432639072
 20
135.2726023807939
 30
0.0
 40
6.0
100
AcDbArc
 50
149.999999999998
 51
210.0000000000012
  0
LINE
  5
4BE
330
1F
100
AcDbEntity
  8
26
  6
Continuous
 62
     7
370
     9
100
AcDbLine
 10
255.5608208422743
 20
132.2726023807939
 30
0.0
 11
260.670432639072
 21
132.2726023807939
 31
0.0
  0
LINE
  5
4BF
330
1F
100
AcDbEntity
  8
26
  6
Continuous
 62
     7
370
     9
100
AcDbLine
 10
256.5608208422743
 20
127.2726023807939
 30
0.0
 11
260.670432639072
 21
127.2726023807939
 31
0.0
  0
ARC
  5
4C0
330
1F
100
AcDbEntity
  8
26
  6
Continuous
 62
     7
370
     9
100
AcDbCircle
 10
288.5281643809238
 20
184.899479778269
 30
0.0
 40
42.5
100
AcDbArc
 50
160.4948927639196
 51
173.6668690538286
  0
LINE
  5
4C1
330
1F
100
AcDbEntity
  8
26
  6
Continuous
 62
     7
370
     9
100
AcDbLine
 10
249.6130344458264
 20
185.8726023807941
 30
0.0
 11
260.6704326390721
 21
185.8726023807941
 31
0.0
  0
ARC
  5
4C2
330
1F
100
AcDbEntity
  8
26
  6
Continuous
 62
     7
370
     9
100
AcDbCircle
 10
249.6130344458264
 20
189.2185282899447
 30
0.0
 40
3.345925909150651
100
AcDbArc
 50
173.6668690538286
 51
269.9999999999998
  0
LINE
  5
4C3
330
1F
100
AcDbEntity
  8
26
  6
Continuous
 62
     7
370
     9
100
AcDbLine
 10
247.670432639072
 20
149.2726023807938
 30
0.0
 11
253.2603700073221
 21
149.2726023807938
 31
0.0
  0
ARC
  5
4C4
330
1F
100
AcDbEntity
  8
26
  6
Continuous
 62
     7
370
     9
100
AcDbCircle
 10
260.670432639072
 20
138.7726023807942
 30
0.0
 40
17.49999999999989
100
AcDbArc
 50
126.7298604146644
 51
137.9753724206217
  0
ARC
  5
4C5
330
1F
100
AcDbEntity
  8
26
  6
Continuous
 62
     7
370
     9
100
AcDbCircle
 10
262.670432639072
 20
129.772602380794
 30
0.0
 40
8.0
100
AcDbArc
 50
156.0494667064551
 51
255.5224878140693
  0
ARC
  5
4C6
330
1F
100
AcDbEntity
  8
26
  6
Continuous
 62
     7
370
     9
100
AcDbCircle
 10
262.670432639072
 20
129.772602380794
 30
0.0
 40
6.5
100
AcDbArc
 50
202.6198649480398
 51
252.0797868606095
  0
ARC
  5
4C7
330
1F
100
AcDbEntity
  8
26
  6
Continuous
 62
     7
370
     9
100
AcDbCircle
 10
262.670432639072
 20
129.772602380794
 30
0.0
 40
7.0
100
AcDbArc
 50
184.955342828114
 51
253.398450400976
  0
LINE
  5
4C8
330
1F
100
AcDbEntity
  8
26
  6
Continuous
 62
     7
370
     9
100
AcDbLine
 10
254.6204326390719
 20
158.9726023807941
 30
0.0
 11
254.6204326390719
 21
147.022602380794
 31
0.0
  0
LINE
  5
4C9
330
1F
100
AcDbEntity
  8
7
  6
DASHDOT
 62
     4
370
     9
100
AcDbLine
 10
277.3198454057954
 20
156.272602380794
 30
0.0
 11
247.670432639072
 21
156.2726023807941
 31
0.0
  0
LINE
  5
4CA
330
1F
100
AcDbEntity
  8
26
  6
Continuous
 62
     7
370
     9
100
AcDbLine
 10
246.9204326390721
 20
168.272602380794
 30
0.0
 11
246.9204326390721
 21
171.3726023807941
 31
0.0
  0
LINE
  5
4CB
330
1F
100
AcDbEntity
  8
5
  6
Continuous
 62
     3
370
     9
100
AcDbLine
 10
219.6704326390719
 20
120.272602380794
 30
0.0
 11
207.6100416522641
 21
120.272602380794
 31
0.0
  0
LINE
  5
4CC
330
1F
100
AcDbEntity
  8
5
  6
Continuous
 62
     3
370
     9
100
AcDbLine
 10
219.6704326390719
 20
147.2726023807939
 30
0.0
 11
207.6100416522641
 21
147.2726023807939
 31
0.0
  0
LINE
  5
4CD
330
1F
100
AcDbEntity
  8
5
  6
Continuous
 62
     3
370
     9
100
AcDbLine
 10
210.5835242824862
 20
151.7188708572619
 30
0.0
 11
198.5835242824862
 21
151.7188708572619
 31
0.0
  0
LINE
  5
4CE
330
1F
100
AcDbEntity
  8
5
  6
Continuous
 62
     3
370
     9
100
AcDbLine
 10
208.6100416522641
 20
120.272602380794
 30
0.0
 11
208.6100416522641
 21
147.2726023807939
 31
0.0
  0
INSERT
  5
4D5
330
1F
100
AcDbEntity
  8
5
100
AcDbBlockReference
  2
*G32
 10
0.0
 20
0.0
 30
0.0
  0
INSERT
  5
4DC
330
1F
100
AcDbEntity
  8
5
100
AcDbBlockReference
  2
*G33
 10
0.0
 20
0.0
 30
0.0
  0
LINE
  5
4DD
330
1F
100
AcDbEntity
  8
5
  6
Continuous
 62
     3
370
     9
100
AcDbLine
 10
219.670432639072
 20
133.7726023807939
 30
0.0
 11
210.5835242824862
 21
151.7188708572619
 31
0.0
  0
INSERT
  5
4E4
330
1F
100
AcDbEntity
  8
5
100
AcDbBlockReference
  2
*G34
 10
0.0
 20
0.0
 30
0.0
  0
TEXT
  5
4E5
330
1F
100
AcDbEntity
  8
5
  6
Continuous
 62
     3
370
     9
100
AcDbText
 10
208.1100416522641
 20
124.2726023807939
 30
0.0
 40
2.5
  1
F27×（φ30）
 50
89.99999999999991
 41
0.7572115384615379
100
AcDbText
  0
TEXT
  5
4E6
330
1F
100
AcDbEntity
  8
5
  6
Continuous
 62
     3
370
     9
100
AcDbText
 10
198.7178893488917
 20
152.5243563897756
 30
0.0
 40
3.0
  1
Ｒｃ1/2
 41
0.78125
100
AcDbText
  0
LINE
  5
4E7
330
1F
100
AcDbEntity
  8
7
  6
DASHDOT
 62
     4
370
     9
100
AcDbLine
 10
363.7568287706851
 20
165.4650892163038
 30
0.0
 11
363.7568287706851
 21
117.4210808888873
 31
0.0
  0
LINE
  5
4E8
330
1F
100
AcDbEntity
  8
7
  6
DASHDOT
 62
     4
370
     9
100
AcDbLine
 10
311.9568287706851
 20
123.5414397647438
 30
0.0
 11
311.9568287706851
 21
165.3944260838327
 31
0.0
  0
LINE
  5
4E9
330
1F
100
AcDbEntity
  8
7
  6
DASHDOT
 62
     4
370
     9
100
AcDbLine
 10
368.1494430640824
 20
156.2726023807941
 30
0.0
 11
423.0385698791009
 21
156.2726023807941
 31
0.0
  0
LINE
  5
4EA
330
1F
100
AcDbEntity
  8
7
  6
DASHDOT
 62
     4
370
     9
100
AcDbLine
 10
359.3642144772878
 20
156.2726023807941
 30
0.0
 11
303.8327641868237
 21
156.2726023807941
 31
0.0
  0
LINE
  5
4EB
330
1F
100
AcDbEntity
  8
7
  6
DASHDOT
 62
     4
370
     9
100
AcDbLine
 10
342.7568287706851
 20
203.8541705645624
 30
0.0
 11
342.7568287706851
 21
119.3393518693756
 31
0.0
  0
LINE
  5
4EC
330
1F
100
AcDbEntity
  8
7
  6
DASHDOT
 62
     4
370
     9
100
AcDbLine
 10
384.7568287706851
 20
203.8541705645624
 30
0.0
 11
384.7568287706851
 21
119.3393518693756
 31
0.0
  0
ARC
  5
4ED
330
1F
100
AcDbEntity
  8
26
  6
Continuous
 62
     7
370
     9
100
AcDbCircle
 10
414.5902734347575
 20
144.5617444241723
 30
0.0
 40
6.668066699988174
100
AcDbArc
 50
358.7800826408965
 51
1.219917359102613
  0
LINE
  5
4EE
330
1F
100
AcDbEntity
  8
26
  6
Continuous
 62
     7
370
     9
100
AcDbLine
 10
328.7568287706851
 20
168.2726023807941
 30
0.0
 11
328.7568287706851
 21
167.7726023807941
 31
0.0
  0
LINE
  5
4EF
330
1F
100
AcDbEntity
  8
26
  6
Continuous
 62
     7
370
     9
100
AcDbLine
 10
328.7568287706851
 20
168.2726023807941
 30
0.0
 11
356.7568287706852
 21
168.2726023807941
 31
0.0
  0
LINE
  5
4F0
330
1F
100
AcDbEntity
  8
26
  6
Continuous
 62
     7
370
     9
100
AcDbLine
 10
328.7568287706851
 20
168.2726023807941
 30
0.0
 11
328.7568287706851
 21
167.2726023807941
 31
0.0
  0
ARC
  5
4F1
330
1F
100
AcDbEntity
  8
26
  6
Continuous
 62
     7
370
     9
100
AcDbCircle
 10
327.7568287706852
 20
167.2726023807941
 30
0.0
 40
1.0
100
AcDbArc
 50
269.9999999999998
 51
0.0
  0
LINE
  5
4F2
330
1F
100
AcDbEntity
  8
26
  6
Continuous
 62
     7
370
     9
100
AcDbLine
 10
384.7568287706851
 20
168.272602380794
 30
0.0
 11
370.756828770685
 21
168.2726023807941
 31
0.0
  0
ARC
  5
4F3
330
1F
100
AcDbEntity
  8
26
  6
Continuous
 62
     7
370
     9
100
AcDbCircle
 10
414.5902734347575
 20
144.5617444241723
 30
0.0
 40
6.668066699988174
100
AcDbArc
 50
358.7800826408965
 51
1.219917359102613
  0
LINE
  5
4F4
330
1F
100
AcDbEntity
  8
26
  6
Continuous
 62
     7
370
     9
100
AcDbLine
 10
330.2568287706852
 20
144.272602380794
 30
0.0
 11
330.2568287706852
 21
126.7726023807941
 31
0.0
  0
LINE
  5
4F5
330
1F
100
AcDbEntity
  8
26
  6
Continuous
 62
     7
370
     9
100
AcDbLine
 10
329.7568287706852
 20
136.6888008678897
 30
0.0
 11
329.7568287706852
 21
122.8564038936984
 31
0.0
  0
LINE
  5
4F6
330
1F
100
AcDbEntity
  8
26
  6
Continuous
 62
     7
370
     9
100
AcDbLine
 10
330.2568287706852
 20
138.1512408911553
 30
0.0
 11
330.2568287706852
 21
137.772602380794
 31
0.0
  0
ARC
  5
4F7
330
1F
100
AcDbEntity
  8
26
  6
Continuous
 62
     7
370
     9
100
AcDbCircle
 10
320.2568287706851
 20
165.7726023807941
 30
0.0
 40
0.5
100
AcDbArc
 50
89.99999999999991
 51
179.9999999999998
  0
ARC
  5
4F8
330
1F
100
AcDbEntity
  8
26
  6
Continuous
 62
     7
370
     9
100
AcDbCircle
 10
320.2568287706851
 20
146.7726023807941
 30
0.0
 40
0.5
100
AcDbArc
 50
179.9999999999998
 51
269.9999999999998
  0
LINE
  5
4F9
330
1F
100
AcDbEntity
  8
26
  6
Continuous
 62
     7
370
     9
100
AcDbLine
 10
319.7568287706852
 20
165.7726023807941
 30
0.0
 11
319.7568287706852
 21
146.7726023807941
 31
0.0
  0
LINE
  5
4FA
330
1F
100
AcDbEntity
  8
26
  6
Continuous
 62
     7
370
     9
100
AcDbLine
 10
320.2568287706851
 20
146.272602380794
 30
0.0
 11
328.2568287706852
 21
146.272602380794
 31
0.0
  0
LINE
  5
4FB
330
1F
100
AcDbEntity
  8
26
  6
Continuous
 62
     7
370
     9
100
AcDbLine
 10
320.2568287706851
 20
166.2726023807941
 30
0.0
 11
327.7568287706852
 21
166.2726023807941
 31
0.0
  0
LINE
  5
4FC
330
1F
100
AcDbEntity
  8
26
  6
Continuous
 62
     7
370
     9
100
AcDbLine
 10
356.7568287706852
 20
168.2726023807941
 30
0.0
 11
356.7568287706852
 21
150.020679190066
 31
0.0
  0
LINE
  5
4FD
330
1F
100
AcDbEntity
  8
26
  6
Continuous
 62
     7
370
     9
100
AcDbLine
 10
370.756828770685
 20
168.2726023807941
 30
0.0
 11
370.756828770685
 21
150.020679190066
 31
0.0
  0
LINE
  5
4FE
330
1F
100
AcDbEntity
  8
26
  6
Continuous
 62
     7
370
     9
100
AcDbLine
 10
397.2568287706851
 20
139.272602380794
 30
0.0
 11
397.2568287706851
 21
132.2726023807941
 31
0.0
  0
LINE
  5
4FF
330
1F
100
AcDbEntity
  8
26
  6
Continuous
 62
     7
370
     9
100
AcDbLine
 10
398.506828770685
 20
168.2726023807941
 30
0.0
 11
398.756828770685
 21
168.2726023807941
 31
0.0
  0
ARC
  5
500
330
1F
100
AcDbEntity
  8
26
  6
Continuous
 62
     7
370
     9
100
AcDbCircle
 10
328.2568287706852
 20
144.272602380794
 30
0.0
 40
2.0
100
AcDbArc
 50
0.0
 51
89.99999999999991
  0
LINE
  5
501
330
1F
100
AcDbEntity
  8
26
  6
Continuous
 62
     7
370
     9
100
AcDbLine
 10
399.756828770685
 20
166.7726023807941
 30
0.0
 11
400.9284016459389
 21
166.7726023807941
 31
0.0
  0
ARC
  5
502
330
1F
100
AcDbEntity
  8
26
  6
Continuous
 62
     7
370
     9
100
AcDbCircle
 10
399.756828770685
 20
167.7726023807941
 30
0.0
 40
1.0
100
AcDbArc
 50
179.9999999999998
 51
269.9999999999998
  0
ARC
  5
503
330
1F
100
AcDbEntity
  8
26
  6
Continuous
 62
     7
370
     9
100
AcDbCircle
 10
330.2568287706852
 20
136.6888008678897
 30
0.0
 40
0.5
100
AcDbArc
 50
89.99999999999991
 51
179.9999999999998
  0
LINE
  5
504
330
1F
100
AcDbEntity
  8
26
  6
Continuous
 62
     7
370
     9
100
AcDbLine
 10
330.2568287706852
 20
122.3564038936984
 30
0.0
 11
331.711128669527
 21
122.3564038936984
 31
0.0
  0
ARC
  5
505
330
1F
100
AcDbEntity
  8
26
  6
Continuous
 62
     7
370
     9
100
AcDbCircle
 10
330.2568287706852
 20
122.8564038936984
 30
0.0
 40
0.5
100
AcDbArc
 50
179.9999999999998
 51
269.9999999999998
  0
LINE
  5
506
330
1F
100
AcDbEntity
  8
26
  6
Continuous
 62
     7
370
     9
100
AcDbLine
 10
385.2568287706851
 20
120.272602380794
 30
0.0
 11
336.2568287706852
 21
120.272602380794
 31
0.0
  0
ARC
  5
507
330
1F
100
AcDbEntity
  8
26
  6
Continuous
 62
     7
370
     9
100
AcDbCircle
 10
385.2568287706851
 20
132.2726023807941
 30
0.0
 40
12.0
100
AcDbArc
 50
269.9999999999994
 51
0.0
  0
ARC
  5
508
330
1F
100
AcDbEntity
  8
26
  6
Continuous
 62
     7
370
     9
100
AcDbCircle
 10
336.2568287706852
 20
126.2726023807941
 30
0.0
 40
6.0
100
AcDbArc
 50
220.7454619156597
 51
269.9999999999998
  0
ARC
  5
509
330
1F
100
AcDbEntity
  8
26
  6
Continuous
 62
     7
370
     9
100
AcDbCircle
 10
318.9588697995524
 20
156.2726023807941
 30
0.0
 40
14.00000000000006
100
AcDbArc
 50
319.8184836587222
 51
45.58469140280643
  0
ARC
  5
50A
330
1F
100
AcDbEntity
  8
26
  6
Continuous
 62
     7
370
     9
100
AcDbCircle
 10
326.1951553566138
 20
122.3564038936984
 30
0.0
 40
6.000000000000057
100
AcDbArc
 50
4.81355280296594
 51
47.39458234345894
  0
LINE
  5
50B
330
1F
100
AcDbEntity
  8
26
  6
Continuous
 62
     7
370
     9
100
AcDbLine
 10
370.7568287706851
 20
168.2726023807938
 30
0.0
 11
371.006828770685
 21
168.2726023807938
 31
0.0
  0
LINE
  5
50C
330
1F
100
AcDbEntity
  8
26
  6
Continuous
 62
     7
370
     9
100
AcDbLine
 10
384.7568287706851
 20
168.2726023807938
 30
0.0
 11
398.756828770685
 21
168.2726023807938
 31
0.0
  0
ARC
  5
50D
330
1F
100
AcDbEntity
  8
26
  6
Continuous
 62
     7
370
     9
100
AcDbCircle
 10
363.7568287706851
 20
133.772602380794
 30
0.0
 40
15.0
100
AcDbArc
 50
64.62306647484718
 51
115.2732505727633
  0
LINE
  5
50E
330
1F
100
AcDbEntity
  8
26
  6
Continuous
 62
     7
370
     9
100
AcDbLine
 10
306.7068287706851
 20
146.272602380794
 30
0.0
 11
306.7068287706851
 21
145.272602380794
 31
0.0
  0
LINE
  5
50F
330
1F
100
AcDbEntity
  8
26
  6
Continuous
 62
     7
370
     9
100
AcDbLine
 10
307.0106763479785
 20
144.272602380794
 30
0.0
 11
306.2068287706851
 21
145.272602380794
 31
0.0
  0
ARC
  5
510
330
1F
100
AcDbEntity
  8
26
  6
Continuous
 62
     7
370
     9
100
AcDbCircle
 10
312.2068287706851
 20
141.272602380794
 30
0.0
 40
6.0
100
AcDbArc
 50
149.9999999999993
 51
209.9999999999997
  0
LINE
  5
511
330
1F
100
AcDbEntity
  8
26
  6
Continuous
 62
     7
370
     9
100
AcDbLine
 10
307.3621457238146
 20
127.6513345682759
 30
0.0
 11
306.3621457238146
 21
131.6513345682758
 31
0.0
  0
ARC
  5
512
330
1F
100
AcDbEntity
  8
26
  6
Continuous
 62
     7
370
     9
100
AcDbCircle
 10
312.2068287706851
 20
135.2726023807941
 30
0.0
 40
6.0
100
AcDbArc
 50
149.9999999999993
 51
209.9999999999997
  0
ARC
  5
513
330
1F
100
AcDbEntity
  8
26
  6
Continuous
 62
     7
370
     9
100
AcDbCircle
 10
308.9568287706851
 20
149.772602380794
 30
0.0
 40
0.5
100
AcDbArc
 50
179.9999999999998
 51
269.9999999999998
  0
LINE
  5
514
330
1F
100
AcDbEntity
  8
26
  6
Continuous
 62
     7
370
     9
100
AcDbLine
 10
305.9068287706851
 20
147.0226023807941
 30
0.0
 11
306.7068287706851
 21
146.272602380794
 31
0.0
  0
ARC
  5
515
330
1F
100
AcDbEntity
  8
26
  6
Continuous
 62
     7
370
     9
100
AcDbCircle
 10
306.8472169738873
 20
131.772602380794
 30
0.0
 40
0.5
100
AcDbArc
 50
89.99999999999991
 51
194.0362434679372
  0
ARC
  5
516
330
1F
100
AcDbEntity
  8
26
  6
Continuous
 62
     7
370
     9
100
AcDbCircle
 10
307.8472169738873
 20
127.772602380794
 30
0.0
 40
0.5
100
AcDbArc
 50
194.0362434679166
 51
269.9999999999998
  0
LINE
  5
517
330
1F
100
AcDbEntity
  8
26
  6
Continuous
 62
     7
370
     9
100
AcDbLine
 10
316.9029811933917
 20
144.272602380794
 30
0.0
 11
317.7068287706851
 21
145.272602380794
 31
0.0
  0
LINE
  5
518
330
1F
100
AcDbEntity
  8
26
  6
Continuous
 62
     7
370
     9
100
AcDbLine
 10
316.5515118175556
 20
127.6513345682759
 30
0.0
 11
317.5515118175555
 21
131.6513345682759
 31
0.0
  0
ARC
  5
519
330
1F
100
AcDbEntity
  8
26
  6
Continuous
 62
     7
370
     9
100
AcDbCircle
 10
311.7068287706851
 20
135.2726023807941
 30
0.0
 40
6.0
100
AcDbArc
 50
329.9999999999987
 51
30.00000000000074
  0
ARC
  5
51A
330
1F
100
AcDbEntity
  8
26
  6
Continuous
 62
     7
370
     9
100
AcDbCircle
 10
311.7068287706851
 20
141.272602380794
 30
0.0
 40
6.0
100
AcDbArc
 50
329.9999999999987
 51
30.00000000000074
  0
LINE
  5
51B
330
1F
100
AcDbEntity
  8
26
  6
Continuous
 62
     7
370
     9
100
AcDbLine
 10
318.0068287706851
 20
148.4451452928328
 30
0.0
 11
318.0068287706851
 21
147.022602380794
 31
0.0
  0
LINE
  5
51C
330
1F
100
AcDbEntity
  8
26
  6
Continuous
 62
     7
370
     9
100
AcDbLine
 10
317.2068287706851
 20
146.272602380794
 30
0.0
 11
317.2068287706851
 21
145.272602380794
 31
0.0
  0
LINE
  5
51D
330
1F
100
AcDbEntity
  8
26
  6
Continuous
 62
     7
370
     9
100
AcDbLine
 10
317.206828770685
 20
146.272602380794
 30
0.0
 11
318.0068287706851
 21
147.022602380794
 31
0.0
  0
ARC
  5
51E
330
1F
100
AcDbEntity
  8
26
  6
Continuous
 62
     7
370
     9
100
AcDbCircle
 10
318.5068287706851
 20
148.4451452928328
 30
0.0
 40
0.5
100
AcDbArc
 50
31.93844891667278
 51
179.9999999999998
  0
ARC
  5
51F
330
1F
100
AcDbEntity
  8
26
  6
Continuous
 62
     7
370
     9
100
AcDbCircle
 10
317.0664405674829
 20
131.772602380794
 30
0.0
 40
0.5
100
AcDbArc
 50
345.9637565320795
 51
89.99999999999991
  0
ARC
  5
520
330
1F
100
AcDbEntity
  8
26
  6
Continuous
 62
     7
370
     9
100
AcDbCircle
 10
316.0664405674828
 20
127.772602380794
 30
0.0
 40
0.5
100
AcDbArc
 50
269.9999999999998
 51
345.9637565320858
  0
LINE
  5
521
330
1F
100
AcDbEntity
  8
26
  6
Continuous
 62
     7
370
     9
100
AcDbLine
 10
307.0908064815134
 20
160.8065205967967
 30
0.0
 11
308.7741715869199
 21
159.2380444859145
 31
0.0
  0
ARC
  5
522
330
1F
100
AcDbEntity
  8
26
  6
Continuous
 62
     7
370
     9
100
AcDbCircle
 10
314.956828770685
 20
158.772602380794
 30
0.0
 40
0.5
100
AcDbArc
 50
0.0
 51
89.99999999999991
  0
ARC
  5
523
330
1F
100
AcDbEntity
  8
26
  6
Continuous
 62
     7
370
     9
100
AcDbCircle
 10
315.2537050216861
 20
167.322602380794
 30
0.0
 40
5.0
100
AcDbArc
 50
269.9999999999998
 51
321.3178125465103
  0
LINE
  5
524
330
1F
100
AcDbEntity
  8
26
  6
Continuous
 62
     7
370
     9
100
AcDbLine
 10
307.8472169738873
 20
127.272602380794
 30
0.0
 11
316.0664405674828
 21
127.272602380794
 31
0.0
  0
LINE
  5
525
330
1F
100
AcDbEntity
  8
26
  6
Continuous
 62
     7
370
     9
100
AcDbLine
 10
306.8472169738873
 20
132.272602380794
 30
0.0
 11
317.0664405674829
 21
132.272602380794
 31
0.0
  0
LINE
  5
526
330
1F
100
AcDbEntity
  8
26
  6
Continuous
 62
     7
370
     9
100
AcDbLine
 10
305.9068287706851
 20
159.8226023807941
 30
0.0
 11
305.9068287706851
 21
147.0226023807941
 31
0.0
  0
LINE
  5
527
330
1F
100
AcDbEntity
  8
26
  6
Continuous
 62
     7
370
     9
100
AcDbLine
 10
307.0106763479785
 20
144.272602380794
 30
0.0
 11
316.9029811933917
 21
144.272602380794
 31
0.0
  0
LINE
  5
528
330
1F
100
AcDbEntity
  8
26
  6
Continuous
 62
     7
370
     9
100
AcDbLine
 10
306.2068287706851
 20
145.272602380794
 30
0.0
 11
317.7068287706851
 21
145.272602380794
 31
0.0
  0
LINE
  5
529
330
1F
100
AcDbEntity
  8
26
  6
Continuous
 62
     7
370
     9
100
AcDbLine
 10
306.7068287706851
 20
146.272602380794
 30
0.0
 11
317.206828770685
 21
146.272602380794
 31
0.0
  0
LINE
  5
52A
330
1F
100
AcDbEntity
  8
26
  6
Continuous
 62
     7
370
     9
100
AcDbLine
 10
305.9068287706852
 20
147.022602380794
 30
0.0
 11
318.0068287706851
 21
147.0226023807941
 31
0.0
  0
LINE
  5
52B
330
1F
100
AcDbEntity
  8
26
  6
Continuous
 62
     7
370
     9
100
AcDbLine
 10
307.0106763479785
 20
138.272602380794
 30
0.0
 11
316.9029811933917
 21
138.272602380794
 31
0.0
  0
LINE
  5
52C
330
1F
100
AcDbEntity
  8
26
  6
Continuous
 62
     7
370
     9
100
AcDbLine
 10
308.4568287706851
 20
158.772602380794
 30
0.0
 11
308.4568287706851
 21
149.772602380794
 31
0.0
  0
LINE
  5
52D
330
1F
100
AcDbEntity
  8
26
  6
Continuous
 62
     7
370
     9
100
AcDbLine
 10
314.956828770685
 20
149.272602380794
 30
0.0
 11
308.9568287706851
 21
149.272602380794
 31
0.0
  0
ARC
  5
52E
330
1F
100
AcDbEntity
  8
26
  6
Continuous
 62
     7
370
     9
100
AcDbCircle
 10
314.956828770685
 20
149.772602380794
 30
0.0
 40
0.5
100
AcDbArc
 50
269.9999999999998
 51
0.0
  0
LINE
  5
52F
330
1F
100
AcDbEntity
  8
26
  6
Continuous
 62
     7
370
     9
100
AcDbLine
 10
315.4568287706851
 20
152.6038687910394
 30
0.0
 11
317.4434648043964
 21
150.5214578346125
 31
0.0
  0
LINE
  5
530
330
1F
100
AcDbEntity
  8
26
  6
Continuous
 62
     7
370
     9
100
AcDbLine
 10
319.1568287706851
 20
148.3476023807941
 30
0.0
 11
318.9311372119707
 21
148.7096492562317
 31
0.0
  0
LINE
  5
531
330
1F
100
AcDbEntity
  8
26
  6
Continuous
 62
     7
370
     9
100
AcDbLine
 10
315.4568287706851
 20
158.772602380794
 30
0.0
 11
315.4568287706851
 21
149.772602380794
 31
0.0
  0
ARC
  5
532
330
1F
100
AcDbEntity
  8
26
  6
Continuous
 62
     7
370
     9
100
AcDbCircle
 10
308.9568287706851
 20
158.772602380794
 30
0.0
 40
0.5
100
AcDbArc
 50
89.99999999999991
 51
179.9999999999998
  0
ARC
  5
533
330
1F
100
AcDbEntity
  8
26
  6
Continuous
 62
     7
370
     9
100
AcDbCircle
 10
308.4068287706851
 20
159.8226023807941
 30
0.0
 40
2.5
100
AcDbArc
 50
89.99999999999991
 51
179.9999999999998
  0
LINE
  5
534
330
1F
100
AcDbEntity
  8
26
  6
Continuous
 62
     7
370
     9
100
AcDbLine
 10
314.956828770685
 20
159.272602380794
 30
0.0
 11
308.9568287706851
 21
159.272602380794
 31
0.0
  0
LINE
  5
535
330
1F
100
AcDbEntity
  8
26
  6
Continuous
 62
     7
370
     9
100
AcDbLine
 10
308.4068287706851
 20
162.322602380794
 30
0.0
 11
315.2537050216861
 21
162.322602380794
 31
0.0
  0
LINE
  5
536
330
1F
100
AcDbEntity
  8
26
  6
Continuous
 62
     7
370
     9
100
AcDbLine
 10
319.1568287706851
 20
164.197602380794
 30
0.0
 11
319.1568287706851
 21
148.3476023807941
 31
0.0
  0
LINE
  5
537
330
1F
100
AcDbEntity
  8
26
  6
Continuous
 62
     7
370
     9
100
AcDbLine
 10
319.1568287964831
 20
164.197602380794
 30
0.0
 11
319.7568287706851
 21
164.197602380794
 31
0.0
  0
LINE
  5
538
330
1F
100
AcDbEntity
  8
26
  6
Continuous
 62
     7
370
     9
100
AcDbLine
 10
319.7568287706852
 20
148.3476023807941
 30
0.0
 11
319.1568287706851
 21
148.3476023807941
 31
0.0
  0
LINE
  5
539
330
1F
100
AcDbEntity
  8
6
  6
Continuous
 62
     2
370
     9
100
AcDbLine
 10
332.7568287706851
 20
134.2726023807941
 30
0.0
 11
332.7568287706851
 21
127.2726023807941
 31
0.0
  0
ARC
  5
53A
330
1F
100
AcDbEntity
  8
6
  6
Continuous
 62
     2
370
     9
100
AcDbCircle
 10
334.2568287706851
 20
134.2726023807941
 30
0.0
 40
1.5
100
AcDbArc
 50
89.99999999999991
 51
179.9999999999998
  0
ARC
  5
53B
330
1F
100
AcDbEntity
  8
6
  6
Continuous
 62
     2
370
     9
100
AcDbCircle
 10
334.2568287706851
 20
127.2726023807941
 30
0.0
 40
1.5
100
AcDbArc
 50
179.9999999999998
 51
269.9999999999998
  0
LINE
  5
53C
330
1F
100
AcDbEntity
  8
6
  6
Continuous
 62
     2
370
     9
100
AcDbLine
 10
358.2568287706851
 20
134.2726023807941
 30
0.0
 11
358.2568287706851
 21
127.272602380794
 31
0.0
  0
ARC
  5
53D
330
1F
100
AcDbEntity
  8
6
  6
Continuous
 62
     2
370
     9
100
AcDbCircle
 10
356.7568287706851
 20
134.2726023807941
 30
0.0
 40
1.5
100
AcDbArc
 50
0.0
 51
89.99999999999991
  0
ARC
  5
53E
330
1F
100
AcDbEntity
  8
6
  6
Continuous
 62
     2
370
     9
100
AcDbCircle
 10
356.7568287706851
 20
127.272602380794
 30
0.0
 40
1.5
100
AcDbArc
 50
269.9999999999998
 51
0.0
  0
LINE
  5
53F
330
1F
100
AcDbEntity
  8
6
  6
Continuous
 62
     2
370
     9
100
AcDbLine
 10
334.2568287706851
 20
135.7726023807941
 30
0.0
 11
356.7568287706851
 21
135.7726023807941
 31
0.0
  0
LINE
  5
540
330
1F
100
AcDbEntity
  8
6
  6
Continuous
 62
     2
370
     9
100
AcDbLine
 10
334.2568287706851
 20
125.7726023807941
 30
0.0
 11
356.7568287706851
 21
125.7726023807941
 31
0.0
  0
LINE
  5
541
330
1F
100
AcDbEntity
  8
26
  6
Continuous
 62
     7
370
     9
100
AcDbLine
 10
356.7568287706852
 20
149.272602380794
 30
0.0
 11
349.0097287706851
 21
149.272602380794
 31
0.0
  0
LINE
  5
542
330
1F
100
AcDbEntity
  8
26
  6
Continuous
 62
     7
370
     9
100
AcDbLine
 10
370.756828770685
 20
149.272602380794
 30
0.0
 11
378.5039287706851
 21
149.272602380794
 31
0.0
  0
LINE
  5
543
330
1F
100
AcDbEntity
  8
26
  6
Continuous
 62
     7
370
     9
100
AcDbLine
 10
329.0068287706852
 20
168.2726023807941
 30
0.0
 11
329.0068287706852
 21
171.3726023807941
 31
0.0
  0
LINE
  5
544
330
1F
100
AcDbEntity
  8
26
  6
Continuous
 62
     7
370
     9
100
AcDbLine
 10
356.5068287706852
 20
168.2726023807941
 30
0.0
 11
356.5068287706852
 21
171.3726023807941
 31
0.0
  0
LINE
  5
545
330
1F
100
AcDbEntity
  8
26
  6
Continuous
 62
     7
370
     9
100
AcDbLine
 10
398.506828770685
 20
168.2726023807941
 30
0.0
 11
398.506828770685
 21
169.3726023807942
 31
0.0
  0
LINE
  5
546
330
1F
100
AcDbEntity
  8
26
  6
Continuous
 62
     7
370
     9
100
AcDbLine
 10
371.006828770685
 20
168.2726023807941
 30
0.0
 11
371.006828770685
 21
169.3726023807942
 31
0.0
  0
LINE
  5
547
330
1F
100
AcDbEntity
  8
26
  6
Continuous
 62
     7
370
     9
100
AcDbLine
 10
398.756828770685
 20
167.7726023807941
 30
0.0
 11
398.756828770685
 21
168.2726023807938
 31
0.0
  0
LINE
  5
548
330
1F
100
AcDbEntity
  8
26
  6
Continuous
 62
     7
370
     9
100
AcDbLine
 10
421.2568287706851
 20
169.7726023807941
 30
0.0
 11
421.2568287706851
 21
142.7726023807941
 31
0.0
  0
LINE
  5
549
330
1F
100
AcDbEntity
  8
26
  6
Continuous
 62
     7
370
     9
100
AcDbLine
 10
402.342615208312
 20
167.358388818421
 30
0.0
 11
406.256828770685
 21
171.2726023807941
 31
0.0
  0
LINE
  5
54A
330
1F
100
AcDbEntity
  8
26
  6
Continuous
 62
     7
370
     9
100
AcDbLine
 10
420.2296901996991
 20
164.6947711242284
 30
0.0
 11
400.978549172832
 21
164.6947711242284
 31
0.0
  0
LINE
  5
54B
330
1F
100
AcDbEntity
  8
26
  6
Continuous
 62
     7
370
     9
100
AcDbLine
 10
420.2296901996991
 20
162.810950796105
 30
0.0
 11
404.2568287706852
 21
162.810950796105
 31
0.0
  0
LINE
  5
54C
330
1F
100
AcDbEntity
  8
26
  6
Continuous
 62
     7
370
     9
100
AcDbLine
 10
420.2296901996991
 20
171.2726023807941
 30
0.0
 11
406.256828770685
 21
171.2726023807941
 31
0.0
  0
LINE
  5
54D
330
1F
100
AcDbEntity
  8
26
  6
Continuous
 62
     7
370
     9
100
AcDbLine
 10
421.2568287706851
 20
169.7726023807941
 30
0.0
 11
420.2296901996991
 21
171.2726023807941
 31
0.0
  0
ARC
  5
54E
330
1F
100
AcDbEntity
  8
26
  6
Continuous
 62
     7
370
     9
100
AcDbCircle
 10
415.5406995279017
 20
167.963945331884
 30
0.0
 40
5.716129242783325
100
AcDbArc
 50
325.1157099204532
 51
34.88429007954613
  0
LINE
  5
54F
330
1F
100
AcDbEntity
  8
26
  6
Continuous
 62
     7
370
     9
100
AcDbLine
 10
420.2296901996991
 20
171.2726023807941
 30
0.0
 11
420.2296901996991
 21
171.2331195395395
 31
0.0
  0
LINE
  5
550
330
1F
100
AcDbEntity
  8
26
  6
Continuous
 62
     7
370
     9
100
AcDbLine
 10
420.2296901996991
 20
147.8504336373597
 30
0.0
 11
392.1210380838155
 21
147.8504336373597
 31
0.0
  0
LINE
  5
551
330
1F
100
AcDbEntity
  8
26
  6
Continuous
 62
     7
370
     9
100
AcDbLine
 10
420.2296901996991
 20
149.7342539654831
 30
0.0
 11
404.2568287706852
 21
149.7342539654831
 31
0.0
  0
ARC
  5
552
330
1F
100
AcDbEntity
  8
26
  6
Continuous
 62
     7
370
     9
100
AcDbCircle
 10
399.9330196560314
 20
156.2726023807941
 30
0.0
 40
21.32380911465373
100
AcDbArc
 50
342.1442276914237
 51
17.85577230857459
  0
LINE
  5
553
330
1F
100
AcDbEntity
  8
26
  6
Continuous
 62
     7
370
     9
100
AcDbLine
 10
420.2296901996991
 20
164.6947711242284
 30
0.0
 11
420.2296901996991
 21
162.810950796105
 31
0.0
  0
ARC
  5
554
330
1F
100
AcDbEntity
  8
26
  6
Continuous
 62
     7
370
     9
100
AcDbCircle
 10
415.5406995279017
 20
144.5812594297041
 30
0.0
 40
5.716129242783325
100
AcDbArc
 50
325.1157099204532
 51
34.88429007954613
  0
LINE
  5
555
330
1F
100
AcDbEntity
  8
26
  6
Continuous
 62
     7
370
     9
100
AcDbLine
 10
420.2296901996991
 20
141.272602380794
 30
0.0
 11
399.2568287706851
 21
141.272602380794
 31
0.0
  0
LINE
  5
556
330
1F
100
AcDbEntity
  8
26
  6
Continuous
 62
     7
370
     9
100
AcDbLine
 10
421.2568287706851
 20
142.7726023807941
 30
0.0
 11
420.2296901996991
 21
141.272602380794
 31
0.0
  0
LINE
  5
557
330
1F
100
AcDbEntity
  8
26
  6
Continuous
 62
     7
370
     9
100
AcDbLine
 10
420.2296901996991
 20
149.7342539654831
 30
0.0
 11
420.2296901996991
 21
147.8504336373597
 31
0.0
  0
LINE
  5
558
330
1F
100
AcDbEntity
  8
26
  6
Continuous
 62
     7
370
     9
100
AcDbLine
 10
420.2296901996991
 20
141.3120852220487
 30
0.0
 11
420.2296901996991
 21
141.272602380794
 31
0.0
  0
ARC
  5
559
330
1F
100
AcDbEntity
  8
26
  6
Continuous
 62
     7
370
     9
100
AcDbCircle
 10
388.4649280142336
 20
145.2444627637922
 30
0.0
 40
4.489791201690821
100
AcDbArc
 50
35.48018679417889
 51
37.55416178026423
  0
ARC
  5
55A
330
1F
100
AcDbEntity
  8
26
  6
Continuous
 62
     7
370
     9
100
AcDbCircle
 10
388.4649280142336
 20
139.7019848607781
 30
0.0
 40
8.931089424335255
100
AcDbArc
 50
10.12868347340482
 51
65.83480504142584
  0
ARC
  5
55B
330
1F
100
AcDbEntity
  8
26
  6
Continuous
 62
     7
370
     9
100
AcDbCircle
 10
399.2568287706851
 20
139.272602380794
 30
0.0
 40
2.0
100
AcDbArc
 50
89.99999999999991
 51
179.9999999999998
  0
LINE
  5
55C
330
1F
100
AcDbEntity
  8
26
  6
Continuous
 62
     7
370
     9
100
AcDbLine
 10
355.9318230030212
 20
144.9527023807941
 30
0.0
 11
371.581834538349
 21
144.9527023807941
 31
0.0
  0
LINE
  5
55D
330
1F
100
AcDbEntity
  8
26
  6
Continuous
 62
     7
370
     9
100
AcDbLine
 10
356.7568287706851
 20
146.4217130214676
 30
0.0
 11
356.7568287706851
 21
145.9352949530462
 31
0.0
  0
LINE
  5
55E
330
1F
100
AcDbEntity
  8
26
  6
Continuous
 62
     7
370
     9
100
AcDbLine
 10
349.0097287706852
 20
141.6770023807941
 30
0.0
 11
378.5039287706851
 21
141.6770023807941
 31
0.0
  0
ARC
  5
55F
330
1F
100
AcDbEntity
  8
26
  6
Continuous
 62
     7
370
     9
100
AcDbCircle
 10
378.5039287706851
 20
150.6286156316015
 30
0.0
 40
8.951613250807497
100
AcDbArc
 50
219.3507428541705
 51
269.9999999999993
  0
ARC
  5
560
330
1F
100
AcDbEntity
  8
26
  6
Continuous
 62
     7
370
     9
100
AcDbCircle
 10
349.0097287706852
 20
150.6286156316015
 30
0.0
 40
8.951613250807497
100
AcDbArc
 50
269.9999999999993
 51
320.6492571458281
  0
ARC
  5
561
330
1F
100
AcDbEntity
  8
26
  6
Continuous
 62
     7
370
     9
100
AcDbCircle
 10
355.7568287706851
 20
145.9372718393134
 30
0.0
 40
1.0
100
AcDbArc
 50
280.0783224656784
 51
0.0
  0
ARC
  5
562
330
1F
100
AcDbEntity
  8
26
  6
Continuous
 62
     7
370
     9
100
AcDbCircle
 10
357.7568287706851
 20
146.4217130214676
 30
0.0
 40
1.0
100
AcDbArc
 50
115.3769335251536
 51
179.9999999999998
  0
ARC
  5
563
330
1F
100
AcDbEntity
  8
26
  6
Continuous
 62
     7
370
     9
100
AcDbCircle
 10
369.7568287706851
 20
146.4217130214676
 30
0.0
 40
1.0
100
AcDbArc
 50
0.0
 51
64.62306647484641
  0
LINE
  5
564
330
1F
100
AcDbEntity
  8
26
  6
Continuous
 62
     7
370
     9
100
AcDbLine
 10
370.7568287706851
 20
146.4217130214676
 30
0.0
 11
370.7568287706851
 21
145.9352949530462
 31
0.0
  0
ARC
  5
565
330
1F
100
AcDbEntity
  8
26
  6
Continuous
 62
     7
370
     9
100
AcDbCircle
 10
371.7568287706851
 20
145.9372718393134
 30
0.0
 40
1.0
100
AcDbArc
 50
179.9999999999998
 51
259.9216775343209
  0
ARC
  5
566
330
1F
100
AcDbEntity
  8
26
  6
Continuous
 62
     7
370
     9
100
AcDbCircle
 10
400.9284016459389
 20
168.7726023807941
 30
0.0
 40
2.0
100
AcDbArc
 50
269.9999999999998
 51
314.9999999999997
  0
ARC
  5
567
330
1F
100
AcDbEntity
  8
26
  6
Continuous
 62
     7
370
     9
100
AcDbCircle
 10
331.711128669527
 20
122.8209070946342
 30
0.0
 40
0.4645032009357806
100
AcDbArc
 50
269.9999999999998
 51
4.813552802966601
  0
LINE
  5
568
330
1F
100
AcDbEntity
  8
26
  6
Continuous
 62
     7
370
     9
100
AcDbLine
 10
404.2568287706852
 20
162.810950796105
 30
0.0
 11
404.2568287706852
 21
149.7342539654831
 31
0.0
  0
LINE
  5
569
330
1F
100
AcDbEntity
  8
26
  6
Continuous
 62
     7
370
     9
100
AcDbLine
 10
391.0615888771442
 20
157.5930555138937
 30
0.0
 11
391.0615888771442
 21
147.9810404049056
 31
0.0
  0
LINE
  5
56A
330
1F
100
AcDbEntity
  8
26
  6
Continuous
 62
     7
370
     9
100
AcDbLine
 10
403.2568287706865
 20
164.5641643566826
 30
0.0
 11
400.9927198821219
 21
164.5641643566826
 31
0.0
  0
LINE
  5
56B
330
1F
100
AcDbEntity
  8
26
  6
Continuous
 62
     7
370
     9
100
AcDbLine
 10
403.2568287706865
 20
164.5641643566826
 30
0.0
 11
403.2568287706865
 21
147.9810404049056
 31
0.0
  0
ARC
  5
56C
330
1F
100
AcDbEntity
  8
26
  6
Continuous
 62
     7
370
     9
100
AcDbCircle
 10
402.2199498761873
 20
162.810950796105
 30
0.0
 40
2.036878894497931
100
AcDbArc
 50
0.0
 51
59.39924252501699
  0
LINE
  5
56D
330
1F
100
AcDbEntity
  8
26
  6
Continuous
 62
     7
370
     9
100
AcDbLine
 10
403.2568287706865
 20
147.9810404049056
 30
0.0
 11
391.0615888771442
 21
147.9810404049056
 31
0.0
  0
ARC
  5
56E
330
1F
100
AcDbEntity
  8
26
  6
Continuous
 62
     7
370
     9
100
AcDbCircle
 10
402.2199498761873
 20
149.7342539654831
 30
0.0
 40
2.036878894497931
100
AcDbArc
 50
300.6007574749826
 51
0.0
  0
ARC
  5
56F
330
1F
100
AcDbEntity
  8
26
  6
Continuous
 62
     7
370
     9
100
AcDbCircle
 10
373.2773912963953
 20
196.5726023807942
 30
0.0
 40
2.0
100
AcDbArc
 50
89.99999999999991
 51
165.0118084405357
  0
ARC
  5
570
330
1F
100
AcDbEntity
  8
26
  6
Continuous
 62
     7
370
     9
100
AcDbCircle
 10
453.4536605295698
 20
175.1071452030513
 30
0.0
 40
85.0
100
AcDbArc
 50
165.0118084405356
 51
174.0809632179293
  0
ARC
  5
571
330
1F
100
AcDbEntity
  8
26
  6
Continuous
 62
     7
370
     9
100
AcDbCircle
 10
373.6994305774394
 20
187.2185282899449
 30
0.0
 40
3.345925909150651
100
AcDbArc
 50
173.6668690538287
 51
269.9999999999998
  0
ARC
  5
572
330
1F
100
AcDbEntity
  8
26
  6
Continuous
 62
     7
370
     9
100
AcDbCircle
 10
412.6145605125368
 20
182.8994797782692
 30
0.0
 40
42.5
100
AcDbArc
 50
160.4948927639196
 51
173.6668690538286
  0
ARC
  5
573
330
1F
100
AcDbEntity
  8
26
  6
Continuous
 62
     7
370
     9
100
AcDbCircle
 10
396.236266244975
 20
196.5726023807942
 30
0.0
 40
2.0
100
AcDbArc
 50
14.98819155946433
 51
89.99999999999991
  0
ARC
  5
574
330
1F
100
AcDbEntity
  8
26
  6
Continuous
 62
     7
370
     9
100
AcDbCircle
 10
316.0599970118004
 20
175.1071452030512
 30
0.0
 40
85.0
100
AcDbArc
 50
5.919036782070687
 51
14.98819155946433
  0
LINE
  5
575
330
1F
100
AcDbEntity
  8
26
  6
Continuous
 62
     7
370
     9
100
AcDbLine
 10
368.9068287706851
 20
183.8726023807942
 30
0.0
 11
368.9068287706851
 21
169.3726023807942
 31
0.0
  0
LINE
  5
576
330
1F
100
AcDbEntity
  8
26
  6
Continuous
 62
     7
370
     9
100
AcDbLine
 10
373.6994305774394
 20
183.8726023807942
 30
0.0
 11
384.7568287706851
 21
183.8726023807942
 31
0.0
  0
LINE
  5
577
330
1F
100
AcDbEntity
  8
26
  6
Continuous
 62
     7
370
     9
100
AcDbLine
 10
373.2773912963953
 20
198.5726023807942
 30
0.0
 11
396.236266244975
 21
198.5726023807942
 31
0.0
  0
LINE
  5
578
330
1F
100
AcDbEntity
  8
26
  6
Continuous
 62
     7
370
     9
100
AcDbLine
 10
400.6068287706851
 20
183.8726023807942
 30
0.0
 11
400.6068287706851
 21
169.3726023807942
 31
0.0
  0
LINE
  5
579
330
1F
100
AcDbEntity
  8
26
  6
Continuous
 62
     7
370
     9
100
AcDbLine
 10
359.7568287706851
 20
149.4037312549433
 30
0.0
 11
359.7568287706851
 21
148.772602380794
 31
0.0
  0
ARC
  5
57A
330
1F
100
AcDbEntity
  8
26
  6
Continuous
 62
     7
370
     9
100
AcDbCircle
 10
365.7568287706851
 20
149.4037312549433
 30
0.0
 40
2.0
100
AcDbArc
 50
0.0
 51
63.61220003875987
  0
ARC
  5
57B
330
1F
100
AcDbEntity
  8
26
  6
Continuous
 62
     7
370
     9
100
AcDbCircle
 10
361.7568287706851
 20
149.4037312549433
 30
0.0
 40
2.0
100
AcDbArc
 50
116.3877999612438
 51
179.9999999999998
  0
LINE
  5
57C
330
1F
100
AcDbEntity
  8
26
  6
Continuous
 62
     7
370
     9
100
AcDbLine
 10
359.7568287706851
 20
148.772602380794
 30
0.0
 11
367.7568287706851
 21
148.772602380794
 31
0.0
  0
LINE
  5
57D
330
1F
100
AcDbEntity
  8
26
  6
Continuous
 62
     7
370
     9
100
AcDbLine
 10
367.7568287706851
 20
149.4037312549433
 30
0.0
 11
367.7568287706851
 21
148.772602380794
 31
0.0
  0
ARC
  5
57E
330
1F
100
AcDbEntity
  8
26
  6
Continuous
 62
     7
370
     9
100
AcDbCircle
 10
363.7568287706851
 20
145.372602380794
 30
0.0
 40
6.5
100
AcDbArc
 50
63.61220003875671
 51
116.3877999612433
  0
LINE
  5
57F
330
1F
100
AcDbEntity
  8
26
  6
Continuous
 62
     7
370
     9
100
AcDbLine
 10
366.106828770685
 20
148.772602380794
 30
0.0
 11
366.0209027050941
 21
148.600750249612
 31
0.0
  0
LINE
  5
580
330
1F
100
AcDbEntity
  8
26
  6
Continuous
 62
     7
370
     9
100
AcDbLine
 10
361.4068287706851
 20
148.772602380794
 30
0.0
 11
361.4927548362761
 21
148.600750249612
 31
0.0
  0
LINE
  5
581
330
1F
100
AcDbEntity
  8
26
  6
Continuous
 62
     7
370
     9
100
AcDbLine
 10
400.6068287706851
 20
169.3726023807942
 30
0.0
 11
384.7568287706851
 21
169.3726023807942
 31
0.0
  0
LINE
  5
582
330
1F
100
AcDbEntity
  8
26
  6
Continuous
 62
     7
370
     9
100
AcDbLine
 10
384.7568287706851
 20
169.3726023807942
 30
0.0
 11
368.9068287706851
 21
169.3726023807942
 31
0.0
  0
ARC
  5
583
330
1F
100
AcDbEntity
  8
26
  6
Continuous
 62
     7
370
     9
100
AcDbCircle
 10
358.7568287706852
 20
150.020679190066
 30
0.0
 40
2.0
100
AcDbArc
 50
179.9999999999998
 51
287.1046351766444
  0
ARC
  5
584
330
1F
100
AcDbEntity
  8
26
  6
Continuous
 62
     7
370
     9
100
AcDbCircle
 10
368.756828770685
 20
150.020679190066
 30
0.0
 40
2.0
100
AcDbArc
 50
252.8953648233549
 51
0.0
  0
ARC
  5
585
330
1F
100
AcDbEntity
  8
26
  6
Continuous
 62
     7
370
     9
100
AcDbCircle
 10
342.7568287706851
 20
144.9868880950798
 30
0.0
 40
7.785714285714164
100
AcDbArc
 50
97.36415879073446
 51
139.2373527412782
  0
LINE
  5
586
330
1F
100
AcDbEntity
  8
26
  6
Continuous
 62
     7
370
     9
100
AcDbLine
 10
331.8324838485135
 20
149.272602380794
 30
0.0
 11
335.2568287706852
 21
149.272602380794
 31
0.0
  0
LINE
  5
587
330
1F
100
AcDbEntity
  8
26
  6
Continuous
 62
     7
370
     9
100
AcDbLine
 10
336.2568287706852
 20
148.272602380794
 30
0.0
 11
336.2568287706852
 21
135.772602380794
 31
0.0
  0
ARC
  5
588
330
1F
100
AcDbEntity
  8
26
  6
Continuous
 62
     7
370
     9
100
AcDbCircle
 10
332.9588697995524
 20
140.8083166665085
 30
0.0
 40
15.46428571428555
100
AcDbArc
 50
54.39047589119746
 51
87.44012285770691
  0
ARC
  5
589
330
1F
100
AcDbEntity
  8
26
  6
Continuous
 62
     7
370
     9
100
AcDbCircle
 10
363.7568287706852
 20
133.772602380794
 30
0.0
 40
15.10000000000002
100
AcDbArc
 50
243.3853519616768
 51
296.6146480383214
  0
LINE
  5
58A
330
1F
100
AcDbEntity
  8
26
  6
Continuous
 62
     7
370
     9
100
AcDbLine
 10
326.9068287706851
 20
184.8726023807941
 30
0.0
 11
326.9068287706851
 21
171.3726023807941
 31
0.0
  0
LINE
  5
58B
330
1F
100
AcDbEntity
  8
26
  6
Continuous
 62
     7
370
     9
100
AcDbLine
 10
342.7568287706851
 20
171.3726023807941
 30
0.0
 11
326.9068287706851
 21
171.3726023807941
 31
0.0
  0
LINE
  5
58C
330
1F
100
AcDbEntity
  8
26
  6
Continuous
 62
     7
370
     9
100
AcDbLine
 10
327.9068287706851
 20
185.8726023807941
 30
0.0
 11
332.7823519570799
 21
185.8726023807941
 31
0.0
  0
ARC
  5
58D
330
1F
100
AcDbEntity
  8
26
  6
Continuous
 62
     7
370
     9
100
AcDbCircle
 10
332.7823519570799
 20
189.8726023807942
 30
0.0
 40
4.0
100
AcDbArc
 50
269.9999999999998
 51
355.9143832200247
  0
ARC
  5
58E
330
1F
100
AcDbEntity
  8
26
  6
Continuous
 62
     7
370
     9
100
AcDbCircle
 10
327.9068287706851
 20
184.8726023807941
 30
0.0
 40
1.0
100
AcDbArc
 50
89.99999999999991
 51
179.9999999999998
  0
LINE
  5
58F
330
1F
100
AcDbEntity
  8
26
  6
Continuous
 62
     7
370
     9
100
AcDbLine
 10
357.6068287706851
 20
185.8726023807941
 30
0.0
 11
352.7313055842903
 21
185.8726023807941
 31
0.0
  0
ARC
  5
590
330
1F
100
AcDbEntity
  8
26
  6
Continuous
 62
     7
370
     9
100
AcDbCircle
 10
352.7313055842903
 20
189.8726023807942
 30
0.0
 40
4.0
100
AcDbArc
 50
184.0856167799737
 51
269.9999999999998
  0
ARC
  5
591
330
1F
100
AcDbEntity
  8
26
  6
Continuous
 62
     7
370
     9
100
AcDbCircle
 10
357.6068287706851
 20
184.8726023807941
 30
0.0
 40
1.0
100
AcDbArc
 50
0.0
 51
89.99999999999991
  0
LINE
  5
592
330
1F
100
AcDbEntity
  8
26
  6
Continuous
 62
     7
370
     9
100
AcDbLine
 10
358.6068287706851
 20
184.8726023807941
 30
0.0
 11
358.6068287706851
 21
171.3726023807941
 31
0.0
  0
LINE
  5
593
330
1F
100
AcDbEntity
  8
26
  6
Continuous
 62
     7
370
     9
100
AcDbLine
 10
342.7568287706851
 20
171.3726023807941
 30
0.0
 11
358.6068287706851
 21
171.3726023807941
 31
0.0
  0
LINE
  5
594
330
1F
100
AcDbEntity
  8
26
  6
Continuous
 62
     7
370
     9
100
AcDbLine
 10
338.4879479740865
 20
200.5726023807941
 30
0.0
 11
342.7568287706851
 21
200.5726023807941
 31
0.0
  0
ARC
  5
595
330
1F
100
AcDbEntity
  8
26
  6
Continuous
 62
     7
370
     9
100
AcDbCircle
 10
338.4879479740865
 20
199.5726023807941
 30
0.0
 40
1.0
100
AcDbArc
 50
89.99999999999991
 51
175.9143832200288
  0
LINE
  5
596
330
1F
100
AcDbEntity
  8
26
  6
Continuous
 62
     7
370
     9
100
AcDbLine
 10
347.0257095672839
 20
200.5726023807941
 30
0.0
 11
342.7568287706851
 21
200.5726023807941
 31
0.0
  0
ARC
  5
597
330
1F
100
AcDbEntity
  8
26
  6
Continuous
 62
     7
370
     9
100
AcDbCircle
 10
347.0257095672839
 20
199.5726023807941
 30
0.0
 40
1.0
100
AcDbArc
 50
4.085616779971164
 51
89.99999999999991
  0
LINE
  5
598
330
1F
100
AcDbEntity
  8
26
  6
Continuous
 62
     7
370
     9
100
AcDbLine
 10
337.4904892742557
 20
199.6438494307819
 30
0.0
 11
336.7721867564029
 21
189.5876141808425
 31
0.0
  0
LINE
  5
599
330
1F
100
AcDbEntity
  8
26
  6
Continuous
 62
     7
370
     9
100
AcDbLine
 10
348.0231682671146
 20
199.6438494307819
 30
0.0
 11
348.7414707849674
 21
189.5876141808425
 31
0.0
  0
ARC
  5
59A
330
1F
100
AcDbEntity
  8
11
  6
PHANTOM
 62
     3
370
     9
100
AcDbCircle
 10
363.7568287706851
 20
133.7726023807941
 30
0.0
 40
30.0
100
AcDbArc
 50
76.5066011784473
 51
103.4933988215527
  0
ARC
  5
59B
330
1F
100
AcDbEntity
  8
11
  6
PHANTOM
 62
     3
370
     9
100
AcDbCircle
 10
363.7568287706851
 20
133.7726023807941
 30
0.0
 40
30.0
100
AcDbArc
 50
206.7436839504015
 51
336.714084270237
  0
LINE
  5
59C
330
1F
100
AcDbEntity
  8
11
  6
PHANTOM
 62
     3
370
     9
100
AcDbLine
 10
306.256828770685
 20
126.572602380794
 30
0.0
 11
306.256828770685
 21
125.572602380794
 31
0.0
  0
LINE
  5
59D
330
1F
100
AcDbEntity
  8
11
  6
PHANTOM
 62
     3
370
     9
100
AcDbLine
 10
306.256828770685
 20
126.572602380794
 30
0.0
 11
317.6568287706851
 21
126.572602380794
 31
0.0
  0
LINE
  5
59E
330
1F
100
AcDbEntity
  8
11
  6
PHANTOM
 62
     3
370
     9
100
AcDbLine
 10
306.256828770685
 20
125.572602380794
 30
0.0
 11
317.6568287706851
 21
125.572602380794
 31
0.0
  0
LINE
  5
59F
330
1F
100
AcDbEntity
  8
11
  6
PHANTOM
 62
     3
370
     9
100
AcDbLine
 10
315.8230120138626
 20
126.572602380794
 30
0.0
 11
315.8230120138626
 21
127.272602380794
 31
0.0
  0
LINE
  5
5A0
330
1F
100
AcDbEntity
  8
11
  6
PHANTOM
 62
     3
370
     9
100
AcDbLine
 10
317.6568287706851
 20
126.572602380794
 30
0.0
 11
317.6568287706851
 21
125.572602380794
 31
0.0
  0
LINE
  5
5A1
330
1F
100
AcDbEntity
  8
11
  6
PHANTOM
 62
     3
370
     9
100
AcDbLine
 10
308.1230120138627
 20
126.572602380794
 30
0.0
 11
308.1230120138627
 21
127.272602380794
 31
0.0
  0
LINE
  5
5A2
330
1F
100
AcDbEntity
  8
26
  6
PHANTOM
 62
     7
370
     9
100
AcDbLine
 10
422.0568287706851
 20
144.5226023807942
 30
0.0
 11
422.056828770685
 21
168.0226023807942
 31
0.0
  0
LINE
  5
5A3
330
1F
100
AcDbEntity
  8
26
  6
PHANTOM
 62
     7
370
     9
100
AcDbLine
 10
421.2568287706851
 20
168.0226023807942
 30
0.0
 11
422.056828770685
 21
168.0226023807942
 31
0.0
  0
LINE
  5
5A4
330
1F
100
AcDbEntity
  8
26
  6
PHANTOM
 62
     7
370
     9
100
AcDbLine
 10
421.2568287706851
 20
144.5226023807942
 30
0.0
 11
422.0568287706851
 21
144.5226023807942
 31
0.0
  0
POINT
  5
5A5
330
1F
100
AcDbEntity
  8
26
  6
Continuous
 62
     7
370
     9
100
AcDbPoint
 10
342.7568287706851
 20
156.2726023807941
 30
0.0
  0
POINT
  5
5A6
330
1F
100
AcDbEntity
  8
26
  6
Continuous
 62
     7
370
     9
100
AcDbPoint
 10
311.9568287706851
 20
156.2726023807941
 30
0.0
  0
POINT
  5
5A7
330
1F
100
AcDbEntity
  8
26
  6
Continuous
 62
     7
370
     9
100
AcDbPoint
 10
330.2568287706852
 20
126.7726023807941
 30
0.0
  0
POINT
  5
5A8
330
1F
100
AcDbEntity
  8
26
  6
Continuous
 62
     7
370
     9
100
AcDbPoint
 10
357.3426152083121
 20
147.358388818421
 30
0.0
  0
POINT
  5
5A9
330
1F
100
AcDbEntity
  8
26
  6
Continuous
 62
     7
370
     9
100
AcDbPoint
 10
356.7568287706852
 20
146.7726023807941
 30
0.0
  0
LINE
  5
5AA
330
1F
100
AcDbEntity
  8
5
  6
Continuous
 62
     3
370
     9
100
AcDbLine
 10
420.4778728130127
 20
133.6944798569778
 30
0.0
 11
400.2434898269469
 21
133.6944798569778
 31
0.0
  0
LINE
  5
5AB
330
1F
100
AcDbEntity
  8
5
  6
Continuous
 62
     3
370
     9
100
AcDbLine
 10
303.8327641868237
 20
156.2726023807941
 30
0.0
 11
296.5466091822658
 21
156.2726023807941
 31
0.0
  0
LINE
  5
5AC
330
1F
100
AcDbEntity
  8
5
  6
Continuous
 62
     3
370
     9
100
AcDbLine
 10
396.236266244975
 20
198.5726023807942
 30
0.0
 11
437.5797450236377
 21
198.5726023807942
 31
0.0
  0
LINE
  5
5AD
330
1F
100
AcDbEntity
  8
5
  6
Continuous
 62
     3
370
     9
100
AcDbLine
 10
363.7568287706852
 20
118.672602380794
 30
0.0
 11
438.4064275652665
 21
118.672602380794
 31
0.0
  0
LINE
  5
5AE
330
1F
100
AcDbEntity
  8
5
  6
Continuous
 62
     3
370
     9
100
AcDbLine
 10
338.4879479740865
 20
200.5726023807941
 30
0.0
 11
289.206828770685
 21
200.5726023807942
 31
0.0
  0
LINE
  5
5AF
330
1F
100
AcDbEntity
  8
5
  6
Continuous
 62
     3
370
     9
100
AcDbLine
 10
363.7568287706851
 20
118.672602380794
 30
0.0
 11
289.206828770685
 21
118.672602380794
 31
0.0
  0
LINE
  5
5B0
330
1F
100
AcDbEntity
  8
5
  6
Continuous
 62
     3
370
     9
100
AcDbLine
 10
330.9158306955414
 20
104.4453380898359
 30
0.0
 11
318.9158306955414
 21
104.4453380898359
 31
0.0
  0
LINE
  5
5B1
330
1F
100
AcDbEntity
  8
5
  6
Continuous
 62
     3
370
     9
100
AcDbLine
 10
342.7568287706851
 20
203.8541705645624
 30
0.0
 11
342.7568287706851
 21
209.3813030173124
 31
0.0
  0
LINE
  5
5B2
330
1F
100
AcDbEntity
  8
5
  6
Continuous
 62
     3
370
     9
100
AcDbLine
 10
384.7568287706851
 20
203.8541705645624
 30
0.0
 11
384.7568287706851
 21
209.3813030173124
 31
0.0
  0
LINE
  5
5B3
330
1F
100
AcDbEntity
  8
5
  6
Continuous
 62
     3
370
     9
100
AcDbLine
 10
440.6391500559879
 20
142.8803323852116
 30
0.0
 11
452.6391500559879
 21
142.8803323852116
 31
0.0
  0
LINE
  5
5B4
330
1F
100
AcDbEntity
  8
26
  6
Continuous
 62
     7
370
     9
100
AcDbLine
 10
397.4308677501604
 20
158.6767987405071
 30
0.0
 11
398.0503414335202
 21
158.9499666579004
 31
0.0
  0
LINE
  5
5B5
330
1F
100
AcDbEntity
  8
26
  6
Continuous
 62
     7
370
     9
100
AcDbLine
 10
398.0503414335202
 20
158.9499666579004
 30
0.0
 11
398.6647219445905
 21
159.26816019923
 31
0.0
  0
LINE
  5
5B6
330
1F
100
AcDbEntity
  8
26
  6
Continuous
 62
     7
370
     9
100
AcDbLine
 10
398.6647219445905
 20
159.26816019923
 30
0.0
 11
399.256594981403
 21
159.6325916413112
 31
0.0
  0
LINE
  5
5B7
330
1F
100
AcDbEntity
  8
26
  6
Continuous
 62
     7
370
     9
100
AcDbLine
 10
399.256594981403
 20
159.6325916413112
 30
0.0
 11
399.8029271210766
 21
160.0435777716878
 31
0.0
  0
LINE
  5
5B8
330
1F
100
AcDbEntity
  8
26
  6
Continuous
 62
     7
370
     9
100
AcDbLine
 10
399.8029271210766
 20
160.0435777716878
 30
0.0
 11
400.2806753647028
 21
160.5014338518235
 31
0.0
  0
LINE
  5
5B9
330
1F
100
AcDbEntity
  8
26
  6
Continuous
 62
     7
370
     9
100
AcDbLine
 10
400.2806753647028
 20
160.5014338518235
 30
0.0
 11
400.6667967133726
 21
161.0064751431817
 31
0.0
  0
LINE
  5
5BA
330
1F
100
AcDbEntity
  8
26
  6
Continuous
 62
     7
370
     9
100
AcDbLine
 10
400.6667967133726
 20
161.0064751431817
 30
0.0
 11
400.9382627785513
 21
161.5590139174412
 31
0.0
  0
LINE
  5
5BB
330
1F
100
AcDbEntity
  8
26
  6
Continuous
 62
     7
370
     9
100
AcDbLine
 10
400.9382627785513
 20
161.5590139174412
 30
0.0
 11
401.0844708404492
 21
162.1568197273209
 31
0.0
  0
LINE
  5
5BC
330
1F
100
AcDbEntity
  8
26
  6
Continuous
 62
     7
370
     9
100
AcDbLine
 10
401.0844708404492
 20
162.1568197273209
 30
0.0
 11
401.1298722615776
 21
162.7904888553103
 31
0.0
  0
LINE
  5
5BD
330
1F
100
AcDbEntity
  8
26
  6
Continuous
 62
     7
370
     9
100
AcDbLine
 10
401.1298722615776
 20
162.7904888553103
 30
0.0
 11
401.1050557004434
 21
163.4493616821674
 31
0.0
  0
LINE
  5
5BE
330
1F
100
AcDbEntity
  8
26
  6
Continuous
 62
     7
370
     9
100
AcDbLine
 10
401.1050557004434
 20
163.4493616821674
 30
0.0
 11
401.0406098155538
 21
164.1227785886504
 31
0.0
  0
LINE
  5
5BF
330
1F
100
AcDbEntity
  8
26
  6
Continuous
 62
     7
370
     9
100
AcDbLine
 10
401.0406098155538
 20
164.1227785886504
 30
0.0
 11
400.967123265416
 21
164.8000799555174
 31
0.0
  0
LINE
  5
5C0
330
1F
100
AcDbEntity
  8
26
  6
Continuous
 62
     7
370
     9
100
AcDbLine
 10
400.967123265416
 20
164.8000799555174
 30
0.0
 11
400.9151847085372
 21
165.4706061635263
 31
0.0
  0
LINE
  5
5C1
330
1F
100
AcDbEntity
  8
26
  6
Continuous
 62
     7
370
     9
100
AcDbLine
 10
400.9151847085372
 20
165.4706061635263
 30
0.0
 11
400.9076409228152
 21
166.1263453602795
 31
0.0
  0
LINE
  5
5C2
330
1F
100
AcDbEntity
  8
26
  6
Continuous
 62
     7
370
     9
100
AcDbLine
 10
400.9076409228152
 20
166.1263453602795
 30
0.0
 11
400.9284016459389
 21
166.7726023807941
 31
0.0
  0
LINE
  5
5C3
330
1F
100
AcDbEntity
  8
5
  6
Continuous
 62
     3
370
     9
100
AcDbLine
 10
420.4778728130127
 20
133.6944798569778
 30
0.0
 11
412.0858429293751
 21
151.9894707888001
 31
0.0
  0
INSERT
  5
5CA
330
1F
100
AcDbEntity
  8
5
100
AcDbBlockReference
  2
*G35
 10
0.0
 20
0.0
 30
0.0
  0
LINE
  5
5CB
330
1F
100
AcDbEntity
  8
5
  6
Continuous
 62
     3
370
     9
100
AcDbLine
 10
428.0449458493511
 20
198.5726023807942
 30
0.0
 11
428.0449458493511
 21
156.2726023807941
 31
0.0
  0
INSERT
  5
5D2
330
1F
100
AcDbEntity
  8
5
100
AcDbBlockReference
  2
*G36
 10
0.0
 20
0.0
 30
0.0
  0
INSERT
  5
5D9
330
1F
100
AcDbEntity
  8
5
100
AcDbBlockReference
  2
*G37
 10
0.0
 20
0.0
 30
0.0
  0
LINE
  5
5DA
330
1F
100
AcDbEntity
  8
5
  6
Continuous
 62
     3
370
     9
100
AcDbLine
 10
428.0449458493511
 20
156.2726023807941
 30
0.0
 11
428.0449458493511
 21
118.672602380794
 31
0.0
  0
INSERT
  5
5E1
330
1F
100
AcDbEntity
  8
5
100
AcDbBlockReference
  2
*G38
 10
0.0
 20
0.0
 30
0.0
  0
INSERT
  5
5E8
330
1F
100
AcDbEntity
  8
5
100
AcDbBlockReference
  2
*G39
 10
0.0
 20
0.0
 30
0.0
  0
LINE
  5
5E9
330
1F
100
AcDbEntity
  8
5
  6
Continuous
 62
     3
370
     9
100
AcDbLine
 10
290.206828770685
 20
200.5726023807942
 30
0.0
 11
290.206828770685
 21
118.672602380794
 31
0.0
  0
INSERT
  5
5F0
330
1F
100
AcDbEntity
  8
5
100
AcDbBlockReference
  2
*G40
 10
0.0
 20
0.0
 30
0.0
  0
INSERT
  5
5F7
330
1F
100
AcDbEntity
  8
5
100
AcDbBlockReference
  2
*G41
 10
0.0
 20
0.0
 30
0.0
  0
LINE
  5
5F8
330
1F
100
AcDbEntity
  8
5
  6
Continuous
 62
     3
370
     9
100
AcDbLine
 10
436.0449458493511
 20
198.5726023807942
 30
0.0
 11
436.0449458493511
 21
118.672602380794
 31
0.0
  0
INSERT
  5
5FF
330
1F
100
AcDbEntity
  8
5
100
AcDbBlockReference
  2
*G42
 10
0.0
 20
0.0
 30
0.0
  0
INSERT
  5
606
330
1F
100
AcDbEntity
  8
5
100
AcDbBlockReference
  2
*G43
 10
0.0
 20
0.0
 30
0.0
  0
LINE
  5
607
330
1F
100
AcDbEntity
  8
5
  6
Continuous
 62
     3
370
     9
100
AcDbLine
 10
342.7568287706851
 20
208.3813030173125
 30
0.0
 11
384.7568287706851
 21
208.3813030173125
 31
0.0
  0
INSERT
  5
60E
330
1F
100
AcDbEntity
  8
5
100
AcDbBlockReference
  2
*G44
 10
0.0
 20
0.0
 30
0.0
  0
INSERT
  5
615
330
1F
100
AcDbEntity
  8
5
100
AcDbBlockReference
  2
*G45
 10
0.0
 20
0.0
 30
0.0
  0
LINE
  5
616
330
1F
100
AcDbEntity
  8
5
  6
Continuous
 62
     3
370
     9
100
AcDbLine
 10
298.206828770685
 20
156.2726023807941
 30
0.0
 11
298.206828770685
 21
200.5726023807941
 31
0.0
  0
INSERT
  5
61D
330
1F
100
AcDbEntity
  8
5
100
AcDbBlockReference
  2
*G46
 10
0.0
 20
0.0
 30
0.0
  0
INSERT
  5
624
330
1F
100
AcDbEntity
  8
5
100
AcDbBlockReference
  2
*G47
 10
0.0
 20
0.0
 30
0.0
  0
LINE
  5
625
330
1F
100
AcDbEntity
  8
5
  6
Continuous
 62
     3
370
     9
100
AcDbLine
 10
342.7568287706851
 20
125.7726023807941
 30
0.0
 11
330.9158306955414
 21
104.4453380898359
 31
0.0
  0
INSERT
  5
62C
330
1F
100
AcDbEntity
  8
5
100
AcDbBlockReference
  2
*G48
 10
0.0
 20
0.0
 30
0.0
  0
LINE
  5
62D
330
1F
100
AcDbEntity
  8
5
  6
Continuous
 62
     3
370
     9
100
AcDbLine
 10
421.2568287706851
 20
156.2726023807941
 30
0.0
 11
440.6391500559879
 21
142.8803323852116
 31
0.0
  0
INSERT
  5
634
330
1F
100
AcDbEntity
  8
5
100
AcDbBlockReference
  2
*G49
 10
0.0
 20
0.0
 30
0.0
  0
TEXT
  5
635
330
1F
100
AcDbEntity
  8
5
  6
Continuous
 62
     3
370
     9
100
AcDbText
 10
427.450824053256
 20
182.3983445715247
 30
0.0
 40
4.0
  1
（開）
 50
89.99999999999991
 41
0.5468749999999997
100
AcDbText
  0
TEXT
  5
636
330
1F
100
AcDbEntity
  8
5
  6
Continuous
 62
     3
370
     9
100
AcDbText
 10
297.1289821494528
 20
183.2457852317713
 30
0.0
 40
4.0
  1
（閉）
 50
89.99999999999991
 41
0.5468749999999997
100
AcDbText
  0
LINE
  5
637
330
1F
100
AcDbEntity
  8
26
  6
Continuous
 62
     7
370
     9
100
AcDbLine
 10
420.2296901996991
 20
171.2331195395395
 30
0.0
 11
406.2173459294304
 21
171.2331195395395
 31
0.0
  0
LINE
  5
638
330
1F
100
AcDbEntity
  8
26
  6
Continuous
 62
     7
370
     9
100
AcDbLine
 10
420.2296901996991
 20
141.3120852220487
 30
0.0
 11
397.2496838521673
 21
141.3120852220487
 31
0.0
  0
LINE
  5
639
330
1F
100
AcDbEntity
  8
6
  6
Continuous
 62
     2
370
     9
100
AcDbLine
 10
410.356828770685
 20
158.9822358926247
 30
0.0
 11
410.3568287706852
 21
153.5822358926247
 31
0.0
  0
LINE
  5
63A
330
1F
100
AcDbEntity
  8
6
  6
Continuous
 62
     2
370
     9
100
AcDbLine
 10
407.856828770685
 20
158.9822358926247
 30
0.0
 11
410.356828770685
 21
158.9822358926247
 31
0.0
  0
LINE
  5
63B
330
1F
100
AcDbEntity
  8
6
  6
Continuous
 62
     2
370
     9
100
AcDbLine
 10
407.856828770685
 20
158.9822358926247
 30
0.0
 11
407.8568287706851
 21
153.5822358926247
 31
0.0
  0
LINE
  5
63C
330
1F
100
AcDbEntity
  8
6
  6
Continuous
 62
     2
370
     9
100
AcDbLine
 10
407.8568287706851
 20
153.5822358926247
 30
0.0
 11
410.3568287706852
 21
153.5822358926247
 31
0.0
  0
LINE
  5
63D
330
1F
100
AcDbEntity
  8
6
  6
Continuous
 62
     2
370
     9
100
AcDbLine
 10
410.856828770685
 20
160.2822358926247
 30
0.0
 11
413.356828770685
 21
160.2822358926248
 31
0.0
  0
LINE
  5
63E
330
1F
100
AcDbEntity
  8
6
  6
Continuous
 62
     2
370
     9
100
AcDbLine
 10
410.856828770685
 20
160.2822358926247
 30
0.0
 11
410.8568287706851
 21
152.2822358926247
 31
0.0
  0
LINE
  5
63F
330
1F
100
AcDbEntity
  8
6
  6
Continuous
 62
     2
370
     9
100
AcDbLine
 10
410.8568287706852
 20
152.2822358926247
 30
0.0
 11
413.3568287706851
 21
152.2822358926248
 31
0.0
  0
LINE
  5
640
330
1F
100
AcDbEntity
  8
6
  6
Continuous
 62
     2
370
     9
100
AcDbLine
 10
413.356828770685
 20
160.2822358926248
 30
0.0
 11
413.3568287706851
 21
152.2822358926248
 31
0.0
  0
POINT
  5
641
330
1F
100
AcDbEntity
  8
26
  6
Continuous
 62
     7
370
     9
100
AcDbPoint
 10
370.1710423330581
 20
147.358388818421
 30
0.0
  0
POINT
  5
642
330
1F
100
AcDbEntity
  8
26
  6
Continuous
 62
     7
370
     9
100
AcDbPoint
 10
372.5961341348759
 20
203.0637416213004
 30
0.0
  0
POINT
  5
643
330
1F
100
AcDbEntity
  8
26
  6
Continuous
 62
     7
370
     9
100
AcDbPoint
 10
372.5961341348759
 20
203.0637416213004
 30
0.0
  0
POINT
  5
644
330
1F
100
AcDbEntity
  8
26
  6
Continuous
 62
     7
370
     9
100
AcDbPoint
 10
372.5961341348759
 20
203.0637416213004
 30
0.0
  0
POINT
  5
645
330
1F
100
AcDbEntity
  8
26
  6
Continuous
 62
     7
370
     9
100
AcDbPoint
 10
372.5961341348759
 20
203.0637416213004
 30
0.0
  0
POINT
  5
646
330
1F
100
AcDbEntity
  8
26
  6
Continuous
 62
     7
370
     9
100
AcDbPoint
 10
372.5961341348759
 20
203.0637416213004
 30
0.0
  0
POINT
  5
647
330
1F
100
AcDbEntity
  8
26
  6
Continuous
 62
     7
370
     9
100
AcDbPoint
 10
372.5961341348759
 20
203.0637416213004
 30
0.0
  0
POINT
  5
648
330
1F
100
AcDbEntity
  8
26
  6
Continuous
 62
     7
370
     9
100
AcDbPoint
 10
372.5961341348759
 20
203.0637416213004
 30
0.0
  0
POINT
  5
649
330
1F
100
AcDbEntity
  8
26
  6
Continuous
 62
     7
370
     9
100
AcDbPoint
 10
372.5961341348759
 20
203.0637416213004
 30
0.0
  0
POINT
  5
64A
330
1F
100
AcDbEntity
  8
26
  6
Continuous
 62
     7
370
     9
100
AcDbPoint
 10
372.5961341348759
 20
203.0637416213004
 30
0.0
  0
POINT
  5
64B
330
1F
100
AcDbEntity
  8
26
  6
Continuous
 62
     7
370
     9
100
AcDbPoint
 10
372.5961341348759
 20
203.0637416213004
 30
0.0
  0
TEXT
  5
64C
330
1F
100
AcDbEntity
  8
5
  6
Continuous
 62
     3
370
     9
100
AcDbText
 10
400.1400889809464
 20
134.9478861024337
 30
0.0
 40
3.5
  1
ロット№表示
 41
0.4545454545454534
100
AcDbText
  0
TEXT
  5
64D
330
1F
100
AcDbEntity
  8
6
  6
Continuous
 62
     2
370
     9
100
AcDbText
 10
340.5068287706851
 20
129.7726023807941
 30
0.0
 40
2.0
  1
復帰は閉→開
 41
0.68359375
100
AcDbText
  0
TEXT
  5
64E
330
1F
100
AcDbEntity
  8
6
  6
Continuous
 62
     2
370
     9
100
AcDbText
 10
333.7734476436129
 20
132.7726023807941
 30
0.0
 40
2.0
  1
ＯＮ・ＯＦＦヒューズ
 41
0.7513850971167244
100
AcDbText
  0
TEXT
  5
64F
330
1F
100
AcDbEntity
  8
6
  6
Continuous
 62
     2
370
     9
100
AcDbText
 10
343.0068287706851
 20
126.7726023807941
 30
0.0
 40
2.0
  1
15ｋＷ
 41
0.9114583333333333
100
AcDbText
  0
TEXT
  5
650
330
1F
100
AcDbEntity
  8
6
  6
Continuous
 62
     2
370
     9
100
AcDbText
 10
335.2568287706851
 20
126.7726023807941
 30
0.0
 40
2.0
  1
消費量
 41
0.68359375
100
AcDbText
  0
TEXT
  5
651
330
1F
100
AcDbEntity
  8
6
  6
Continuous
 62
     2
370
     9
100
AcDbText
 10
352.5068287706851
 20
126.7726023807941
 30
0.0
 40
2.0
  1
以下
 41
0.68359375
100
AcDbText
  0
TEXT
  5
652
330
1F
100
AcDbEntity
  8
5
  6
Continuous
 62
     3
370
     9
100
AcDbText
 10
427.544945849351
 20
173.4226023807941
 30
0.0
 40
2.5
  1
42.3
 50
89.99999999999991
 41
1.09375
100
AcDbText
  0
TEXT
  5
653
330
1F
100
AcDbEntity
  8
5
  6
Continuous
 62
     3
370
     9
100
AcDbText
 10
427.044945849351
 20
133.472602380794
 30
0.0
 40
2.5
  1
37.6
 50
89.99999999999991
 41
1.09375
100
AcDbText
  0
TEXT
  5
654
330
1F
100
AcDbEntity
  8
5
  6
Continuous
 62
     3
370
     9
100
AcDbText
 10
289.206828770685
 20
155.6226023807941
 30
0.0
 40
2.5
  1
81.9
 50
89.99999999999991
 41
1.09375
100
AcDbText
  0
TEXT
  5
655
330
1F
100
AcDbEntity
  8
5
  6
Continuous
 62
     3
370
     9
100
AcDbText
 10
435.044945849351
 20
154.6226023807941
 30
0.0
 40
2.5
  1
79.9
 50
89.99999999999991
 41
1.09375
100
AcDbText
  0
TEXT
  5
656
330
1F
100
AcDbEntity
  8
5
  6
Continuous
 62
     3
370
     9
100
AcDbText
 10
318.9158306955414
 20
105.2102231910092
 30
0.0
 40
3.0
  1
復帰シール
 41
0.4545454545454546
100
AcDbText
  0
TEXT
  5
657
330
1F
100
AcDbEntity
  8
5
  6
Continuous
 62
     3
370
     9
100
AcDbText
 10
361.7568287706852
 20
208.8813030173124
 30
0.0
 40
2.5
  1
42
 41
1.09375
100
AcDbText
  0
TEXT
  5
658
330
1F
100
AcDbEntity
  8
5
  6
Continuous
 62
     3
370
     9
100
AcDbText
 10
440.7026535860723
 20
143.5782521809996
 30
0.0
 40
3.0
  1
Ｒｃ1/2
 41
0.78125
100
AcDbText
  0
TEXT
  5
659
330
1F
100
AcDbEntity
  8
5
  6
Continuous
 62
     3
370
     9
100
AcDbText
 10
297.206828770685
 20
173.9226023807941
 30
0.0
 40
2.5
  1
44.3
 50
89.99999999999991
 41
1.09375
100
AcDbText
  0
ARC
  5
65A
330
1F
100
AcDbEntity
  8
26
  6
Continuous
 62
     7
370
     9
100
AcDbCircle
 10
395.8142269639308
 20
187.2185282899449
 30
0.0
 40
3.345925909150651
100
AcDbArc
 50
269.9999999999998
 51
6.333130946171366
  0
ARC
  5
65B
330
1F
100
AcDbEntity
  8
26
  6
Continuous
 62
     7
370
     9
100
AcDbCircle
 10
356.8990970288335
 20
182.8994797782692
 30
0.0
 40
42.5
100
AcDbArc
 50
6.333130946171588
 51
19.50510723608109
  0
LINE
  5
65C
330
1F
100
AcDbEntity
  8
26
  6
Continuous
 62
     7
370
     9
100
AcDbLine
 10
395.8142269639308
 20
183.8726023807942
 30
0.0
 11
384.7568287706851
 21
183.8726023807942
 31
0.0
  0
LINE
  5
65D
330
1F
100
AcDbEntity
  8
7
  6
DASHDOT
 62
     4
370
     9
100
AcDbLine
 10
485.9153111179191
 20
202.2531314754626
 30
0.0
 11
485.9153111179191
 21
115.1697586493657
 31
0.0
  0
LINE
  5
65E
330
1F
100
AcDbEntity
  8
7
  6
DASHDOT
 62
     4
370
     9
100
AcDbLine
 10
503.1285447493404
 20
156.2726023807941
 30
0.0
 11
467.9626347611842
 21
156.2726023807941
 31
0.0
  0
LINE
  5
65F
330
1F
100
AcDbEntity
  8
7
  6
DASHDOT
 62
     4
370
     9
100
AcDbLine
 10
528.2161916483539
 20
133.7726023807939
 30
0.0
 11
467.3431026400757
 21
133.772602380794
 31
0.0
  0
LINE
  5
660
330
1F
100
AcDbEntity
  8
26
  6
Continuous
 62
     7
370
     9
100
AcDbLine
 10
471.9153111179192
 20
168.272602380794
 30
0.0
 11
479.6999208087457
 21
168.272602380794
 31
0.0
  0
LINE
  5
661
330
1F
100
AcDbEntity
  8
26
  6
Continuous
 62
     7
370
     9
100
AcDbLine
 10
471.9153111179192
 20
168.272602380794
 30
0.0
 11
472.1653111179191
 21
168.272602380794
 31
0.0
  0
ARC
  5
662
330
1F
100
AcDbEntity
  8
26
  6
Continuous
 62
     7
370
     9
100
AcDbCircle
 10
508.4153111179192
 20
148.2726023807939
 30
0.0
 40
0.5
100
AcDbArc
 50
0.0
 51
89.99999999999991
  0
LINE
  5
663
330
1F
100
AcDbEntity
  8
26
  6
Continuous
 62
     7
370
     9
100
AcDbLine
 10
508.4153111179192
 20
148.772602380794
 30
0.0
 11
499.8451356793228
 21
148.7726023807939
 31
0.0
  0
ARC
  5
664
330
1F
100
AcDbEntity
  8
26
  6
Continuous
 62
     7
370
     9
100
AcDbCircle
 10
508.4153111179192
 20
119.2726023807938
 30
0.0
 40
0.5
100
AcDbArc
 50
269.9999999999998
 51
0.0
  0
LINE
  5
665
330
1F
100
AcDbEntity
  8
26
  6
Continuous
 62
     7
370
     9
100
AcDbLine
 10
508.4153111179192
 20
118.772602380794
 30
0.0
 11
479.9153111179191
 21
118.772602380794
 31
0.0
  0
LINE
  5
666
330
1F
100
AcDbEntity
  8
26
  6
Continuous
 62
     7
370
     9
100
AcDbLine
 10
485.4117323688736
 20
120.272602380794
 30
0.0
 11
477.9153111179192
 21
120.272602380794
 31
0.0
  0
LINE
  5
667
330
1F
100
AcDbEntity
  8
26
  6
Continuous
 62
     7
370
     9
100
AcDbLine
 10
499.9153111179192
 20
165.2726023807941
 30
0.0
 11
499.9153111179192
 21
149.2726023807938
 31
0.0
  0
LINE
  5
668
330
1F
100
AcDbEntity
  8
26
  6
Continuous
 62
     7
370
     9
100
AcDbLine
 10
471.9153111179192
 20
168.272602380794
 30
0.0
 11
471.9153111179192
 21
126.272602380794
 31
0.0
  0
ARC
  5
669
330
1F
100
AcDbEntity
  8
26
  6
Continuous
 62
     7
370
     9
100
AcDbCircle
 10
477.9153111179192
 20
126.272602380794
 30
0.0
 40
6.0
100
AcDbArc
 50
179.9999999999999
 51
269.9999999999998
  0
LINE
  5
66A
330
1F
100
AcDbEntity
  8
26
  6
Continuous
 62
     7
370
     9
100
AcDbLine
 10
499.9153111179192
 20
149.272602380794
 30
0.0
 11
497.2952600946959
 21
130.6047388403276
 31
0.0
  0
LINE
  5
66B
330
1F
100
AcDbEntity
  8
26
  6
Continuous
 62
     7
370
     9
100
AcDbLine
 10
510.9153111179193
 20
148.7726023807939
 30
0.0
 11
510.9153111179193
 21
147.2726023807939
 31
0.0
  0
LINE
  5
66C
330
1F
100
AcDbEntity
  8
26
  6
Continuous
 62
     7
370
     9
100
AcDbLine
 10
526.9153111179191
 20
147.2726023807939
 30
0.0
 11
510.9153111179193
 21
147.2726023807939
 31
0.0
  0
LINE
  5
66D
330
1F
100
AcDbEntity
  8
26
  6
Continuous
 62
     7
370
     9
100
AcDbLine
 10
510.9153111179193
 20
120.272602380794
 30
0.0
 11
510.9153111179193
 21
118.772602380794
 31
0.0
  0
LINE
  5
66E
330
1F
100
AcDbEntity
  8
26
  6
Continuous
 62
     7
370
     9
100
AcDbLine
 10
526.9153111179191
 20
147.2726023807939
 30
0.0
 11
526.9153111179191
 21
120.272602380794
 31
0.0
  0
LINE
  5
66F
330
1F
100
AcDbEntity
  8
26
  6
Continuous
 62
     7
370
     9
100
AcDbLine
 10
510.9153111179193
 20
148.7726023807939
 30
0.0
 11
508.9153111179192
 21
148.7726023807939
 31
0.0
  0
LINE
  5
670
330
1F
100
AcDbEntity
  8
26
  6
Continuous
 62
     7
370
     9
100
AcDbLine
 10
526.9153111179191
 20
120.272602380794
 30
0.0
 11
510.9153111179193
 21
120.272602380794
 31
0.0
  0
LINE
  5
671
330
1F
100
AcDbEntity
  8
26
  6
Continuous
 62
     7
370
     9
100
AcDbLine
 10
510.9153111179193
 20
118.772602380794
 30
0.0
 11
508.9153111179192
 21
118.772602380794
 31
0.0
  0
ARC
  5
672
330
1F
100
AcDbEntity
  8
26
  6
Continuous
 62
     7
370
     9
100
AcDbCircle
 10
496.4512095027814
 20
148.7726023807941
 30
0.0
 40
2.0
100
AcDbArc
 50
329.7232790784413
 51
329.9999999999911
  0
LINE
  5
673
330
1F
100
AcDbEntity
  8
26
  6
Continuous
 62
     7
370
     9
100
AcDbLine
 10
508.1153111179193
 20
167.7726023807941
 30
0.0
 11
508.1153111179193
 21
165.772602380794
 31
0.0
  0
ARC
  5
674
330
1F
100
AcDbEntity
  8
26
  6
Continuous
 62
     7
370
     9
100
AcDbCircle
 10
507.6153111179193
 20
165.772602380794
 30
0.0
 40
0.5
100
AcDbArc
 50
269.9999999999998
 51
0.0
  0
ARC
  5
675
330
1F
100
AcDbEntity
  8
26
  6
Continuous
 62
     7
370
     9
100
AcDbCircle
 10
507.6153111179193
 20
167.7726023807941
 30
0.0
 40
0.5
100
AcDbArc
 50
0.0
 51
89.99999999999991
  0
LINE
  5
676
330
1F
100
AcDbEntity
  8
26
  6
Continuous
 62
     7
370
     9
100
AcDbLine
 10
507.6153111179193
 20
168.272602380794
 30
0.0
 11
492.1307014270925
 21
168.2726023807941
 31
0.0
  0
LINE
  5
677
330
1F
100
AcDbEntity
  8
26
  6
Continuous
 62
     7
370
     9
100
AcDbLine
 10
498.3276869443722
 20
164.6947711242284
 30
0.0
 11
487.0029352914661
 21
171.2331195395394
 31
0.0
  0
ARC
  5
678
330
1F
100
AcDbEntity
  8
26
  6
Continuous
 62
     7
370
     9
100
AcDbCircle
 10
485.9153111179191
 20
156.2726023807941
 30
0.0
 40
15.0
100
AcDbArc
 50
85.84193276316756
 51
94.15806723683247
  0
LINE
  5
679
330
1F
100
AcDbEntity
  8
26
  6
Continuous
 62
     7
370
     9
100
AcDbLine
 10
487.0029352914661
 20
141.3120852220487
 30
0.0
 11
498.3276869443722
 21
147.8504336373596
 31
0.0
  0
ARC
  5
67A
330
1F
100
AcDbEntity
  8
26
  6
Continuous
 62
     7
370
     9
100
AcDbCircle
 10
485.9153111179191
 20
156.2726023807941
 30
0.0
 40
15.0
100
AcDbArc
 50
265.841932763167
 51
274.1580672368316
  0
ARC
  5
67B
330
1F
100
AcDbEntity
  8
26
  6
Continuous
 62
     7
370
     9
100
AcDbCircle
 10
485.9153111179191
 20
156.2726023807941
 30
0.0
 40
15.0
100
AcDbArc
 50
325.8419327631652
 51
334.1580672368309
  0
LINE
  5
67C
330
1F
100
AcDbEntity
  8
26
  6
Continuous
 62
     7
370
     9
100
AcDbLine
 10
499.4153111179191
 20
149.734253965483
 30
0.0
 11
499.4153111179192
 21
162.810950796105
 31
0.0
  0
ARC
  5
67D
330
1F
100
AcDbEntity
  8
26
  6
Continuous
 62
     7
370
     9
100
AcDbCircle
 10
485.9153111179191
 20
156.2726023807941
 30
0.0
 40
15.0
100
AcDbArc
 50
25.84193276316823
 51
34.15806723683404
  0
LINE
  5
67E
330
1F
100
AcDbEntity
  8
26
  6
Continuous
 62
     7
370
     9
100
AcDbLine
 10
499.4586111179192
 20
165.2726023807941
 30
0.0
 11
507.6153111179193
 21
165.272602380794
 31
0.0
  0
LINE
  5
67F
330
1F
100
AcDbEntity
  8
26
  6
Continuous
 62
     7
370
     9
100
AcDbLine
 10
499.4586111179192
 20
165.2726023807941
 30
0.0
 11
499.4586111179192
 21
168.272602380794
 31
0.0
  0
LINE
  5
680
330
1F
100
AcDbEntity
  8
26
  6
Continuous
 62
     7
370
     9
100
AcDbLine
 10
473.502935291466
 20
164.6947711242284
 30
0.0
 11
484.8276869443722
 21
171.2331195395394
 31
0.0
  0
ARC
  5
681
330
1F
100
AcDbEntity
  8
26
  6
Continuous
 62
     7
370
     9
100
AcDbCircle
 10
485.9153111179191
 20
156.2726023807941
 30
0.0
 40
15.0
100
AcDbArc
 50
145.8419327631659
 51
154.1580672368318
  0
LINE
  5
682
330
1F
100
AcDbEntity
  8
26
  6
Continuous
 62
     7
370
     9
100
AcDbLine
 10
472.4153111179192
 20
149.734253965483
 30
0.0
 11
472.4153111179191
 21
162.810950796105
 31
0.0
  0
ARC
  5
683
330
1F
100
AcDbEntity
  8
26
  6
Continuous
 62
     7
370
     9
100
AcDbCircle
 10
485.9153111179191
 20
156.2726023807941
 30
0.0
 40
15.0
100
AcDbArc
 50
205.8419327631674
 51
214.1580672368334
  0
LINE
  5
684
330
1F
100
AcDbEntity
  8
26
  6
Continuous
 62
     7
370
     9
100
AcDbLine
 10
484.8276869443722
 20
141.3120852220487
 30
0.0
 11
473.5029352914661
 21
147.8504336373596
 31
0.0
  0
CIRCLE
  5
685
330
1F
100
AcDbEntity
  8
26
  6
Continuous
 62
     7
370
     9
100
AcDbCircle
 10
485.9153111179191
 20
156.2726023807941
 30
0.0
 40
4.75
  0
CIRCLE
  5
686
330
1F
100
AcDbEntity
  8
26
  6
Continuous
 62
     7
370
     9
100
AcDbCircle
 10
485.9153111179191
 20
156.2726023807941
 30
0.0
 40
8.000000000000057
  0
CIRCLE
  5
687
330
1F
100
AcDbEntity
  8
26
  6
Continuous
 62
     7
370
     9
100
AcDbCircle
 10
485.9153111179191
 20
156.2726023807941
 30
0.0
 40
8.752434041133483
  0
CIRCLE
  5
688
330
1F
100
AcDbEntity
  8
26
  6
Continuous
 62
     7
370
     9
100
AcDbCircle
 10
485.9153111179191
 20
156.2726023807941
 30
0.0
 40
11.0
  0
CIRCLE
  5
689
330
1F
100
AcDbEntity
  8
26
  6
Continuous
 62
     7
370
     9
100
AcDbCircle
 10
485.9153111179191
 20
156.2726023807941
 30
0.0
 40
13.5
  0
LINE
  5
68A
330
1F
100
AcDbEntity
  8
26
  6
Continuous
 62
     7
370
     9
100
AcDbLine
 10
508.9153111179192
 20
148.7726023807939
 30
0.0
 11
508.9153111179192
 21
118.772602380794
 31
0.0
  0
LINE
  5
68B
330
1F
100
AcDbEntity
  8
26
  6
Continuous
 62
     7
370
     9
100
AcDbLine
 10
499.9153111179192
 20
149.2726023807938
 30
0.0
 11
499.1818102793406
 21
149.2726023807938
 31
0.0
  0
LINE
  5
68C
330
1F
100
AcDbEntity
  8
26
  6
Continuous
 62
     7
370
     9
100
AcDbLine
 10
499.6653111179191
 20
169.3726023807941
 30
0.0
 11
499.6653111179191
 21
168.2726023807942
 31
0.0
  0
LINE
  5
68D
330
1F
100
AcDbEntity
  8
26
  6
Continuous
 62
     7
370
     9
100
AcDbLine
 10
472.1653111179191
 20
169.3726023807941
 30
0.0
 11
472.1653111179191
 21
168.272602380794
 31
0.0
  0
ARC
  5
68E
330
1F
100
AcDbEntity
  8
26
  6
Continuous
 62
     7
370
     9
100
AcDbCircle
 10
479.9153111179191
 20
120.772602380794
 30
0.0
 40
2.0
100
AcDbArc
 50
217.0618341462803
 51
269.9999999999998
  0
ARC
  5
68F
330
1F
100
AcDbEntity
  8
26
  6
Continuous
 62
     7
370
     9
100
AcDbCircle
 10
476.723368875379
 20
118.3618961107794
 30
0.0
 40
2.0
100
AcDbArc
 50
37.06183414628098
 51
81.43143877461061
  0
LINE
  5
690
330
1F
100
AcDbEntity
  8
26
  6
Continuous
 62
     7
370
     9
100
AcDbLine
 10
526.0492857141348
 20
146.184978207247
 30
0.0
 11
510.9153111179193
 21
146.184978207247
 31
0.0
  0
LINE
  5
691
330
1F
100
AcDbEntity
  8
26
  6
Continuous
 62
     7
370
     9
100
AcDbLine
 10
510.9153111179193
 20
146.184978207247
 30
0.0
 11
510.9153111179193
 21
134.8602265543409
 31
0.0
  0
LINE
  5
692
330
1F
100
AcDbEntity
  8
26
  6
Continuous
 62
     7
370
     9
100
AcDbLine
 10
526.0492857141348
 20
147.2726023807939
 30
0.0
 11
526.0492857141348
 21
146.184978207247
 31
0.0
  0
ARC
  5
693
330
1F
100
AcDbEntity
  8
26
  6
Continuous
 62
     7
370
     9
100
AcDbCircle
 10
507.9710054101347
 20
140.5226023807939
 30
0.0
 40
18.94430570778445
100
AcDbArc
 50
342.6086979539717
 51
17.39130204602745
  0
LINE
  5
694
330
1F
100
AcDbEntity
  8
26
  6
Continuous
 62
     7
370
     9
100
AcDbLine
 10
526.0492857141348
 20
134.8602265543409
 30
0.0
 11
510.9153111179193
 21
134.8602265543409
 31
0.0
  0
LINE
  5
695
330
1F
100
AcDbEntity
  8
26
  6
Continuous
 62
     7
370
     9
100
AcDbLine
 10
526.0492857141348
 20
134.8602265543409
 30
0.0
 11
526.0492857141348
 21
132.684978207247
 31
0.0
  0
ARC
  5
696
330
1F
100
AcDbEntity
  8
26
  6
Continuous
 62
     7
370
     9
100
AcDbCircle
 10
507.9710054101349
 20
127.022602380794
 30
0.0
 40
18.94430570778434
100
AcDbArc
 50
342.6086979539718
 51
17.39130204602743
  0
LINE
  5
697
330
1F
100
AcDbEntity
  8
26
  6
Continuous
 62
     7
370
     9
100
AcDbLine
 10
526.0492857141348
 20
132.684978207247
 30
0.0
 11
510.9153111179193
 21
132.684978207247
 31
0.0
  0
LINE
  5
698
330
1F
100
AcDbEntity
  8
26
  6
Continuous
 62
     7
370
     9
100
AcDbLine
 10
510.9153111179193
 20
132.684978207247
 30
0.0
 11
510.9153111179193
 21
121.3602265543409
 31
0.0
  0
LINE
  5
699
330
1F
100
AcDbEntity
  8
26
  6
Continuous
 62
     7
370
     9
100
AcDbLine
 10
526.0492857141348
 20
121.3602265543409
 30
0.0
 11
526.0492857141348
 21
120.272602380794
 31
0.0
  0
LINE
  5
69A
330
1F
100
AcDbEntity
  8
26
  6
Continuous
 62
     7
370
     9
100
AcDbLine
 10
526.0492857141348
 20
121.3602265543409
 30
0.0
 11
510.9153111179193
 21
121.3602265543409
 31
0.0
  0
ARC
  5
69B
330
1F
100
AcDbEntity
  8
26
  6
Continuous
 62
     7
370
     9
100
AcDbCircle
 10
503.5153111179193
 20
145.372602380794
 30
0.0
 40
6.5
100
AcDbArc
 50
63.61220003875962
 51
116.3877999612439
  0
ARC
  5
69C
330
1F
100
AcDbEntity
  8
26
  6
Continuous
 62
     7
370
     9
100
AcDbCircle
 10
505.5153111179192
 20
149.4037312549432
 30
0.0
 40
2.0
100
AcDbArc
 50
0.0
 51
63.61220003875987
  0
LINE
  5
69D
330
1F
100
AcDbEntity
  8
26
  6
Continuous
 62
     7
370
     9
100
AcDbLine
 10
507.5153111179193
 20
149.4037312549432
 30
0.0
 11
507.5153111179193
 21
148.7726023807939
 31
0.0
  0
ARC
  5
69E
330
1F
100
AcDbEntity
  8
26
  6
Continuous
 62
     7
370
     9
100
AcDbCircle
 10
501.5153111179192
 20
149.4037312549433
 30
0.0
 40
2.0
100
AcDbArc
 50
116.3877999612438
 51
143.1301023541567
  0
ARC
  5
69F
330
1F
100
AcDbEntity
  8
26
  6
Continuous
 62
     7
370
     9
100
AcDbCircle
 10
485.4117323688736
 20
132.272602380794
 30
0.0
 40
12.0
100
AcDbArc
 50
269.9999999999994
 51
352.0106732336016
  0
ARC
  5
6A0
330
1F
100
AcDbEntity
  8
26
  6
Continuous
 62
     7
370
     9
100
AcDbCircle
 10
483.9153111179192
 20
132.272602380794
 30
0.0
 40
12.0
100
AcDbArc
 50
179.9999999999999
 51
269.9999999999994
  0
ARC
  5
6A1
330
1F
100
AcDbEntity
  8
26
  6
Continuous
 62
     7
370
     9
100
AcDbCircle
 10
507.3153111179191
 20
171.6447166006925
 30
0.0
 40
1.0
100
AcDbArc
 50
0.0
 51
63.25631604959768
  0
LINE
  5
6A2
330
1F
100
AcDbEntity
  8
26
  6
Continuous
 62
     7
370
     9
100
AcDbLine
 10
508.3153111179192
 20
171.6447166006925
 30
0.0
 11
508.3153111179192
 21
170.6726023807941
 31
0.0
  0
LINE
  5
6A3
330
1F
100
AcDbEntity
  8
26
  6
Continuous
 62
     7
370
     9
100
AcDbLine
 10
502.5125111179192
 20
170.6726023807942
 30
0.0
 11
510.5125111179192
 21
170.6726023807941
 31
0.0
  0
ARC
  5
6A4
330
1F
100
AcDbEntity
  8
26
  6
Continuous
 62
     7
370
     9
100
AcDbCircle
 10
505.5153111179191
 20
168.0726023807941
 30
0.0
 40
5.0
100
AcDbArc
 50
63.25631604959768
 51
116.7436839504023
  0
LINE
  5
6A5
330
1F
100
AcDbEntity
  8
26
  6
Continuous
 62
     7
370
     9
100
AcDbLine
 10
502.7153111179192
 20
171.6447166006925
 30
0.0
 11
502.7153111179192
 21
170.6726023807942
 31
0.0
  0
ARC
  5
6A6
330
1F
100
AcDbEntity
  8
26
  6
Continuous
 62
     7
370
     9
100
AcDbCircle
 10
503.7153111179192
 20
171.6447166006925
 30
0.0
 40
1.0
100
AcDbArc
 50
116.7436839504023
 51
179.9999999999998
  0
LINE
  5
6A7
330
1F
100
AcDbEntity
  8
26
  6
Continuous
 62
     7
370
     9
100
AcDbLine
 10
507.0153111179193
 20
164.6726023807943
 30
0.0
 11
504.0153111179193
 21
164.6726023807943
 31
0.0
  0
LINE
  5
6A8
330
1F
100
AcDbEntity
  8
26
  6
Continuous
 62
     7
370
     9
100
AcDbLine
 10
507.0153111179193
 20
165.2396612043236
 30
0.0
 11
507.0153111179193
 21
164.6726023807943
 31
0.0
  0
LINE
  5
6A9
330
1F
100
AcDbEntity
  8
26
  6
Continuous
 62
     7
370
     9
100
AcDbLine
 10
504.0153111179193
 20
165.1690729690295
 30
0.0
 11
504.0153111179193
 21
164.6726023807943
 31
0.0
  0
LINE
  5
6AA
330
1F
100
AcDbEntity
  8
26
  6
Continuous
 62
     7
370
     9
100
AcDbLine
 10
501.7653111179192
 20
182.8726023807941
 30
0.0
 11
501.7653111179192
 21
169.3726023807941
 31
0.0
  0
LINE
  5
6AB
330
1F
100
AcDbEntity
  8
26
  6
Continuous
 62
     7
370
     9
100
AcDbLine
 10
490.2254455387669
 20
169.3726023807941
 30
0.0
 11
501.7653111179192
 21
169.3726023807941
 31
0.0
  0
LINE
  5
6AC
330
1F
100
AcDbEntity
  8
26
  6
Continuous
 62
     7
370
     9
100
AcDbLine
 10
500.7653111179191
 20
183.8726023807941
 30
0.0
 11
495.8897879315243
 21
183.8726023807941
 31
0.0
  0
ARC
  5
6AD
330
1F
100
AcDbEntity
  8
26
  6
Continuous
 62
     7
370
     9
100
AcDbCircle
 10
495.8897879315243
 20
187.8726023807941
 30
0.0
 40
4.0
100
AcDbArc
 50
184.0856167799733
 51
269.9999999999998
  0
ARC
  5
6AE
330
1F
100
AcDbEntity
  8
26
  6
Continuous
 62
     7
370
     9
100
AcDbCircle
 10
500.7653111179191
 20
182.8726023807941
 30
0.0
 40
1.0
100
AcDbArc
 50
0.0
 51
89.99999999999991
  0
LINE
  5
6AF
330
1F
100
AcDbEntity
  8
26
  6
Continuous
 62
     7
370
     9
100
AcDbLine
 10
471.065311117919
 20
183.8726023807941
 30
0.0
 11
475.9408343043139
 21
183.8726023807941
 31
0.0
  0
ARC
  5
6B0
330
1F
100
AcDbEntity
  8
26
  6
Continuous
 62
     7
370
     9
100
AcDbCircle
 10
475.9408343043139
 20
187.8726023807941
 30
0.0
 40
4.0
100
AcDbArc
 50
269.9999999999998
 51
355.9143832200247
  0
ARC
  5
6B1
330
1F
100
AcDbEntity
  8
26
  6
Continuous
 62
     7
370
     9
100
AcDbCircle
 10
471.065311117919
 20
182.8726023807941
 30
0.0
 40
1.0
100
AcDbArc
 50
89.99999999999991
 51
179.9999999999998
  0
LINE
  5
6B2
330
1F
100
AcDbEntity
  8
26
  6
Continuous
 62
     7
370
     9
100
AcDbLine
 10
470.0653111179191
 20
182.8726023807941
 30
0.0
 11
470.0653111179191
 21
169.3726023807941
 31
0.0
  0
LINE
  5
6B3
330
1F
100
AcDbEntity
  8
26
  6
Continuous
 62
     7
370
     9
100
AcDbLine
 10
481.6051766970715
 20
169.3726023807941
 30
0.0
 11
470.0653111179191
 21
169.3726023807941
 31
0.0
  0
LINE
  5
6B4
330
1F
100
AcDbEntity
  8
26
  6
Continuous
 62
     7
370
     9
100
AcDbLine
 10
490.1841919145177
 20
198.5726023807941
 30
0.0
 11
485.9153111179191
 21
198.5726023807941
 31
0.0
  0
ARC
  5
6B5
330
1F
100
AcDbEntity
  8
26
  6
Continuous
 62
     7
370
     9
100
AcDbCircle
 10
490.1841919145177
 20
197.5726023807941
 30
0.0
 40
1.0
100
AcDbArc
 50
4.085616779971164
 51
89.99999999999991
  0
LINE
  5
6B6
330
1F
100
AcDbEntity
  8
26
  6
Continuous
 62
     7
370
     9
100
AcDbLine
 10
481.6464303213203
 20
198.5726023807941
 30
0.0
 11
485.9153111179191
 21
198.5726023807941
 31
0.0
  0
ARC
  5
6B7
330
1F
100
AcDbEntity
  8
26
  6
Continuous
 62
     7
370
     9
100
AcDbCircle
 10
481.6464303213203
 20
197.5726023807941
 30
0.0
 40
1.0
100
AcDbArc
 50
89.99999999999991
 51
175.9143832200288
  0
LINE
  5
6B8
330
1F
100
AcDbEntity
  8
26
  6
Continuous
 62
     7
370
     9
100
AcDbLine
 10
491.1816506143486
 20
197.6438494307819
 30
0.0
 11
491.8999531322013
 21
187.5876141808425
 31
0.0
  0
LINE
  5
6B9
330
1F
100
AcDbEntity
  8
26
  6
Continuous
 62
     7
370
     9
100
AcDbLine
 10
480.6489716214896
 20
197.6438494307819
 30
0.0
 11
479.9306691036369
 21
187.5876141808425
 31
0.0
  0
ARC
  5
6BA
330
1F
100
AcDbEntity
  8
11
  6
PHANTOM
 62
     3
370
     9
100
AcDbCircle
 10
526.9153111179191
 20
150.772602380794
 30
0.0
 40
13.0
100
AcDbArc
 50
89.99999999999991
 51
179.9999999999999
  0
LINE
  5
6BB
330
1F
100
AcDbEntity
  8
11
  6
PHANTOM
 62
     3
370
     9
100
AcDbLine
 10
513.9153111179191
 20
116.772602380794
 30
0.0
 11
513.9153111179191
 21
150.772602380794
 31
0.0
  0
LINE
  5
6BC
330
1F
100
AcDbEntity
  8
11
  6
PHANTOM
 62
     3
370
     9
100
AcDbLine
 10
526.9153111179191
 20
103.772602380794
 30
0.0
 11
526.9153111179191
 21
163.772602380794
 31
0.0
  0
ARC
  5
6BD
330
1F
100
AcDbEntity
  8
11
  6
PHANTOM
 62
     3
370
     9
100
AcDbCircle
 10
526.9153111179191
 20
116.772602380794
 30
0.0
 40
13.0
100
AcDbArc
 50
179.9999999999999
 51
269.9999999999998
  0
POINT
  5
6BE
330
1F
100
AcDbEntity
  8
26
  6
Continuous
 62
     7
370
     9
100
AcDbPoint
 10
503.5153111179193
 20
151.872602380794
 30
0.0
  0
LINE
  5
6BF
330
1F
100
AcDbEntity
  8
5
  6
Continuous
 62
     3
370
     9
100
AcDbLine
 10
471.1931026400758
 20
133.772602380794
 30
0.0
 11
462.9153111179191
 21
133.772602380794
 31
0.0
  0
CIRCLE
  5
6C0
330
1F
100
AcDbEntity
  8
26
  6
Continuous
 62
     7
370
     9
100
AcDbCircle
 10
485.9153111179191
 20
156.2726023807941
 30
0.0
 40
9.260640702822457
  0
LINE
  5
6C1
330
1F
100
AcDbEntity
  8
26
  6
Continuous
 62
     7
370
     9
100
AcDbLine
 10
506.7653111179192
 20
165.2337788513824
 30
0.0
 11
506.7653111179192
 21
164.6726023807943
 31
0.0
  0
LINE
  5
6C2
330
1F
100
AcDbEntity
  8
26
  6
Continuous
 62
     7
370
     9
100
AcDbLine
 10
504.2653111179192
 20
165.1749553219706
 30
0.0
 11
504.2653111179192
 21
164.6726023807943
 31
0.0
  0
LINE
  5
6C3
330
1F
100
AcDbEntity
  8
26
  6
Continuous
 62
     7
370
     9
100
AcDbLine
 10
510.5125111179192
 20
170.6726023807941
 30
0.0
 11
510.5125111179192
 21
168.2726023807942
 31
0.0
  0
LINE
  5
6C4
330
1F
100
AcDbEntity
  8
26
  6
Continuous
 62
     7
370
     9
100
AcDbLine
 10
502.5125111179192
 20
168.2726023807942
 30
0.0
 11
510.5125111179192
 21
168.2726023807942
 31
0.0
  0
LINE
  5
6C5
330
1F
100
AcDbEntity
  8
26
  6
Continuous
 62
     7
370
     9
100
AcDbLine
 10
502.5125111179192
 20
170.6726023807942
 30
0.0
 11
502.5125111179192
 21
168.2726023807942
 31
0.0
  0
LINE
  5
6C6
330
1F
100
AcDbEntity
  8
5
  6
Continuous
 62
     3
370
     9
100
AcDbLine
 10
471.8126347611841
 20
156.2726023807941
 30
0.0
 11
462.915311117919
 21
156.2726023807941
 31
0.0
  0
LINE
  5
6C7
330
1F
100
AcDbEntity
  8
5
  6
Continuous
 62
     3
370
     9
100
AcDbLine
 10
483.765311117919
 20
118.772602380794
 30
0.0
 11
462.915311117919
 21
118.772602380794
 31
0.0
  0
LINE
  5
6C8
330
1F
100
AcDbEntity
  8
5
  6
Continuous
 62
     3
370
     9
100
AcDbLine
 10
470.065311117919
 20
182.8726023807941
 30
0.0
 11
470.065311117919
 21
209.5726023807941
 31
0.0
  0
LINE
  5
6C9
330
1F
100
AcDbEntity
  8
5
  6
Continuous
 62
     3
370
     9
100
AcDbLine
 10
501.765311117919
 20
182.8726023807941
 30
0.0
 11
501.765311117919
 21
209.5726023807941
 31
0.0
  0
LINE
  5
6CA
330
1F
100
AcDbEntity
  8
5
  6
Continuous
 62
     3
370
     9
100
AcDbLine
 10
526.9153111179191
 20
120.2726023807939
 30
0.0
 11
536.4293778261504
 21
120.2726023807939
 31
0.0
  0
LINE
  5
6CB
330
1F
100
AcDbEntity
  8
5
  6
Continuous
 62
     3
370
     9
100
AcDbLine
 10
526.9153111179191
 20
147.2726023807939
 30
0.0
 11
536.4293778261504
 21
147.2726023807939
 31
0.0
  0
LINE
  5
6CC
330
1F
100
AcDbEntity
  8
5
  6
Continuous
 62
     3
370
     9
100
AcDbLine
 10
463.915311117919
 20
156.2726023807941
 30
0.0
 11
463.915311117919
 21
133.772602380794
 31
0.0
  0
INSERT
  5
6D3
330
1F
100
AcDbEntity
  8
5
100
AcDbBlockReference
  2
*G50
 10
0.0
 20
0.0
 30
0.0
  0
INSERT
  5
6DA
330
1F
100
AcDbEntity
  8
5
100
AcDbBlockReference
  2
*G51
 10
0.0
 20
0.0
 30
0.0
  0
LINE
  5
6DB
330
1F
100
AcDbEntity
  8
5
  6
Continuous
 62
     3
370
     9
100
AcDbLine
 10
463.915311117919
 20
133.772602380794
 30
0.0
 11
463.915311117919
 21
118.772602380794
 31
0.0
  0
INSERT
  5
6E2
330
1F
100
AcDbEntity
  8
5
100
AcDbBlockReference
  2
*G52
 10
0.0
 20
0.0
 30
0.0
  0
INSERT
  5
6E9
330
1F
100
AcDbEntity
  8
5
100
AcDbBlockReference
  2
*G53
 10
0.0
 20
0.0
 30
0.0
  0
LINE
  5
6EA
330
1F
100
AcDbEntity
  8
5
  6
Continuous
 62
     3
370
     9
100
AcDbLine
 10
470.065311117919
 20
208.5726023807941
 30
0.0
 11
501.765311117919
 21
208.5726023807941
 31
0.0
  0
INSERT
  5
6F1
330
1F
100
AcDbEntity
  8
5
100
AcDbBlockReference
  2
*G54
 10
0.0
 20
0.0
 30
0.0
  0
INSERT
  5
6F8
330
1F
100
AcDbEntity
  8
5
100
AcDbBlockReference
  2
*G55
 10
0.0
 20
0.0
 30
0.0
  0
LINE
  5
6F9
330
1F
100
AcDbEntity
  8
5
  6
Continuous
 62
     3
370
     9
100
AcDbLine
 10
535.4293778261502
 20
147.2726023807939
 30
0.0
 11
535.4293778261502
 21
120.2726023807939
 31
0.0
  0
INSERT
  5
700
330
1F
100
AcDbEntity
  8
5
100
AcDbBlockReference
  2
*G56
 10
0.0
 20
0.0
 30
0.0
  0
INSERT
  5
707
330
1F
100
AcDbEntity
  8
5
100
AcDbBlockReference
  2
*G57
 10
0.0
 20
0.0
 30
0.0
  0
TEXT
  5
708
330
1F
100
AcDbEntity
  8
5
  6
Continuous
 62
     3
370
     9
100
AcDbText
 10
463.415311117919
 20
141.022602380794
 30
0.0
 40
2.5
  1
22.5
 50
89.99999999999991
 41
1.09375
100
AcDbText
  0
TEXT
  5
709
330
1F
100
AcDbEntity
  8
5
  6
Continuous
 62
     3
370
     9
100
AcDbText
 10
463.415311117919
 20
124.272602380794
 30
0.0
 40
2.5
  1
15
 50
89.99999999999991
 41
1.09375
100
AcDbText
  0
TEXT
  5
70A
330
1F
100
AcDbEntity
  8
5
  6
Continuous
 62
     3
370
     9
100
AcDbText
 10
480.915311117919
 20
209.0726023807941
 30
0.0
 40
2.5
  1
φ31.7
 41
0.9114583333333333
100
AcDbText
  0
TEXT
  5
70B
330
1F
100
AcDbEntity
  8
5
  6
Continuous
 62
     3
370
     9
100
AcDbText
 10
534.4293778261502
 20
124.6726023807939
 30
0.0
 40
2.5
  1
Ｆ27×（φ30）
 50
89.99999999999991
 41
0.7031249999999994
100
AcDbText
  0
LINE
  5
70C
330
1F
100
AcDbEntity
  8
5
  6
Continuous
 62
     3
370
     9
100
AcDbLine
 10
437.3952199083039
 20
258.8348707032499
 30
0.0
 11
430.5584335450637
 21
258.8348707032499
 31
0.0
  0
LINE
  5
70D
330
1F
100
AcDbEntity
  8
5
  6
Continuous
 62
     3
370
     9
100
AcDbLine
 10
536.002219474505
 20
151.7188708572619
 30
0.0
 11
548.002219474505
 21
151.7188708572619
 31
0.0
  0
LINE
  5
70E
330
1F
100
AcDbEntity
  8
5
  6
Continuous
 62
     3
370
     9
100
AcDbLine
 10
526.9153111179191
 20
133.7726023807939
 30
0.0
 11
536.002219474505
 21
151.7188708572619
 31
0.0
  0
INSERT
  5
715
330
1F
100
AcDbEntity
  8
5
100
AcDbBlockReference
  2
*G58
 10
0.0
 20
0.0
 30
0.0
  0
TEXT
  5
716
330
1F
100
AcDbEntity
  8
5
  6
Continuous
 62
     3
370
     9
100
AcDbText
 10
536.1185042787408
 20
152.067420006191
 30
0.0
 40
3.0
  1
Ｒｃ1/2
 41
0.78125
100
AcDbText
  0
LINE
  5
717
330
1F
100
AcDbEntity
  8
5
  6
Continuous
 62
     3
370
     9
100
AcDbLine
 10
423.0385698791009
 20
156.2726023807941
 30
0.0
 11
429.2584090321934
 21
156.2726023807941
 31
0.0
  0
VIEWPORT
  5
2A
330
1B
100
AcDbEntity
 67
     1
  8
0
100
AcDbViewport
 10
420.0
 20
297.0
 30
0.0
 40
840.0
 41
594.0
 68
     1
 69
     1
 12
420.0
 22
297.0
 13
0.0
 23
0.0
 14
0.5
 24
0.5
 15
0.5
 25
0.5
 16
0.0
 26
0.0
 36
1.0
 17
0.0
 27
0.0
 37
0.0
 42
50.0
 43
0.0
 44
0.0
 45
9.0
 50
0.0
 51
0.0
 72
   100
 90
    32800
  1

281
     0
 71
     1
 74
     0
110
0.0
120
0.0
130
0.0
111
1.0
121
0.0
131
0.0
112
0.0
122
1.0
132
0.0
 79
     0
146
0.0
  0
ENDSEC
  0
SECTION
  2
OBJECTS
  0
DICTIONARY
  5
C
330
0
100
AcDbDictionary
281
     1
  3
ACAD_GROUP
350
D
  3
ACAD_LAYOUT
350
1A
  3
ACAD_MLINESTYLE
350
17
  3
ACAD_PLOTSETTINGS
350
19
  3
ACAD_PLOTSTYLENAME
350
E
  3
AcDbVariableDictionary
350
718
  0
DICTIONARY
  5
D
102
{ACAD_REACTORS
330
C
102
}
330
C
100
AcDbDictionary
281
     1
  0
DICTIONARY
  5
1A
102
{ACAD_REACTORS
330
C
102
}
330
C
100
AcDbDictionary
281
     1
  3
Layout1
350
1E
  3
Layout2
350
26
  3
Model
350
22
  0
DICTIONARY
  5
17
102
{ACAD_REACTORS
330
C
102
}
330
C
100
AcDbDictionary
281
     1
  3
Standard
350
18
  0
DICTIONARY
  5
19
102
{ACAD_REACTORS
330
C
102
}
330
C
100
AcDbDictionary
281
     1
  0
ACDBDICTIONARYWDFLT
  5
E
102
{ACAD_REACTORS
330
C
102
}
330
C
100
AcDbDictionary
281
     1
  3
Normal
350
F
100
AcDbDictionaryWithDefault
340
F
  0
DICTIONARY
  5
718
102
{ACAD_REACTORS
330
C
102
}
330
C
100
AcDbDictionary
281
     1
  3
DIMASSOC
350
719
  0
LAYOUT
  5
1E
102
{ACAD_REACTORS
330
1A
102
}
330
1A
100
AcDbPlotSettings
  1

  2

  4

  6

 40
0.0
 41
0.0
 42
0.0
 43
0.0
 44
0.0
 45
0.0
 46
0.0
 47
0.0
 48
0.0
 49
0.0
140
0.0
141
0.0
142
1.0
143
1.0
 70
   688
 72
     0
 73
     0
 74
     5
  7

 75
    16
147
1.0
148
0.0
149
0.0
100
AcDbLayout
  1
Layout1
 70
     1
 71
     1
 10
0.0
 20
0.0
 11
420.0
 21
297.0
 12
0.0
 22
0.0
 32
0.0
 14
0.0
 24
0.0
 34
0.0
 15
420.0
 25
297.0
 35
0.0
146
0.0
 13
0.0
 23
0.0
 33
0.0
 16
1.0
 26
0.0
 36
0.0
 17
0.0
 27
1.0
 37
0.0
 76
     0
330
1B
331
2A
  0
LAYOUT
  5
26
102
{ACAD_REACTORS
330
1A
102
}
330
1A
100
AcDbPlotSettings
  1

  2

  4

  6

 40
0.0
 41
0.0
 42
0.0
 43
0.0
 44
0.0
 45
0.0
 46
0.0
 47
0.0
 48
0.0
 49
0.0
140
0.0
141
0.0
142
1.0
143
1.0
 70
   688
 72
     0
 73
     0
 74
     5
  7

 75
    16
147
1.0
148
0.0
149
0.0
100
AcDbLayout
  1
Layout2
 70
     1
 71
     2
 10
0.0
 20
0.0
 11
0.0
 21
0.0
 12
0.0
 22
0.0
 32
0.0
 14
0.0
 24
0.0
 34
0.0
 15
0.0
 25
0.0
 35
0.0
146
0.0
 13
0.0
 23
0.0
 33
0.0
 16
1.0
 26
0.0
 36
0.0
 17
0.0
 27
1.0
 37
0.0
 76
     0
330
23
  0
LAYOUT
  5
22
102
{ACAD_REACTORS
330
1A
102
}
330
1A
100
AcDbPlotSettings
  1

  2

  4

  6

 40
0.0
 41
0.0
 42
0.0
 43
0.0
 44
0.0
 45
0.0
 46
0.0
 47
0.0
 48
0.0
 49
0.0
140
0.0
141
0.0
142
1.0
143
1.0
 70
  1712
 72
     0
 73
     0
 74
     0
  7

 75
     0
147
1.0
148
0.0
149
0.0
100
AcDbLayout
  1
Model
 70
     1
 71
     0
 10
0.0
 20
0.0
 11
840.0
 21
594.0
 12
0.0
 22
0.0
 32
0.0
 14
0.0
 24
0.0
 34
0.0
 15
840.0
 25
594.0
 35
0.0
146
0.0
 13
0.0
 23
0.0
 33
0.0
 16
1.0
 26
0.0
 36
0.0
 17
0.0
 27
1.0
 37
0.0
 76
     0
330
1F
  0
MLINESTYLE
  5
18
102
{ACAD_REACTORS
330
17
102
}
330
17
100
AcDbMlineStyle
  2
Standard
 70
     0
  3

 62
   256
 51
90.0
 52
90.0
 71
     2
 49
0.5
 62
   256
  6
BYLAYER
 49
-0.5
 62
   256
  6
BYLAYER
  0
ACDBPLACEHOLDER
  5
F
102
{ACAD_REACTORS
330
E
102
}
330
E
  0
DICTIONARYVAR
  5
719
102
{ACAD_REACTORS
330
718
102
}
330
718
100
DictionaryVariables
280
     0
  1
1
  0
ENDSEC
  0
EOF
