  0
SECTION
  2
HEADER
  9
$ACADVER
  1
AC1014
  9
$ACADMAINTVER
 70
     0
  9
$DWGCODEPAGE
  3
DOS932
  9
$INSBASE
 10
0.0
 20
0.0
 30
0.0
  9
$EXTMIN
 10
0.0
 20
0.0
 30
0.0
  9
$EXTMAX
 10
2100.0
 20
1480.0
 30
0.0
  9
$LIMMIN
 10
0.0
 20
0.0
  9
$LIMMAX
 10
2100.0
 20
1480.0
  9
$ORTHOMODE
 70
     0
  9
$REGENMODE
 70
     1
  9
$FILLMODE
 70
     1
  9
$QTEXTMODE
 70
     0
  9
$MIRRTEXT
 70
     1
  9
$DRAGMODE
 70
     2
  9
$LTSCALE
 40
2.5
  9
$OSMODE
 70
     0
  9
$ATTMODE
 70
     1
  9
$TEXTSIZE
 40
34.0
  9
$TRACEWID
 40
0.05
  9
$TEXTSTYLE
  7
STANDARD
  9
$CLAYER
  8
0
  9
$CELTYPE
  6
CONTINUOUS
  9
$CECOLOR
 62
   256
  9
$CELTSCALE
 40
1.0
  9
$DELOBJ
 70
     1
  9
$DISPSILH
 70
     0
  9
$DIMSCALE
 40
10.0
  9
$DIMASZ
 40
2.0
  9
$DIMEXO
 40
2.0
  9
$DIMDLI
 40
10.0
  9
$DIMRND
 40
0.0
  9
$DIMDLE
 40
0.0
  9
$DIMEXE
 40
2.0
  9
$DIMTP
 40
0.0
  9
$DIMTM
 40
0.0
  9
$DIMTXT
 40
4.0
  9
$DIMCEN
 40
0.09
  9
$DIMTSZ
 40
0.0
  9
$DIMTOL
 70
     0
  9
$DIMLIM
 70
     0
  9
$DIMTIH
 70
     0
  9
$DIMTOH
 70
     0
  9
$DIMSE1
 70
     0
  9
$DIMSE2
 70
     0
  9
$DIMTAD
 70
     3
  9
$DIMZIN
 70
     0
  9
$DIMBLK
  1

  9
$DIMASO
 70
     1
  9
$DIMSHO
 70
     1
  9
$DIMPOST
  1

  9
$DIMAPOST
  1

  9
$DIMALT
 70
     0
  9
$DIMALTD
 70
     2
  9
$DIMALTF
 40
25.4
  9
$DIMLFAC
 40
1.0
  9
$DIMTOFL
 70
     1
  9
$DIMTVP
 40
0.7
  9
$DIMTIX
 70
     0
  9
$DIMSOXD
 70
     0
  9
$DIMSAH
 70
     0
  9
$DIMBLK1
  1

  9
$DIMBLK2
  1

  9
$DIMSTYLE
  2
STANDARD
  9
$DIMCLRD
 70
     0
  9
$DIMCLRE
 70
     0
  9
$DIMCLRT
 70
     0
  9
$DIMTFAC
 40
0.5
  9
$DIMGAP
 40
0.0
  9
$DIMJUST
 70
     0
  9
$DIMSD1
 70
     0
  9
$DIMSD2
 70
     0
  9
$DIMTOLJ
 70
     1
  9
$DIMTZIN
 70
     0
  9
$DIMALTZ
 70
     0
  9
$DIMALTTZ
 70
     0
  9
$DIMFIT
 70
     3
  9
$DIMUPT
 70
     0
  9
$DIMUNIT
 70
     2
  9
$DIMDEC
 70
     2
  9
$DIMTDEC
 70
     4
  9
$DIMALTU
 70
     2
  9
$DIMALTTD
 70
     2
  9
$DIMTXSTY
  7
STANDARD
  9
$DIMAUNIT
 70
     0
  9
$LUNITS
 70
     2
  9
$LUPREC
 70
     4
  9
$SKETCHINC
 40
0.1
  9
$FILLETRAD
 40
0.0
  9
$AUNITS
 70
     0
  9
$AUPREC
 70
     0
  9
$MENU
  1
acad
  9
$ELEVATION
 40
0.0
  9
$PELEVATION
 40
0.0
  9
$THICKNESS
 40
0.0
  9
$LIMCHECK
 70
     0
  9
$BLIPMODE
 70
     1
  9
$CHAMFERA
 40
0.0
  9
$CHAMFERB
 40
0.0
  9
$CHAMFERC
 40
0.0
  9
$CHAMFERD
 40
0.0
  9
$SKPOLY
 70
     0
  9
$TDCREATE
 40
2454088.687384259
  9
$TDUPDATE
 40
2454088.687384259
  9
$TDINDWG
 40
0.0000000000
  9
$TDUSRTIMER
 40
0.0000000000
  9
$USRTIMER
 70
     1
  9
$ANGBASE
 50
0.0
  9
$ANGDIR
 70
     0
  9
$PDMODE
 70
     0
  9
$PDSIZE
 40
0.0
  9
$PLINEWID
 40
0.0
  9
$COORDS
 70
     0
  9
$SPLFRAME
 70
     0
  9
$SPLINETYPE
 70
     6
  9
$SPLINESEGS
 70
     8
  9
$ATTDIA
 70
     0
  9
$ATTREQ
 70
     1
  9
$HANDLING
 70
     1
  9
$HANDSEED
  5
69F
  9
$SURFTAB1
 70
     6
  9
$SURFTAB2
 70
     6
  9
$SURFTYPE
 70
     6
  9
$SURFU
 70
     6
  9
$SURFV
 70
     6
  9
$UCSNAME
  2

  9
$UCSORG
 10
0.0
 20
0.0
 30
0.0
  9
$UCSXDIR
 10
1.0
 20
0.0
 30
0.0
  9
$UCSYDIR
 10
0.0
 20
1.0
 30
0.0
  9
$PUCSNAME
  2

  9
$PUCSORG
 10
0.0
 20
0.0
 30
0.0
  9
$PUCSXDIR
 10
1.0
 20
0.0
 30
0.0
  9
$PUCSYDIR
 10
0.0
 20
1.0
 30
0.0
  9
$USERI1
 70
     0
  9
$USERI2
 70
     0
  9
$USERI3
 70
     0
  9
$USERI4
 70
     0
  9
$USERI5
 70
     0
  9
$USERR1
 40
0.0
  9
$USERR2
 40
0.0
  9
$USERR3
 40
0.0
  9
$USERR4
 40
0.0
  9
$USERR5
 40
0.0
  9
$WORLDVIEW
 70
     1
  9
$SHADEDGE
 70
     3
  9
$SHADEDIF
 70
    70
  9
$TILEMODE
 70
     1
  9
$MAXACTVP
 70
    16
  9
$PINSBASE
 10
0.0
 20
0.0
 30
0.0
  9
$PLIMCHECK
 70
     0
  9
$PEXTMIN
 10
0.0
 20
0.0
 30
0.0
  9
$PEXTMAX
 10
210.0
 20
148.0
 30
0.0
  9
$PLIMMIN
 10
0.0
 20
0.0
  9
$PLIMMAX
 10
210.0
 20
148.0
  9
$UNITMODE
 70
     0
  9
$VISRETAIN
 70
     0
  9
$PLINEGEN
 70
     1
  9
$PSLTSCALE
 70
     0
  9
$TREEDEPTH
 70
  3020
  9
$PICKSTYLE
 70
     1
  9
$CMLSTYLE
  2
STANDARD
  9
$CMLJUST
 70
     0
  9
$CMLSCALE
 40
1.0
  9
$PROXYGRAPHICS
 70
     0
  9
$MEASUREMENT
 70
     0
  0
ENDSEC
  0
SECTION
  2
CLASSES
  0
CLASS
  1
LWPOLYLINE
  2
AcDbPolyline
  3
"AutoCAD"
 90
        0
280
     0
281
     1
  0
CLASS
  1
IMAGE
  2
AcDbRasterImage
  3
ISM
 90
      127
280
     0
281
     1
  0
CLASS
  1
OLE2FRAME
  2
AcDbOle2Frame
  3
""
 90
        0
280
     0
281
     1
  0
CLASS
  1
HATCH
  2
AcDbHatch
  3
"ACAD_SEDONA"
 90
        0
280
     0
281
     1
  0
CLASS
  1
DICTIONARYVAR
  2
AcDbDictionaryVar
  3
"AutoCAD"
 90
        0
280
     0
281
     0
  0
CLASS
  1
RASTERVARIABLES
  2
AcDbRasterVariables
  3
ISM
 90
        0
280
     0
281
     0
  0
CLASS
  1
IMAGEDEF
  2
AcDbRasterImageDef
  3
ISM
 90
        0
280
     0
281
     0
  0
CLASS
  1
IMAGEDEF_REACTOR
  2
AcDbRasterImageDefReactor
  3
ISM
 90
        1
280
     0
281
     0
  0
CLASS
  1
IDBUFFER
  2
AcDbIdBuffer
  3
"Acad"
 90
        0
280
     0
281
     0
  0
CLASS
  1
SPATIAL_FILTER
  2
AcDbSpatialFilter
  3
"Acad"
 90
        0
280
     0
281
     0
  0
CLASS
  1
XRECORD
  2
AcDbXrecord
  3
"<Built In>"
 90
        0
280
     0
281
     0
  0
CLASS
  1
SORTENTSTABLE
  2
AcDbSortentsTable
  3
"AutoCAD"
 90
        0
280
     0
281
     0
  0
CLASS
  1
LAYER_INDEX
  2
AcDbLayerIndex
  3
"Acad"
 90
        0
280
     0
281
     0
  0
CLASS
  1
SPATIAL_INDEX
  2
AcDbSpatialIndex
  3
"Acad"
 90
        0
280
     0
281
     0
  0
CLASS
  1
OBJECT_PTR
  2
CAseDLPNTableRecord
  3
"ASE-LPNTableRecord"
 90
        1
280
     0
281
     0
  0
CLASS
  1
LAYOUT
  2
AcDbLayout
  3
"AutoCAD 2000"
 90
        1
280
     0
281
     0
  0
CLASS
  1
PLOTSETTINGS
  2
AcDbPlotSettings
  3
"AutoCAD 2000"
 90
        1
280
     0
281
     0
  0
CLASS
  1
ACDBDICTIONARYWDFLT
  2
AcDbDictionaryWithDefault
  3
"AutoCAD 2000"
 90
        1
280
     0
281
     0
  0
CLASS
  1
ACDBPLACEHOLDER
  2
AcDbPlaceHolder
  3
"AutoCAD 2000"
 90
        1
280
     0
281
     0
  0
CLASS
  1
VBA_PROJECT
  2
AcDbVbaProject
  3
"acadvba"
 90
        1
280
     0
281
     0
  0
CLASS
  1
WIPEOUT
  2
AcDbWipeout
  3
WipeOut|AutoCAD Express Tool|expresstools@autodesk.com
 90
      127
280
     0
281
     1
  0
CLASS
  1
WIPEOUTVARIABLES
  2
AcDbWipeoutVariables
  3
WipeOut|AutoCAD Express Tool|expresstools@autodesk.com
 90
        0
280
     0
281
     0
  0
CLASS
  1
RTEXT
  2
RText
  3
RText|AutoCAD Express Tool|expresstools@autodesk.com
 90
        0
280
     0
281
     1
  0
CLASS
  1
ARCALIGNEDTEXT
  2
AcDbArcAlignedText
  3
ATEXT|AutoCAD Express Tool|expresstools@autodesk.com
 90
        0
280
     0
281
     1
  0
ENDSEC
  0
SECTION
  2
TABLES
  0
TABLE
  2
VPORT
  5
7
100
AcDbSymbolTable
 70
     1
  0
VPORT
  5
15
100
AcDbSymbolTableRecord
100
AcDbViewportTableRecord
  2
*ACTIVE
 70
     0
 10
0.0
 20
0.0
 11
1.0
 21
1.0
 12
6.591288
 22
4.579184
 13
0.0
 23
0.0
 14
1.0
 24
1.0
 15
0.0
 25
0.0
 16
0.0
 26
0.0
 36
1.0
 17
0.0
 27
0.0
 37
0.0
 40
9.158369
 41
0.688564
 42
50.0
 43
0.0
 44
0.0
 50
0.0
 51
0.0
 71
     0
 72
   100
 73
     1
 74
     1
 75
     0
 76
     0
 77
     0
 78
     0
  0
ENDTAB
  0
TABLE
  2
LTYPE
  5
4
100
AcDbSymbolTable
 70
     9
  0
LTYPE
  5
11
100
AcDbSymbolTableRecord
100
AcDbLinetypeTableRecord
  2
BYBLOCK
 70
    64
  3

 72
    65
 73
     0
 40
0.0
  0
LTYPE
  5
12
100
AcDbSymbolTableRecord
100
AcDbLinetypeTableRecord
  2
BYLAYER
 70
    64
  3

 72
    65
 73
     0
 40
0.0
  0
LTYPE
  5
13
100
AcDbSymbolTableRecord
100
AcDbLinetypeTableRecord
  2
CONTINUOUS
 70
    64
  3
Solid line
 72
    65
 73
     0
 40
0.0
  0
LTYPE
  5
1E
100
AcDbSymbolTableRecord
100
AcDbLinetypeTableRecord
  2
HIDDEN
 70
    64
  3
- - - - - - - - 
 72
    65
 73
     2
 40
12.6
 49
8.4
 74
     0
 49
-4.2
 74
     0
  0
LTYPE
  5
1F
100
AcDbSymbolTableRecord
100
AcDbLinetypeTableRecord
  2
DOT
 70
    64
  3
･ ･ ･ ･ ･ ･ ･ ･ 
 72
    65
 73
     2
 40
8.0
 49
6.0
 74
     0
 49
-2.0
 74
     0
  0
LTYPE
  5
20
100
AcDbSymbolTableRecord
100
AcDbLinetypeTableRecord
  2
CENTER
 70
    64
  3
- ･ - ･ - ･ - ･ 
 72
    65
 73
     4
 40
50.5
 49
30.0
 74
     0
 49
-9.0
 74
     0
 49
2.5
 74
     0
 49
-9.0
 74
     0
  0
LTYPE
  5
21
100
AcDbSymbolTableRecord
100
AcDbLinetypeTableRecord
  2
PHANTOM
 70
    64
  3
- ･･ - ･･ - ･･ - ･･ 
 72
    65
 73
     6
 40
58.0
 49
30.0
 74
     0
 49
-9.0
 74
     0
 49
2.5
 74
     0
 49
-5.0
 74
     0
 49
2.5
 74
     0
 49
-9.0
 74
     0
  0
LTYPE
  5
22
100
AcDbSymbolTableRecord
100
AcDbLinetypeTableRecord
  2
ACAD_ISO06W100
 70
    64
  3
____ ... ____ ... ____
 72
    65
 73
     8
 40
37.5
 49
24.0
 74
     0
 49
-3.0
 74
     0
 49
0.5
 74
     0
 49
-3.0
 74
     0
 49
0.5
 74
     0
 49
-3.0
 74
     0
 49
0.5
 74
     0
 49
-3.0
 74
     0
  0
LTYPE
  5
23
100
AcDbSymbolTableRecord
100
AcDbLinetypeTableRecord
  2
ACAD_ISO14W100
 70
    64
  3
__ . . . __ . . . __ . . . 
 72
    65
 73
     8
 40
25.5
 49
12.0
 74
     0
 49
-3.0
 74
     0
 49
0.5
 74
     0
 49
-3.0
 74
     0
 49
0.5
 74
     0
 49
-3.0
 74
     0
 49
0.5
 74
     0
 49
-3.0
 74
     0
  0
ENDTAB
  0
TABLE
  2
LAYER
  5
2
100
AcDbSymbolTable
 70
    28
  0
LAYER
  5
14
100
AcDbSymbolTableRecord
100
AcDbLayerTableRecord
  2
0
 70
     0
 62
     7
  6
CONTINUOUS
  0
LAYER
  5
24
100
AcDbSymbolTableRecord
100
AcDbLayerTableRecord
  2
1
 70
     0
 62
     7
  6
CONTINUOUS
  0
LAYER
  5
25
100
AcDbSymbolTableRecord
100
AcDbLayerTableRecord
  2
2
 70
     0
 62
   134
  6
CONTINUOUS
  0
LAYER
  5
26
100
AcDbSymbolTableRecord
100
AcDbLayerTableRecord
  2
3
 70
     0
 62
   214
  6
CONTINUOUS
  0
LAYER
  5
27
100
AcDbSymbolTableRecord
100
AcDbLayerTableRecord
  2
4
 70
     0
 62
     3
  6
CONTINUOUS
  0
LAYER
  5
28
100
AcDbSymbolTableRecord
100
AcDbLayerTableRecord
  2
5
 70
     0
 62
     3
  6
CONTINUOUS
  0
LAYER
  5
29
100
AcDbSymbolTableRecord
100
AcDbLayerTableRecord
  2
6
 70
     0
 62
     2
  6
CONTINUOUS
  0
LAYER
  5
2A
100
AcDbSymbolTableRecord
100
AcDbLayerTableRecord
  2
7
 70
     0
 62
     4
  6
CONTINUOUS
  0
LAYER
  5
2B
100
AcDbSymbolTableRecord
100
AcDbLayerTableRecord
  2
8
 70
     0
 62
     1
  6
CONTINUOUS
  0
LAYER
  5
2C
100
AcDbSymbolTableRecord
100
AcDbLayerTableRecord
  2
9
 70
     0
 62
     2
  6
CONTINUOUS
  0
LAYER
  5
2D
100
AcDbSymbolTableRecord
100
AcDbLayerTableRecord
  2
10
 70
     0
 62
     3
  6
CONTINUOUS
  0
LAYER
  5
2E
100
AcDbSymbolTableRecord
100
AcDbLayerTableRecord
  2
11
 70
     0
 62
   251
  6
CONTINUOUS
  0
LAYER
  5
2F
100
AcDbSymbolTableRecord
100
AcDbLayerTableRecord
  2
12
 70
     0
 62
     7
  6
CONTINUOUS
  0
LAYER
  5
30
100
AcDbSymbolTableRecord
100
AcDbLayerTableRecord
  2
13
 70
     0
 62
   216
  6
CONTINUOUS
  0
LAYER
  5
31
100
AcDbSymbolTableRecord
100
AcDbLayerTableRecord
  2
14
 70
     0
 62
    56
  6
CONTINUOUS
  0
LAYER
  5
32
100
AcDbSymbolTableRecord
100
AcDbLayerTableRecord
  2
15
 70
     0
 62
    96
  6
CONTINUOUS
  0
LAYER
  5
33
100
AcDbSymbolTableRecord
100
AcDbLayerTableRecord
  2
16
 70
     0
 62
    16
  6
CONTINUOUS
  0
LAYER
  5
34
100
AcDbSymbolTableRecord
100
AcDbLayerTableRecord
  2
17
 70
     0
 62
   132
  6
CONTINUOUS
  0
LAYER
  5
35
100
AcDbSymbolTableRecord
100
AcDbLayerTableRecord
  2
18
 70
     0
 62
   212
  6
CONTINUOUS
  0
LAYER
  5
36
100
AcDbSymbolTableRecord
100
AcDbLayerTableRecord
  2
19
 70
     0
 62
    52
  6
CONTINUOUS
  0
LAYER
  5
37
100
AcDbSymbolTableRecord
100
AcDbLayerTableRecord
  2
20
 70
     0
 62
     1
  6
CONTINUOUS
  0
LAYER
  5
38
100
AcDbSymbolTableRecord
100
AcDbLayerTableRecord
  2
21
 70
     0
 62
     7
  6
CONTINUOUS
  0
LAYER
  5
39
100
AcDbSymbolTableRecord
100
AcDbLayerTableRecord
  2
22
 70
     0
 62
     7
  6
CONTINUOUS
  0
LAYER
  5
3A
100
AcDbSymbolTableRecord
100
AcDbLayerTableRecord
  2
23
 70
     0
 62
     7
  6
CONTINUOUS
  0
LAYER
  5
3B
100
AcDbSymbolTableRecord
100
AcDbLayerTableRecord
  2
24
 70
     0
 62
     7
  6
CONTINUOUS
  0
LAYER
  5
3C
100
AcDbSymbolTableRecord
100
AcDbLayerTableRecord
  2
25
 70
     0
 62
     7
  6
CONTINUOUS
  0
LAYER
  5
3D
100
AcDbSymbolTableRecord
100
AcDbLayerTableRecord
  2
26
 70
     0
 62
     1
  6
CONTINUOUS
  0
LAYER
  5
3E
100
AcDbSymbolTableRecord
100
AcDbLayerTableRecord
  2
27
 70
     0
 62
     4
  6
CONTINUOUS
  0
ENDTAB
  0
TABLE
  2
STYLE
  5
3
100
AcDbSymbolTable
 70
     2
  0
STYLE
  5
17
100
AcDbSymbolTableRecord
100
AcDbTextStyleTableRecord
  2
STANDARD
 70
     0
 40
0.0
 41
1.0
 50
0.0
 71
     0
 42
0.0
  3
txt
  4
bigfont
  0
STYLE
  5
1D
100
AcDbSymbolTableRecord
100
AcDbTextStyleTableRecord
  2
T_STANDARD
 70
    68
 40
10.0
 41
1.0
 50
0.0
 71
     0
 42
10.0
  3
txt
  4
bigfont
  0
ENDTAB
  0
TABLE
  2
VIEW
  5
5
100
AcDbSymbolTable
 70
     0
  0
ENDTAB
  0
TABLE
  2
UCS
  5
6
100
AcDbSymbolTable
 70
     0
  0
ENDTAB
  0
TABLE
  2
APPID
  5
8
100
AcDbSymbolTable
 70
     1
  0
APPID
  5
16
100
AcDbSymbolTableRecord
100
AcDbRegAppTableRecord
  2
ACAD
 70
     0
  0
ENDTAB
  0
TABLE
  2
DIMSTYLE
  5
9
100
AcDbSymbolTable
 70
     1
  0
DIMSTYLE
105
18
100
AcDbSymbolTableRecord
100
AcDbDimStyleTableRecord
  2
STANDARD
 70
     0
  3

  4

  5

  6

  7

 40
1.0
 41
0.18
 42
0.0625
 43
0.38
 44
0.18
 45
0.0
 46
0.0
 47
0.0
 48
0.0
 71
     0
 72
     0
 73
     1
 74
     1
 75
     0
 76
     0
 77
     0
 78
     0
140
0.18
141
0.09
142
0.0
143
25.4
144
1.0
145
0.0
146
1.0
147
0.09
170
     0
171
     2
172
     0
173
     0
174
     0
175
     0
176
     0
177
     0
178
     0
270
     2
271
     4
272
     4
273
     2
274
     2
275
     0
280
     0
281
     0
282
     0
283
     1
284
     0
285
     0
286
     0
287
     0
288
     0
340
17
  0
ENDTAB
  0
TABLE
  2
BLOCK_RECORD
  5
1
100
AcDbSymbolTable
 70
    19
  0
BLOCK_RECORD
  5
A
100
AcDbSymbolTableRecord
100
AcDbBlockTableRecord
  2
*MODEL_SPACE
  0
BLOCK_RECORD
  5
B
100
AcDbSymbolTableRecord
100
AcDbBlockTableRecord
  2
*PAPER_SPACE
  0
BLOCK_RECORD
  5
3F
100
AcDbSymbolTableRecord
100
AcDbBlockTableRecord
  2
*G0
  0
BLOCK_RECORD
  5
180
100
AcDbSymbolTableRecord
100
AcDbBlockTableRecord
  2
*G1
  0
BLOCK_RECORD
  5
187
100
AcDbSymbolTableRecord
100
AcDbBlockTableRecord
  2
*G2
  0
BLOCK_RECORD
  5
18C
100
AcDbSymbolTableRecord
100
AcDbBlockTableRecord
  2
*G3
  0
BLOCK_RECORD
  5
193
100
AcDbSymbolTableRecord
100
AcDbBlockTableRecord
  2
*G4
  0
BLOCK_RECORD
  5
19A
100
AcDbSymbolTableRecord
100
AcDbBlockTableRecord
  2
*G5
  0
BLOCK_RECORD
  5
1A1
100
AcDbSymbolTableRecord
100
AcDbBlockTableRecord
  2
*G6
  0
BLOCK_RECORD
  5
1A6
100
AcDbSymbolTableRecord
100
AcDbBlockTableRecord
  2
*G7
  0
BLOCK_RECORD
  5
1AD
100
AcDbSymbolTableRecord
100
AcDbBlockTableRecord
  2
*G8
  0
BLOCK_RECORD
  5
1B4
100
AcDbSymbolTableRecord
100
AcDbBlockTableRecord
  2
*G9
  0
BLOCK_RECORD
  5
1BC
100
AcDbSymbolTableRecord
100
AcDbBlockTableRecord
  2
*G10
  0
BLOCK_RECORD
  5
1C1
100
AcDbSymbolTableRecord
100
AcDbBlockTableRecord
  2
*G11
  0
BLOCK_RECORD
  5
1C8
100
AcDbSymbolTableRecord
100
AcDbBlockTableRecord
  2
*G12
  0
BLOCK_RECORD
  5
1CF
100
AcDbSymbolTableRecord
100
AcDbBlockTableRecord
  2
*G13
  0
BLOCK_RECORD
  5
1D6
100
AcDbSymbolTableRecord
100
AcDbBlockTableRecord
  2
*G14
  0
BLOCK_RECORD
  5
1DB
100
AcDbSymbolTableRecord
100
AcDbBlockTableRecord
  2
*G15
  0
BLOCK_RECORD
  5
1E2
100
AcDbSymbolTableRecord
100
AcDbBlockTableRecord
  2
*G16
  0
BLOCK_RECORD
  5
1E9
100
AcDbSymbolTableRecord
100
AcDbBlockTableRecord
  2
*G17
  0
BLOCK_RECORD
  5
1F0
100
AcDbSymbolTableRecord
100
AcDbBlockTableRecord
  2
*G18
  0
ENDTAB
  0
ENDSEC
  0
SECTION
  2
BLOCKS
  0
BLOCK
  5
D
100
AcDbEntity
  8
0
100
AcDbBlockBegin
  2
*MODEL_SPACE
 70
     0
 10
0.0
 20
0.0
 30
0.0
  3
*MODEL_SPACE
  1

  0
ENDBLK
  5
E
100
AcDbEntity
  8
0
100
AcDbBlockEnd
  0
BLOCK
  5
F
100
AcDbEntity
 67
     1
  8
0
100
AcDbBlockBegin
  2
*PAPER_SPACE
 70
     0
 10
0.0
 20
0.0
 30
0.0
  3
*PAPER_SPACE
  1

  0
ENDBLK
  5
10
100
AcDbEntity
 67
     1
  8
0
100
AcDbBlockEnd
  0
BLOCK
  5
40
100
AcDbEntity
  8
0
  6
CONTINUOUS
 62
     7
100
AcDbBlockBegin
  2
*G0
 70
     0
 10
0.0
 20
0.0
 30
0.0
  3
*G0
  1

  0
ENDBLK
  5
41
100
AcDbEntity
  8
0
100
AcDbBlockEnd
  0
BLOCK
  5
181
100
AcDbEntity
  8
12
  6
CONTINUOUS
 62
     7
100
AcDbBlockBegin
  2
*G1
 70
     0
 10
0.0
 20
0.0
 30
0.0
  3
*G1
  1

  0
CIRCLE
  5
182
100
AcDbEntity
  8
1
  6
CONTINUOUS
 62
     7
100
AcDbCircle
 10
242.468791
 20
458.557934
 30
0.0
 40
3.15
  0
LINE
  5
183
100
AcDbEntity
  8
1
  6
CONTINUOUS
 62
     7
100
AcDbLine
 10
239.318791
 20
455.407934
 30
0.0
 11
245.618791
 21
461.707934
 31
0.0
  0
LINE
  5
184
100
AcDbEntity
  8
1
  6
CONTINUOUS
 62
     7
100
AcDbLine
 10
239.318791
 20
461.707934
 30
0.0
 11
245.618791
 21
455.407934
 31
0.0
  0
ENDBLK
  5
185
100
AcDbEntity
  8
0
100
AcDbBlockEnd
  0
BLOCK
  5
188
100
AcDbEntity
  8
5
  6
CONTINUOUS
 62
     3
100
AcDbBlockBegin
  2
*G2
 70
     0
 10
0.0
 20
0.0
 30
0.0
  3
*G2
  1

  0
LINE
  5
189
100
AcDbEntity
  8
1
  6
CONTINUOUS
 62
     7
100
AcDbLine
 10
169.023772
 20
182.192178
 30
0.0
 11
169.023772
 21
155.620178
 31
0.0
  0
LINE
  5
18A
100
AcDbEntity
  8
1
  6
CONTINUOUS
 62
     7
100
AcDbLine
 10
269.023772
 20
182.192178
 30
0.0
 11
269.023772
 21
155.620178
 31
0.0
  0
LINE
  5
18B
100
AcDbEntity
  8
1
  6
CONTINUOUS
 62
     7
100
AcDbLine
 10
174.023772
 20
160.192178
 30
0.0
 11
264.023772
 21
160.192178
 31
0.0
  0
INSERT
  5
192
100
AcDbEntity
  8
5
  6
CONTINUOUS
 62
     3
100
AcDbBlockReference
  2
*G3
 10
0.0
 20
0.0
 30
0.0
  0
INSERT
  5
199
100
AcDbEntity
  8
5
  6
CONTINUOUS
 62
     3
100
AcDbBlockReference
  2
*G4
 10
0.0
 20
0.0
 30
0.0
  0
INSERT
  5
19E
100
AcDbEntity
  8
24
  6
CONTINUOUS
 62
     7
100
AcDbBlockReference
  2
*G5
 10
0.0
 20
0.0
 30
0.0
  0
ENDBLK
  5
19F
100
AcDbEntity
  8
0
100
AcDbBlockEnd
  0
BLOCK
  5
18D
100
AcDbEntity
  8
5
  6
CONTINUOUS
 62
     3
100
AcDbBlockBegin
  2
*G3
 70
     0
 10
0.0
 20
0.0
 30
0.0
  3
*G3
  1

  0
LINE
  5
18E
100
AcDbEntity
  8
1
  6
CONTINUOUS
 62
     7
100
AcDbLine
 10
174.023772
 20
158.852432
 30
0.0
 11
169.023772
 21
160.192178
 31
0.0
  0
LINE
  5
18F
100
AcDbEntity
  8
1
  6
CONTINUOUS
 62
     7
100
AcDbLine
 10
169.023772
 20
160.192178
 30
0.0
 11
174.023772
 21
161.531923
 31
0.0
  0
LINE
  5
190
100
AcDbEntity
  8
1
  6
CONTINUOUS
 62
     7
100
AcDbLine
 10
169.023772
 20
160.192178
 30
0.0
 11
174.023772
 21
160.192178
 31
0.0
  0
ENDBLK
  5
191
100
AcDbEntity
  8
0
100
AcDbBlockEnd
  0
BLOCK
  5
194
100
AcDbEntity
  8
5
  6
CONTINUOUS
 62
     3
100
AcDbBlockBegin
  2
*G4
 70
     0
 10
0.0
 20
0.0
 30
0.0
  3
*G4
  1

  0
LINE
  5
195
100
AcDbEntity
  8
1
  6
CONTINUOUS
 62
     7
100
AcDbLine
 10
264.023772
 20
161.531923
 30
0.0
 11
269.023772
 21
160.192178
 31
0.0
  0
LINE
  5
196
100
AcDbEntity
  8
1
  6
CONTINUOUS
 62
     7
100
AcDbLine
 10
269.023772
 20
160.192178
 30
0.0
 11
264.023772
 21
158.852432
 31
0.0
  0
LINE
  5
197
100
AcDbEntity
  8
1
  6
CONTINUOUS
 62
     7
100
AcDbLine
 10
269.023772
 20
160.192178
 30
0.0
 11
264.023772
 21
160.192178
 31
0.0
  0
ENDBLK
  5
198
100
AcDbEntity
  8
0
100
AcDbBlockEnd
  0
BLOCK
  5
19B
100
AcDbEntity
  8
24
  6
CONTINUOUS
 62
     7
100
AcDbBlockBegin
  2
*G5
 70
     0
 10
0.0
 20
0.0
 30
0.0
  3
*G5
  1

  0
TEXT
  5
19C
100
AcDbEntity
  8
1
  6
CONTINUOUS
 62
     7
100
AcDbText
 10
210.061253
 20
163.192178
 30
0.0
 40
6.4
  1
%%c100
 41
0.390625
 11
210.061253
 21
163.192178
 31
0.0
100
AcDbText
 73
     1
  0
ENDBLK
  5
19D
100
AcDbEntity
  8
0
100
AcDbBlockEnd
  0
BLOCK
  5
1A2
100
AcDbEntity
  8
5
  6
CONTINUOUS
 62
     3
100
AcDbBlockBegin
  2
*G6
 70
     0
 10
0.0
 20
0.0
 30
0.0
  3
*G6
  1

  0
LINE
  5
1A3
100
AcDbEntity
  8
1
  6
CONTINUOUS
 62
     7
100
AcDbLine
 10
196.523772
 20
479.692178
 30
0.0
 11
123.95308
 21
479.692178
 31
0.0
  0
LINE
  5
1A4
100
AcDbEntity
  8
1
  6
CONTINUOUS
 62
     7
100
AcDbLine
 10
188.023772
 20
181.692178
 30
0.0
 11
123.95308
 21
181.692178
 31
0.0
  0
LINE
  5
1A5
100
AcDbEntity
  8
1
  6
CONTINUOUS
 62
     7
100
AcDbLine
 10
128.52508
 20
474.692178
 30
0.0
 11
128.52508
 21
186.692178
 31
0.0
  0
INSERT
  5
1AC
100
AcDbEntity
  8
5
  6
CONTINUOUS
 62
     3
100
AcDbBlockReference
  2
*G7
 10
0.0
 20
0.0
 30
0.0
  0
INSERT
  5
1B3
100
AcDbEntity
  8
5
  6
CONTINUOUS
 62
     3
100
AcDbBlockReference
  2
*G8
 10
0.0
 20
0.0
 30
0.0
  0
INSERT
  5
1B9
100
AcDbEntity
  8
24
  6
CONTINUOUS
 62
     7
100
AcDbBlockReference
  2
*G9
 10
0.0
 20
0.0
 30
0.0
  0
ENDBLK
  5
1BA
100
AcDbEntity
  8
0
100
AcDbBlockEnd
  0
BLOCK
  5
1A7
100
AcDbEntity
  8
5
  6
CONTINUOUS
 62
     3
100
AcDbBlockBegin
  2
*G7
 70
     0
 10
0.0
 20
0.0
 30
0.0
  3
*G7
  1

  0
LINE
  5
1A8
100
AcDbEntity
  8
1
  6
CONTINUOUS
 62
     7
100
AcDbLine
 10
127.185334
 20
474.692178
 30
0.0
 11
128.52508
 21
479.692178
 31
0.0
  0
LINE
  5
1A9
100
AcDbEntity
  8
1
  6
CONTINUOUS
 62
     7
100
AcDbLine
 10
128.52508
 20
479.692178
 30
0.0
 11
129.864825
 21
474.692178
 31
0.0
  0
LINE
  5
1AA
100
AcDbEntity
  8
1
  6
CONTINUOUS
 62
     7
100
AcDbLine
 10
128.52508
 20
479.692178
 30
0.0
 11
128.52508
 21
474.692178
 31
0.0
  0
ENDBLK
  5
1AB
100
AcDbEntity
  8
0
100
AcDbBlockEnd
  0
BLOCK
  5
1AE
100
AcDbEntity
  8
5
  6
CONTINUOUS
 62
     3
100
AcDbBlockBegin
  2
*G8
 70
     0
 10
0.0
 20
0.0
 30
0.0
  3
*G8
  1

  0
LINE
  5
1AF
100
AcDbEntity
  8
1
  6
CONTINUOUS
 62
     7
100
AcDbLine
 10
129.864825
 20
186.692178
 30
0.0
 11
128.52508
 21
181.692178
 31
0.0
  0
LINE
  5
1B0
100
AcDbEntity
  8
1
  6
CONTINUOUS
 62
     7
100
AcDbLine
 10
128.52508
 20
181.692178
 30
0.0
 11
127.185334
 21
186.692178
 31
0.0
  0
LINE
  5
1B1
100
AcDbEntity
  8
1
  6
CONTINUOUS
 62
     7
100
AcDbLine
 10
128.52508
 20
181.692178
 30
0.0
 11
128.52508
 21
186.692178
 31
0.0
  0
ENDBLK
  5
1B2
100
AcDbEntity
  8
0
100
AcDbBlockEnd
  0
BLOCK
  5
1B5
100
AcDbEntity
  8
24
  6
CONTINUOUS
 62
     7
100
AcDbBlockBegin
  2
*G9
 70
     0
 10
0.0
 20
0.0
 30
0.0
  3
*G9
  1

  0
TEXT
  5
1B6
100
AcDbEntity
  8
1
  6
CONTINUOUS
 62
     7
100
AcDbText
 10
125.52508
 20
320.628146
 30
0.0
 40
6.4
  1
298
 50
90.0
 11
125.52508
 21
320.628146
 31
0.0
100
AcDbText
 73
     1
  0
TEXT
  5
1B7
100
AcDbEntity
  8
1
  6
CONTINUOUS
 62
     7
100
AcDbText
 10
125.52508
 20
334.09051
 30
0.0
 40
4.544
  1
%%p3
 50
90.0
 41
0.5625
 11
125.52508
 21
334.09051
 31
0.0
100
AcDbText
 73
     1
  0
ENDBLK
  5
1B8
100
AcDbEntity
  8
0
100
AcDbBlockEnd
  0
BLOCK
  5
1BD
100
AcDbEntity
  8
5
  6
CONTINUOUS
 62
     3
100
AcDbBlockBegin
  2
*G10
 70
     0
 10
0.0
 20
0.0
 30
0.0
  3
*G10
  1

  0
LINE
  5
1BE
100
AcDbEntity
  8
1
  6
CONTINUOUS
 62
     7
100
AcDbLine
 10
481.592555
 20
481.692176
 30
0.0
 11
481.592555
 21
508.264176
 31
0.0
  0
LINE
  5
1BF
100
AcDbEntity
  8
1
  6
CONTINUOUS
 62
     7
100
AcDbLine
 10
324.592555
 20
372.692176
 30
0.0
 11
324.592555
 21
508.264176
 31
0.0
  0
LINE
  5
1C0
100
AcDbEntity
  8
1
  6
CONTINUOUS
 62
     7
100
AcDbLine
 10
476.592555
 20
503.692176
 30
0.0
 11
329.592555
 21
503.692176
 31
0.0
  0
INSERT
  5
1C7
100
AcDbEntity
  8
5
  6
CONTINUOUS
 62
     3
100
AcDbBlockReference
  2
*G11
 10
0.0
 20
0.0
 30
0.0
  0
INSERT
  5
1CE
100
AcDbEntity
  8
5
  6
CONTINUOUS
 62
     3
100
AcDbBlockReference
  2
*G12
 10
0.0
 20
0.0
 30
0.0
  0
INSERT
  5
1D3
100
AcDbEntity
  8
24
  6
CONTINUOUS
 62
     7
100
AcDbBlockReference
  2
*G13
 10
0.0
 20
0.0
 30
0.0
  0
ENDBLK
  5
1D4
100
AcDbEntity
  8
0
100
AcDbBlockEnd
  0
BLOCK
  5
1C2
100
AcDbEntity
  8
5
  6
CONTINUOUS
 62
     3
100
AcDbBlockBegin
  2
*G11
 70
     0
 10
0.0
 20
0.0
 30
0.0
  3
*G11
  1

  0
LINE
  5
1C3
100
AcDbEntity
  8
1
  6
CONTINUOUS
 62
     7
100
AcDbLine
 10
476.592555
 20
505.031922
 30
0.0
 11
481.592555
 21
503.692176
 31
0.0
  0
LINE
  5
1C4
100
AcDbEntity
  8
1
  6
CONTINUOUS
 62
     7
100
AcDbLine
 10
481.592555
 20
503.692176
 30
0.0
 11
476.592555
 21
502.35243
 31
0.0
  0
LINE
  5
1C5
100
AcDbEntity
  8
1
  6
CONTINUOUS
 62
     7
100
AcDbLine
 10
481.592555
 20
503.692176
 30
0.0
 11
476.592555
 21
503.692176
 31
0.0
  0
ENDBLK
  5
1C6
100
AcDbEntity
  8
0
100
AcDbBlockEnd
  0
BLOCK
  5
1C9
100
AcDbEntity
  8
5
  6
CONTINUOUS
 62
     3
100
AcDbBlockBegin
  2
*G12
 70
     0
 10
0.0
 20
0.0
 30
0.0
  3
*G12
  1

  0
LINE
  5
1CA
100
AcDbEntity
  8
1
  6
CONTINUOUS
 62
     7
100
AcDbLine
 10
329.592555
 20
502.35243
 30
0.0
 11
324.592555
 21
503.692176
 31
0.0
  0
LINE
  5
1CB
100
AcDbEntity
  8
1
  6
CONTINUOUS
 62
     7
100
AcDbLine
 10
324.592555
 20
503.692176
 30
0.0
 11
329.592555
 21
505.031922
 31
0.0
  0
LINE
  5
1CC
100
AcDbEntity
  8
1
  6
CONTINUOUS
 62
     7
100
AcDbLine
 10
324.592555
 20
503.692176
 30
0.0
 11
329.592555
 21
503.692176
 31
0.0
  0
ENDBLK
  5
1CD
100
AcDbEntity
  8
0
100
AcDbBlockEnd
  0
BLOCK
  5
1D0
100
AcDbEntity
  8
24
  6
CONTINUOUS
 62
     7
100
AcDbBlockBegin
  2
*G13
 70
     0
 10
0.0
 20
0.0
 30
0.0
  3
*G13
  1

  0
TEXT
  5
1D1
100
AcDbEntity
  8
1
  6
CONTINUOUS
 62
     7
100
AcDbText
 10
397.012555
 20
506.692176
 30
0.0
 40
6.4
  1
157
 11
397.012555
 21
506.692176
 31
0.0
100
AcDbText
 73
     1
  0
ENDBLK
  5
1D2
100
AcDbEntity
  8
0
100
AcDbBlockEnd
  0
BLOCK
  5
1D7
100
AcDbEntity
  8
5
  6
CONTINUOUS
 62
     3
100
AcDbBlockBegin
  2
*G14
 70
     0
 10
0.0
 20
0.0
 30
0.0
  3
*G14
  1

  0
LINE
  5
1D8
100
AcDbEntity
  8
1
  6
CONTINUOUS
 62
     7
100
AcDbLine
 10
505.592555
 20
445.692176
 30
0.0
 11
505.592555
 21
508.264176
 31
0.0
  0
LINE
  5
1D9
100
AcDbEntity
  8
1
  6
CONTINUOUS
 62
     7
100
AcDbLine
 10
481.592555
 20
481.692176
 30
0.0
 11
481.592555
 21
508.264176
 31
0.0
  0
LINE
  5
1DA
100
AcDbEntity
  8
1
  6
CONTINUOUS
 62
     7
100
AcDbLine
 10
500.592555
 20
503.692176
 30
0.0
 11
486.592555
 21
503.692176
 31
0.0
  0
INSERT
  5
1E1
100
AcDbEntity
  8
5
  6
CONTINUOUS
 62
     3
100
AcDbBlockReference
  2
*G15
 10
0.0
 20
0.0
 30
0.0
  0
INSERT
  5
1E8
100
AcDbEntity
  8
5
  6
CONTINUOUS
 62
     3
100
AcDbBlockReference
  2
*G16
 10
0.0
 20
0.0
 30
0.0
  0
INSERT
  5
1ED
100
AcDbEntity
  8
24
  6
CONTINUOUS
 62
     7
100
AcDbBlockReference
  2
*G17
 10
0.0
 20
0.0
 30
0.0
  0
ENDBLK
  5
1EE
100
AcDbEntity
  8
0
100
AcDbBlockEnd
  0
BLOCK
  5
1DC
100
AcDbEntity
  8
5
  6
CONTINUOUS
 62
     3
100
AcDbBlockBegin
  2
*G15
 70
     0
 10
0.0
 20
0.0
 30
0.0
  3
*G15
  1

  0
LINE
  5
1DD
100
AcDbEntity
  8
1
  6
CONTINUOUS
 62
     7
100
AcDbLine
 10
500.592555
 20
505.031922
 30
0.0
 11
505.592555
 21
503.692176
 31
0.0
  0
LINE
  5
1DE
100
AcDbEntity
  8
1
  6
CONTINUOUS
 62
     7
100
AcDbLine
 10
505.592555
 20
503.692176
 30
0.0
 11
500.592555
 21
502.35243
 31
0.0
  0
LINE
  5
1DF
100
AcDbEntity
  8
1
  6
CONTINUOUS
 62
     7
100
AcDbLine
 10
505.592555
 20
503.692176
 30
0.0
 11
500.592555
 21
503.692176
 31
0.0
  0
ENDBLK
  5
1E0
100
AcDbEntity
  8
0
100
AcDbBlockEnd
  0
BLOCK
  5
1E3
100
AcDbEntity
  8
5
  6
CONTINUOUS
 62
     3
100
AcDbBlockBegin
  2
*G16
 70
     0
 10
0.0
 20
0.0
 30
0.0
  3
*G16
  1

  0
LINE
  5
1E4
100
AcDbEntity
  8
1
  6
CONTINUOUS
 62
     7
100
AcDbLine
 10
486.592555
 20
502.35243
 30
0.0
 11
481.592555
 21
503.692176
 31
0.0
  0
LINE
  5
1E5
100
AcDbEntity
  8
1
  6
CONTINUOUS
 62
     7
100
AcDbLine
 10
481.592555
 20
503.692176
 30
0.0
 11
486.592555
 21
505.031922
 31
0.0
  0
LINE
  5
1E6
100
AcDbEntity
  8
1
  6
CONTINUOUS
 62
     7
100
AcDbLine
 10
481.592555
 20
503.692176
 30
0.0
 11
486.592555
 21
503.692176
 31
0.0
  0
ENDBLK
  5
1E7
100
AcDbEntity
  8
0
100
AcDbBlockEnd
  0
BLOCK
  5
1EA
100
AcDbEntity
  8
24
  6
CONTINUOUS
 62
     7
100
AcDbBlockBegin
  2
*G17
 70
     0
 10
0.0
 20
0.0
 30
0.0
  3
*G17
  1

  0
TEXT
  5
1EB
100
AcDbEntity
  8
1
  6
CONTINUOUS
 62
     7
100
AcDbText
 10
488.873815
 20
506.692176
 30
0.0
 40
6.4
  1
24
 11
488.873815
 21
506.692176
 31
0.0
100
AcDbText
 73
     1
  0
ENDBLK
  5
1EC
100
AcDbEntity
  8
0
100
AcDbBlockEnd
  0
BLOCK
  5
1F1
100
AcDbEntity
  8
4
  6
CONTINUOUS
 62
     3
100
AcDbBlockBegin
  2
*G18
 70
     0
 10
0.0
 20
0.0
 30
0.0
  3
*G18
  1

  0
LINE
  5
1F2
100
AcDbEntity
  8
1
  6
CONTINUOUS
 62
     7
100
AcDbLine
 10
475.092555
 20
321.387654
 30
0.0
 11
471.592595
 21
322.195684
 31
0.0
  0
LINE
  5
1F3
100
AcDbEntity
  8
1
  6
CONTINUOUS
 62
     7
100
AcDbLine
 10
475.092555
 20
321.345304
 30
0.0
 11
471.592595
 21
322.153333
 31
0.0
  0
LINE
  5
1F4
100
AcDbEntity
  8
1
  6
CONTINUOUS
 62
     7
100
AcDbLine
 10
475.092555
 20
321.662932
 30
0.0
 11
471.592595
 21
322.470962
 31
0.0
  0
LINE
  5
1F5
100
AcDbEntity
  8
1
  6
CONTINUOUS
 62
     7
100
AcDbLine
 10
475.092555
 20
322.171137
 30
0.0
 11
471.592595
 21
322.979167
 31
0.0
  0
LINE
  5
1F6
100
AcDbEntity
  8
1
  6
CONTINUOUS
 62
     7
100
AcDbLine
 10
475.092555
 20
322.443596
 30
0.0
 11
475.092555
 21
324.598136
 31
0.0
  0
LINE
  5
1F7
100
AcDbEntity
  8
1
  6
CONTINUOUS
 62
     7
100
AcDbLine
 10
475.092555
 20
321.112376
 30
0.0
 11
471.592595
 21
321.920406
 31
0.0
  0
LINE
  5
1F8
100
AcDbEntity
  8
1
  6
CONTINUOUS
 62
     7
100
AcDbLine
 10
471.592595
 20
321.835705
 30
0.0
 11
471.592595
 21
321.983932
 31
0.0
  0
LINE
  5
1F9
100
AcDbEntity
  8
1
  6
CONTINUOUS
 62
     7
100
AcDbLine
 10
475.092555
 20
321.027676
 30
0.0
 11
471.592595
 21
321.835705
 31
0.0
  0
LINE
  5
1FA
100
AcDbEntity
  8
1
  6
CONTINUOUS
 62
     7
100
AcDbLine
 10
475.092555
 20
321.027676
 30
0.0
 11
475.092555
 21
321.175902
 31
0.0
  0
LINE
  5
1FB
100
AcDbEntity
  8
1
  6
CONTINUOUS
 62
     7
100
AcDbLine
 10
475.092555
 20
321.154727
 30
0.0
 11
471.592595
 21
321.962756
 31
0.0
  0
LINE
  5
1FC
100
AcDbEntity
  8
1
  6
CONTINUOUS
 62
     7
100
AcDbLine
 10
475.092555
 20
321.070026
 30
0.0
 11
471.592595
 21
321.878056
 31
0.0
  0
LINE
  5
1FD
100
AcDbEntity
  8
1
  6
CONTINUOUS
 62
     7
100
AcDbLine
 10
475.092555
 20
321.048851
 30
0.0
 11
471.592595
 21
321.85688
 31
0.0
  0
LINE
  5
1FE
100
AcDbEntity
  8
1
  6
CONTINUOUS
 62
     7
100
AcDbLine
 10
475.092555
 20
321.091201
 30
0.0
 11
471.592595
 21
321.899231
 31
0.0
  0
LINE
  5
1FF
100
AcDbEntity
  8
1
  6
CONTINUOUS
 62
     7
100
AcDbLine
 10
475.092555
 20
321.133552
 30
0.0
 11
471.592595
 21
321.941581
 31
0.0
  0
LINE
  5
200
100
AcDbEntity
  8
1
  6
CONTINUOUS
 62
     7
100
AcDbLine
 10
475.092555
 20
321.175902
 30
0.0
 11
471.592595
 21
321.983932
 31
0.0
  0
LINE
  5
201
100
AcDbEntity
  8
1
  6
CONTINUOUS
 62
     7
100
AcDbLine
 10
475.092555
 20
321.165315
 30
0.0
 11
471.592595
 21
321.973344
 31
0.0
  0
LINE
  5
202
100
AcDbEntity
  8
1
  6
CONTINUOUS
 62
     7
100
AcDbLine
 10
471.592595
 20
322.121571
 30
0.0
 11
471.592595
 21
322.269797
 31
0.0
  0
LINE
  5
203
100
AcDbEntity
  8
1
  6
CONTINUOUS
 62
     7
100
AcDbLine
 10
471.592595
 20
322.396848
 30
0.0
 11
471.592595
 21
322.545075
 31
0.0
  0
LINE
  5
204
100
AcDbEntity
  8
1
  6
CONTINUOUS
 62
     7
100
AcDbLine
 10
471.592595
 20
322.674773
 30
0.0
 11
471.592595
 21
323.085043
 31
0.0
  0
LINE
  5
205
100
AcDbEntity
  8
1
  6
CONTINUOUS
 62
     7
100
AcDbLine
 10
475.092555
 20
321.144139
 30
0.0
 11
471.592595
 21
321.952169
 31
0.0
  0
LINE
  5
206
100
AcDbEntity
  8
1
  6
CONTINUOUS
 62
     7
100
AcDbLine
 10
475.092555
 20
321.122964
 30
0.0
 11
471.592595
 21
321.930994
 31
0.0
  0
LINE
  5
207
100
AcDbEntity
  8
1
  6
CONTINUOUS
 62
     7
100
AcDbLine
 10
475.092555
 20
321.101789
 30
0.0
 11
471.592595
 21
321.909818
 31
0.0
  0
LINE
  5
208
100
AcDbEntity
  8
1
  6
CONTINUOUS
 62
     7
100
AcDbLine
 10
475.092555
 20
321.080614
 30
0.0
 11
471.592595
 21
321.888643
 31
0.0
  0
LINE
  5
209
100
AcDbEntity
  8
1
  6
CONTINUOUS
 62
     7
100
AcDbLine
 10
475.092555
 20
321.866744
 30
0.0
 11
475.092555
 21
322.205747
 31
0.0
  0
LINE
  5
20A
100
AcDbEntity
  8
1
  6
CONTINUOUS
 62
     7
100
AcDbLine
 10
475.092555
 20
321.588819
 30
0.0
 11
475.092555
 21
321.737045
 31
0.0
  0
LINE
  5
20B
100
AcDbEntity
  8
1
  6
CONTINUOUS
 62
     7
100
AcDbLine
 10
475.092555
 20
321.313541
 30
0.0
 11
475.092555
 21
321.461768
 31
0.0
  0
LINE
  5
20C
100
AcDbEntity
  8
1
  6
CONTINUOUS
 62
     7
100
AcDbLine
 10
475.092555
 20
321.059438
 30
0.0
 11
471.592595
 21
321.867468
 31
0.0
  0
LINE
  5
20D
100
AcDbEntity
  8
1
  6
CONTINUOUS
 62
     7
100
AcDbLine
 10
475.092555
 20
321.038263
 30
0.0
 11
471.592595
 21
321.846293
 31
0.0
  0
LINE
  5
20E
100
AcDbEntity
  8
1
  6
CONTINUOUS
 62
     7
100
AcDbLine
 10
475.092555
 20
321.430005
 30
0.0
 11
471.592595
 21
322.238034
 31
0.0
  0
LINE
  5
20F
100
AcDbEntity
  8
1
  6
CONTINUOUS
 62
     7
100
AcDbLine
 10
475.092555
 20
321.45118
 30
0.0
 11
471.592595
 21
322.25921
 31
0.0
  0
LINE
  5
210
100
AcDbEntity
  8
1
  6
CONTINUOUS
 62
     7
100
AcDbLine
 10
475.092555
 20
321.40883
 30
0.0
 11
471.592595
 21
322.216859
 31
0.0
  0
LINE
  5
211
100
AcDbEntity
  8
1
  6
CONTINUOUS
 62
     7
100
AcDbLine
 10
475.092555
 20
321.366479
 30
0.0
 11
471.592595
 21
322.174509
 31
0.0
  0
LINE
  5
212
100
AcDbEntity
  8
1
  6
CONTINUOUS
 62
     7
100
AcDbLine
 10
475.092555
 20
321.324129
 30
0.0
 11
471.592595
 21
322.132158
 31
0.0
  0
LINE
  5
213
100
AcDbEntity
  8
1
  6
CONTINUOUS
 62
     7
100
AcDbLine
 10
475.092555
 20
321.313541
 30
0.0
 11
471.592595
 21
322.121571
 31
0.0
  0
LINE
  5
214
100
AcDbEntity
  8
1
  6
CONTINUOUS
 62
     7
100
AcDbLine
 10
475.092555
 20
321.334716
 30
0.0
 11
471.592595
 21
322.142746
 31
0.0
  0
LINE
  5
215
100
AcDbEntity
  8
1
  6
CONTINUOUS
 62
     7
100
AcDbLine
 10
475.092555
 20
321.355892
 30
0.0
 11
471.592595
 21
322.163921
 31
0.0
  0
LINE
  5
216
100
AcDbEntity
  8
1
  6
CONTINUOUS
 62
     7
100
AcDbLine
 10
475.092555
 20
321.377067
 30
0.0
 11
471.592595
 21
322.185096
 31
0.0
  0
LINE
  5
217
100
AcDbEntity
  8
1
  6
CONTINUOUS
 62
     7
100
AcDbLine
 10
475.092555
 20
321.398242
 30
0.0
 11
471.592595
 21
322.206271
 31
0.0
  0
LINE
  5
218
100
AcDbEntity
  8
1
  6
CONTINUOUS
 62
     7
100
AcDbLine
 10
475.092555
 20
321.419417
 30
0.0
 11
471.592595
 21
322.227447
 31
0.0
  0
LINE
  5
219
100
AcDbEntity
  8
1
  6
CONTINUOUS
 62
     7
100
AcDbLine
 10
475.092555
 20
321.440592
 30
0.0
 11
471.592595
 21
322.248622
 31
0.0
  0
LINE
  5
21A
100
AcDbEntity
  8
1
  6
CONTINUOUS
 62
     7
100
AcDbLine
 10
475.092555
 20
321.461768
 30
0.0
 11
471.592595
 21
322.269797
 31
0.0
  0
LINE
  5
21B
100
AcDbEntity
  8
1
  6
CONTINUOUS
 62
     7
100
AcDbLine
 10
475.092555
 20
321.705283
 30
0.0
 11
471.592595
 21
322.513312
 31
0.0
  0
LINE
  5
21C
100
AcDbEntity
  8
1
  6
CONTINUOUS
 62
     7
100
AcDbLine
 10
475.092555
 20
321.620582
 30
0.0
 11
471.592595
 21
322.428611
 31
0.0
  0
LINE
  5
21D
100
AcDbEntity
  8
1
  6
CONTINUOUS
 62
     7
100
AcDbLine
 10
475.092555
 20
321.599407
 30
0.0
 11
471.592595
 21
322.407436
 31
0.0
  0
LINE
  5
21E
100
AcDbEntity
  8
1
  6
CONTINUOUS
 62
     7
100
AcDbLine
 10
475.092555
 20
321.641757
 30
0.0
 11
471.592595
 21
322.449786
 31
0.0
  0
LINE
  5
21F
100
AcDbEntity
  8
1
  6
CONTINUOUS
 62
     7
100
AcDbLine
 10
475.092555
 20
321.684107
 30
0.0
 11
471.592595
 21
322.492137
 31
0.0
  0
LINE
  5
220
100
AcDbEntity
  8
1
  6
CONTINUOUS
 62
     7
100
AcDbLine
 10
475.092555
 20
321.726458
 30
0.0
 11
471.592595
 21
322.534487
 31
0.0
  0
LINE
  5
221
100
AcDbEntity
  8
1
  6
CONTINUOUS
 62
     7
100
AcDbLine
 10
475.092555
 20
321.737045
 30
0.0
 11
471.592595
 21
322.545075
 31
0.0
  0
LINE
  5
222
100
AcDbEntity
  8
1
  6
CONTINUOUS
 62
     7
100
AcDbLine
 10
475.092555
 20
321.71587
 30
0.0
 11
471.592595
 21
322.5239
 31
0.0
  0
LINE
  5
223
100
AcDbEntity
  8
1
  6
CONTINUOUS
 62
     7
100
AcDbLine
 10
475.092555
 20
321.694695
 30
0.0
 11
471.592595
 21
322.502725
 31
0.0
  0
LINE
  5
224
100
AcDbEntity
  8
1
  6
CONTINUOUS
 62
     7
100
AcDbLine
 10
475.092555
 20
321.662932
 30
0.0
 11
471.592595
 21
322.470962
 31
0.0
  0
LINE
  5
225
100
AcDbEntity
  8
1
  6
CONTINUOUS
 62
     7
100
AcDbLine
 10
475.092555
 20
321.652345
 30
0.0
 11
471.592595
 21
322.460374
 31
0.0
  0
LINE
  5
226
100
AcDbEntity
  8
1
  6
CONTINUOUS
 62
     7
100
AcDbLine
 10
475.092555
 20
321.631169
 30
0.0
 11
471.592595
 21
322.439199
 31
0.0
  0
LINE
  5
227
100
AcDbEntity
  8
1
  6
CONTINUOUS
 62
     7
100
AcDbLine
 10
475.092555
 20
321.609994
 30
0.0
 11
471.592595
 21
322.418024
 31
0.0
  0
LINE
  5
228
100
AcDbEntity
  8
1
  6
CONTINUOUS
 62
     7
100
AcDbLine
 10
475.092555
 20
321.588819
 30
0.0
 11
471.592595
 21
322.396848
 31
0.0
  0
LINE
  5
229
100
AcDbEntity
  8
1
  6
CONTINUOUS
 62
     7
100
AcDbLine
 10
475.092555
 20
321.67352
 30
0.0
 11
471.592595
 21
322.481549
 31
0.0
  0
LINE
  5
22A
100
AcDbEntity
  8
1
  6
CONTINUOUS
 62
     7
100
AcDbLine
 10
472.367648
 20
322.906108
 30
0.0
 11
471.592595
 21
323.085043
 31
0.0
  0
LINE
  5
22B
100
AcDbEntity
  8
1
  6
CONTINUOUS
 62
     7
100
AcDbLine
 10
471.592595
 20
323.603969
 30
0.0
 11
471.592595
 21
325.357126
 31
0.0
  0
LINE
  5
22C
100
AcDbEntity
  8
1
  6
CONTINUOUS
 62
     7
100
AcDbLine
 10
473.388518
 20
323.977918
 30
0.0
 11
475.092555
 21
324.598136
 31
0.0
  0
LINE
  5
22D
100
AcDbEntity
  8
1
  6
CONTINUOUS
 62
     7
100
AcDbLine
 10
475.092555
 20
322.443596
 30
0.0
 11
473.388518
 21
323.977918
 31
0.0
  0
LINE
  5
22E
100
AcDbEntity
  8
1
  6
CONTINUOUS
 62
     7
100
AcDbLine
 10
475.092555
 20
322.012323
 30
0.0
 11
471.592595
 21
322.820353
 31
0.0
  0
LINE
  5
22F
100
AcDbEntity
  8
1
  6
CONTINUOUS
 62
     7
100
AcDbLine
 10
474.342869
 20
322.039822
 30
0.0
 11
471.592595
 21
324.516181
 31
0.0
  0
LINE
  5
230
100
AcDbEntity
  8
1
  6
CONTINUOUS
 62
     7
100
AcDbLine
 10
475.092555
 20
321.906447
 30
0.0
 11
471.592595
 21
322.714477
 31
0.0
  0
LINE
  5
231
100
AcDbEntity
  8
1
  6
CONTINUOUS
 62
     7
100
AcDbLine
 10
475.092555
 20
321.959385
 30
0.0
 11
471.592595
 21
322.767415
 31
0.0
  0
LINE
  5
232
100
AcDbEntity
  8
1
  6
CONTINUOUS
 62
     7
100
AcDbLine
 10
475.092555
 20
322.065261
 30
0.0
 11
471.592595
 21
322.873291
 31
0.0
  0
LINE
  5
233
100
AcDbEntity
  8
1
  6
CONTINUOUS
 62
     7
100
AcDbLine
 10
475.092555
 20
322.118199
 30
0.0
 11
471.592595
 21
322.926229
 31
0.0
  0
LINE
  5
234
100
AcDbEntity
  8
1
  6
CONTINUOUS
 62
     7
100
AcDbLine
 10
475.06518
 20
322.230395
 30
0.0
 11
471.592595
 21
323.032105
 31
0.0
  0
LINE
  5
235
100
AcDbEntity
  8
1
  6
CONTINUOUS
 62
     7
100
AcDbLine
 10
475.025647
 20
322.265991
 30
0.0
 11
471.592595
 21
323.058574
 31
0.0
  0
LINE
  5
236
100
AcDbEntity
  8
1
  6
CONTINUOUS
 62
     7
100
AcDbLine
 10
475.092555
 20
322.197606
 30
0.0
 11
471.592595
 21
323.005636
 31
0.0
  0
LINE
  5
237
100
AcDbEntity
  8
1
  6
CONTINUOUS
 62
     7
100
AcDbLine
 10
475.092555
 20
322.144668
 30
0.0
 11
471.592595
 21
322.952698
 31
0.0
  0
LINE
  5
238
100
AcDbEntity
  8
1
  6
CONTINUOUS
 62
     7
100
AcDbLine
 10
475.092555
 20
322.09173
 30
0.0
 11
471.592595
 21
322.89976
 31
0.0
  0
LINE
  5
239
100
AcDbEntity
  8
1
  6
CONTINUOUS
 62
     7
100
AcDbLine
 10
475.092555
 20
322.038792
 30
0.0
 11
471.592595
 21
322.846822
 31
0.0
  0
LINE
  5
23A
100
AcDbEntity
  8
1
  6
CONTINUOUS
 62
     7
100
AcDbLine
 10
475.092555
 20
321.985854
 30
0.0
 11
471.592595
 21
322.793884
 31
0.0
  0
LINE
  5
23B
100
AcDbEntity
  8
1
  6
CONTINUOUS
 62
     7
100
AcDbLine
 10
475.092555
 20
321.932916
 30
0.0
 11
471.592595
 21
322.740946
 31
0.0
  0
LINE
  5
23C
100
AcDbEntity
  8
1
  6
CONTINUOUS
 62
     7
100
AcDbLine
 10
475.092555
 20
321.879978
 30
0.0
 11
471.592595
 21
322.688008
 31
0.0
  0
LINE
  5
23D
100
AcDbEntity
  8
1
  6
CONTINUOUS
 62
     7
100
AcDbLine
 10
472.367648
 20
322.906108
 30
0.0
 11
471.592595
 21
323.603969
 31
0.0
  0
LINE
  5
23E
100
AcDbEntity
  8
1
  6
CONTINUOUS
 62
     7
100
AcDbLine
 10
475.092555
 20
322.048961
 30
0.0
 11
471.592595
 21
325.200339
 31
0.0
  0
LINE
  5
23F
100
AcDbEntity
  8
1
  6
CONTINUOUS
 62
     7
100
AcDbLine
 10
474.683482
 20
321.961186
 30
0.0
 11
471.592595
 21
324.744233
 31
0.0
  0
LINE
  5
240
100
AcDbEntity
  8
1
  6
CONTINUOUS
 62
     7
100
AcDbLine
 10
474.002256
 20
322.118459
 30
0.0
 11
471.592595
 21
324.288128
 31
0.0
  0
LINE
  5
241
100
AcDbEntity
  8
1
  6
CONTINUOUS
 62
     7
100
AcDbLine
 10
473.321029
 20
322.275733
 30
0.0
 11
471.592595
 21
323.832022
 31
0.0
  0
LINE
  5
242
100
AcDbEntity
  8
1
  6
CONTINUOUS
 62
     7
100
AcDbLine
 10
473.661642
 20
322.197096
 30
0.0
 11
471.592595
 21
324.060075
 31
0.0
  0
LINE
  5
243
100
AcDbEntity
  8
1
  6
CONTINUOUS
 62
     7
100
AcDbLine
 10
475.024096
 20
321.882549
 30
0.0
 11
471.592595
 21
324.972286
 31
0.0
  0
LINE
  5
244
100
AcDbEntity
  8
1
  6
CONTINUOUS
 62
     7
100
AcDbLine
 10
475.092555
 20
322.162987
 30
0.0
 11
471.592595
 21
325.314365
 31
0.0
  0
LINE
  5
245
100
AcDbEntity
  8
1
  6
CONTINUOUS
 62
     7
100
AcDbLine
 10
475.092555
 20
321.934934
 30
0.0
 11
471.592595
 21
325.086313
 31
0.0
  0
LINE
  5
246
100
AcDbEntity
  8
1
  6
CONTINUOUS
 62
     7
100
AcDbLine
 10
474.853789
 20
321.921867
 30
0.0
 11
471.592595
 21
324.85826
 31
0.0
  0
LINE
  5
247
100
AcDbEntity
  8
1
  6
CONTINUOUS
 62
     7
100
AcDbLine
 10
474.513176
 20
322.000504
 30
0.0
 11
471.592595
 21
324.630207
 31
0.0
  0
LINE
  5
248
100
AcDbEntity
  8
1
  6
CONTINUOUS
 62
     7
100
AcDbLine
 10
474.172562
 20
322.079141
 30
0.0
 11
471.592595
 21
324.402154
 31
0.0
  0
LINE
  5
249
100
AcDbEntity
  8
1
  6
CONTINUOUS
 62
     7
100
AcDbLine
 10
473.831949
 20
322.157777
 30
0.0
 11
471.592595
 21
324.174101
 31
0.0
  0
LINE
  5
24A
100
AcDbEntity
  8
1
  6
CONTINUOUS
 62
     7
100
AcDbLine
 10
473.491335
 20
322.236414
 30
0.0
 11
471.592595
 21
323.946048
 31
0.0
  0
LINE
  5
24B
100
AcDbEntity
  8
1
  6
CONTINUOUS
 62
     7
100
AcDbLine
 10
473.150722
 20
322.315051
 30
0.0
 11
471.592595
 21
323.717995
 31
0.0
  0
LINE
  5
24C
100
AcDbEntity
  8
1
  6
CONTINUOUS
 62
     7
100
AcDbLine
 10
473.065569
 20
322.33471
 30
0.0
 11
471.592595
 21
323.660982
 31
0.0
  0
LINE
  5
24D
100
AcDbEntity
  8
1
  6
CONTINUOUS
 62
     7
100
AcDbLine
 10
473.235876
 20
322.295392
 30
0.0
 11
471.592595
 21
323.775009
 31
0.0
  0
LINE
  5
24E
100
AcDbEntity
  8
1
  6
CONTINUOUS
 62
     7
100
AcDbLine
 10
473.406182
 20
322.256074
 30
0.0
 11
471.592595
 21
323.889035
 31
0.0
  0
LINE
  5
24F
100
AcDbEntity
  8
1
  6
CONTINUOUS
 62
     7
100
AcDbLine
 10
473.576489
 20
322.216755
 30
0.0
 11
471.592595
 21
324.003062
 31
0.0
  0
LINE
  5
250
100
AcDbEntity
  8
1
  6
CONTINUOUS
 62
     7
100
AcDbLine
 10
473.746796
 20
322.177437
 30
0.0
 11
471.592595
 21
324.117088
 31
0.0
  0
LINE
  5
251
100
AcDbEntity
  8
1
  6
CONTINUOUS
 62
     7
100
AcDbLine
 10
473.917102
 20
322.138118
 30
0.0
 11
471.592595
 21
324.231114
 31
0.0
  0
LINE
  5
252
100
AcDbEntity
  8
1
  6
CONTINUOUS
 62
     7
100
AcDbLine
 10
474.087409
 20
322.0988
 30
0.0
 11
471.592595
 21
324.345141
 31
0.0
  0
LINE
  5
253
100
AcDbEntity
  8
1
  6
CONTINUOUS
 62
     7
100
AcDbLine
 10
474.257716
 20
322.059482
 30
0.0
 11
471.592595
 21
324.459167
 31
0.0
  0
LINE
  5
254
100
AcDbEntity
  8
1
  6
CONTINUOUS
 62
     7
100
AcDbLine
 10
474.428022
 20
322.020163
 30
0.0
 11
471.592595
 21
324.573194
 31
0.0
  0
LINE
  5
255
100
AcDbEntity
  8
1
  6
CONTINUOUS
 62
     7
100
AcDbLine
 10
474.598329
 20
321.980845
 30
0.0
 11
471.592595
 21
324.68722
 31
0.0
  0
LINE
  5
256
100
AcDbEntity
  8
1
  6
CONTINUOUS
 62
     7
100
AcDbLine
 10
474.768636
 20
321.941526
 30
0.0
 11
471.592595
 21
324.801247
 31
0.0
  0
LINE
  5
257
100
AcDbEntity
  8
1
  6
CONTINUOUS
 62
     7
100
AcDbLine
 10
474.938942
 20
321.902208
 30
0.0
 11
471.592595
 21
324.915273
 31
0.0
  0
LINE
  5
258
100
AcDbEntity
  8
1
  6
CONTINUOUS
 62
     7
100
AcDbLine
 10
475.092555
 20
321.877921
 30
0.0
 11
471.592595
 21
325.029299
 31
0.0
  0
LINE
  5
259
100
AcDbEntity
  8
1
  6
CONTINUOUS
 62
     7
100
AcDbLine
 10
475.092555
 20
321.991947
 30
0.0
 11
471.592595
 21
325.143326
 31
0.0
  0
LINE
  5
25A
100
AcDbEntity
  8
1
  6
CONTINUOUS
 62
     7
100
AcDbLine
 10
475.092555
 20
322.105974
 30
0.0
 11
471.592595
 21
325.257352
 31
0.0
  0
LINE
  5
25B
100
AcDbEntity
  8
1
  6
CONTINUOUS
 62
     7
100
AcDbLine
 10
475.092555
 20
322.205747
 30
0.0
 11
471.592595
 21
325.357126
 31
0.0
  0
LINE
  5
25C
100
AcDbEntity
  8
1
  6
CONTINUOUS
 62
     7
100
AcDbLine
 10
475.092555
 20
322.17724
 30
0.0
 11
471.592595
 21
325.328619
 31
0.0
  0
LINE
  5
25D
100
AcDbEntity
  8
1
  6
CONTINUOUS
 62
     7
100
AcDbLine
 10
475.092555
 20
322.148734
 30
0.0
 11
471.592595
 21
325.300112
 31
0.0
  0
LINE
  5
25E
100
AcDbEntity
  8
1
  6
CONTINUOUS
 62
     7
100
AcDbLine
 10
475.092555
 20
322.120227
 30
0.0
 11
471.592595
 21
325.271606
 31
0.0
  0
LINE
  5
25F
100
AcDbEntity
  8
1
  6
CONTINUOUS
 62
     7
100
AcDbLine
 10
475.092555
 20
322.091721
 30
0.0
 11
471.592595
 21
325.243099
 31
0.0
  0
LINE
  5
260
100
AcDbEntity
  8
1
  6
CONTINUOUS
 62
     7
100
AcDbLine
 10
475.092555
 20
322.063214
 30
0.0
 11
471.592595
 21
325.214592
 31
0.0
  0
LINE
  5
261
100
AcDbEntity
  8
1
  6
CONTINUOUS
 62
     7
100
AcDbLine
 10
475.092555
 20
322.034707
 30
0.0
 11
471.592595
 21
325.186086
 31
0.0
  0
LINE
  5
262
100
AcDbEntity
  8
1
  6
CONTINUOUS
 62
     7
100
AcDbLine
 10
475.092555
 20
322.006201
 30
0.0
 11
471.592595
 21
325.157579
 31
0.0
  0
LINE
  5
263
100
AcDbEntity
  8
1
  6
CONTINUOUS
 62
     7
100
AcDbLine
 10
475.092555
 20
321.977694
 30
0.0
 11
471.592595
 21
325.129072
 31
0.0
  0
LINE
  5
264
100
AcDbEntity
  8
1
  6
CONTINUOUS
 62
     7
100
AcDbLine
 10
475.092555
 20
321.949188
 30
0.0
 11
471.592595
 21
325.100566
 31
0.0
  0
LINE
  5
265
100
AcDbEntity
  8
1
  6
CONTINUOUS
 62
     7
100
AcDbLine
 10
475.092555
 20
321.920681
 30
0.0
 11
471.592595
 21
325.072059
 31
0.0
  0
LINE
  5
266
100
AcDbEntity
  8
1
  6
CONTINUOUS
 62
     7
100
AcDbLine
 10
475.092555
 20
321.892174
 30
0.0
 11
471.592595
 21
325.043553
 31
0.0
  0
LINE
  5
267
100
AcDbEntity
  8
1
  6
CONTINUOUS
 62
     7
100
AcDbLine
 10
475.087961
 20
321.867804
 30
0.0
 11
471.592595
 21
325.015046
 31
0.0
  0
LINE
  5
268
100
AcDbEntity
  8
1
  6
CONTINUOUS
 62
     7
100
AcDbLine
 10
475.045384
 20
321.877634
 30
0.0
 11
471.592595
 21
324.98654
 31
0.0
  0
LINE
  5
269
100
AcDbEntity
  8
1
  6
CONTINUOUS
 62
     7
100
AcDbLine
 10
474.979972
 20
321.908025
 30
0.0
 11
471.592595
 21
324.958033
 31
0.0
  0
LINE
  5
26A
100
AcDbEntity
  8
1
  6
CONTINUOUS
 62
     7
100
AcDbLine
 10
474.960231
 20
321.897293
 30
0.0
 11
471.592595
 21
324.929526
 31
0.0
  0
LINE
  5
26B
100
AcDbEntity
  8
1
  6
CONTINUOUS
 62
     7
100
AcDbLine
 10
474.917654
 20
321.907123
 30
0.0
 11
471.592595
 21
324.90102
 31
0.0
  0
LINE
  5
26C
100
AcDbEntity
  8
1
  6
CONTINUOUS
 62
     7
100
AcDbLine
 10
474.875077
 20
321.916952
 30
0.0
 11
471.592595
 21
324.872513
 31
0.0
  0
LINE
  5
26D
100
AcDbEntity
  8
1
  6
CONTINUOUS
 62
     7
100
AcDbLine
 10
474.832501
 20
321.926782
 30
0.0
 11
471.592595
 21
324.844006
 31
0.0
  0
LINE
  5
26E
100
AcDbEntity
  8
1
  6
CONTINUOUS
 62
     7
100
AcDbLine
 10
474.789924
 20
321.936612
 30
0.0
 11
471.592595
 21
324.8155
 31
0.0
  0
LINE
  5
26F
100
AcDbEntity
  8
1
  6
CONTINUOUS
 62
     7
100
AcDbLine
 10
474.747347
 20
321.946441
 30
0.0
 11
471.592595
 21
324.786993
 31
0.0
  0
LINE
  5
270
100
AcDbEntity
  8
1
  6
CONTINUOUS
 62
     7
100
AcDbLine
 10
474.704771
 20
321.956271
 30
0.0
 11
471.592595
 21
324.758487
 31
0.0
  0
LINE
  5
271
100
AcDbEntity
  8
1
  6
CONTINUOUS
 62
     7
100
AcDbLine
 10
474.662194
 20
321.9661
 30
0.0
 11
471.592595
 21
324.72998
 31
0.0
  0
LINE
  5
272
100
AcDbEntity
  8
1
  6
CONTINUOUS
 62
     7
100
AcDbLine
 10
474.619617
 20
321.97593
 30
0.0
 11
471.592595
 21
324.701474
 31
0.0
  0
LINE
  5
273
100
AcDbEntity
  8
1
  6
CONTINUOUS
 62
     7
100
AcDbLine
 10
474.577041
 20
321.985759
 30
0.0
 11
471.592595
 21
324.672967
 31
0.0
  0
LINE
  5
274
100
AcDbEntity
  8
1
  6
CONTINUOUS
 62
     7
100
AcDbLine
 10
474.534464
 20
321.995589
 30
0.0
 11
471.592595
 21
324.64446
 31
0.0
  0
LINE
  5
275
100
AcDbEntity
  8
1
  6
CONTINUOUS
 62
     7
100
AcDbLine
 10
474.491887
 20
322.005419
 30
0.0
 11
471.592595
 21
324.615954
 31
0.0
  0
LINE
  5
276
100
AcDbEntity
  8
1
  6
CONTINUOUS
 62
     7
100
AcDbLine
 10
474.449311
 20
322.015248
 30
0.0
 11
471.592595
 21
324.587447
 31
0.0
  0
LINE
  5
277
100
AcDbEntity
  8
1
  6
CONTINUOUS
 62
     7
100
AcDbLine
 10
474.406734
 20
322.025078
 30
0.0
 11
471.592595
 21
324.55894
 31
0.0
  0
LINE
  5
278
100
AcDbEntity
  8
1
  6
CONTINUOUS
 62
     7
100
AcDbLine
 10
474.364157
 20
322.034908
 30
0.0
 11
471.592595
 21
324.530434
 31
0.0
  0
LINE
  5
279
100
AcDbEntity
  8
1
  6
CONTINUOUS
 62
     7
100
AcDbLine
 10
474.321581
 20
322.044737
 30
0.0
 11
471.592595
 21
324.501927
 31
0.0
  0
LINE
  5
27A
100
AcDbEntity
  8
1
  6
CONTINUOUS
 62
     7
100
AcDbLine
 10
474.279004
 20
322.054567
 30
0.0
 11
471.592595
 21
324.47342
 31
0.0
  0
LINE
  5
27B
100
AcDbEntity
  8
1
  6
CONTINUOUS
 62
     7
100
AcDbLine
 10
474.236427
 20
322.064396
 30
0.0
 11
471.592595
 21
324.444914
 31
0.0
  0
LINE
  5
27C
100
AcDbEntity
  8
1
  6
CONTINUOUS
 62
     7
100
AcDbLine
 10
474.193851
 20
322.074226
 30
0.0
 11
471.592595
 21
324.416407
 31
0.0
  0
LINE
  5
27D
100
AcDbEntity
  8
1
  6
CONTINUOUS
 62
     7
100
AcDbLine
 10
474.151274
 20
322.084056
 30
0.0
 11
471.592595
 21
324.387901
 31
0.0
  0
LINE
  5
27E
100
AcDbEntity
  8
1
  6
CONTINUOUS
 62
     7
100
AcDbLine
 10
474.108697
 20
322.093885
 30
0.0
 11
471.592595
 21
324.359394
 31
0.0
  0
LINE
  5
27F
100
AcDbEntity
  8
1
  6
CONTINUOUS
 62
     7
100
AcDbLine
 10
474.066121
 20
322.103715
 30
0.0
 11
471.592595
 21
324.330888
 31
0.0
  0
LINE
  5
280
100
AcDbEntity
  8
1
  6
CONTINUOUS
 62
     7
100
AcDbLine
 10
474.023544
 20
322.113544
 30
0.0
 11
471.592595
 21
324.302381
 31
0.0
  0
LINE
  5
281
100
AcDbEntity
  8
1
  6
CONTINUOUS
 62
     7
100
AcDbLine
 10
473.980967
 20
322.123374
 30
0.0
 11
471.592595
 21
324.273874
 31
0.0
  0
LINE
  5
282
100
AcDbEntity
  8
1
  6
CONTINUOUS
 62
     7
100
AcDbLine
 10
473.938391
 20
322.133203
 30
0.0
 11
471.592595
 21
324.245368
 31
0.0
  0
LINE
  5
283
100
AcDbEntity
  8
1
  6
CONTINUOUS
 62
     7
100
AcDbLine
 10
473.895814
 20
322.143033
 30
0.0
 11
471.592595
 21
324.216861
 31
0.0
  0
LINE
  5
284
100
AcDbEntity
  8
1
  6
CONTINUOUS
 62
     7
100
AcDbLine
 10
473.853237
 20
322.152863
 30
0.0
 11
471.592595
 21
324.188354
 31
0.0
  0
LINE
  5
285
100
AcDbEntity
  8
1
  6
CONTINUOUS
 62
     7
100
AcDbLine
 10
473.810661
 20
322.162692
 30
0.0
 11
471.592595
 21
324.159848
 31
0.0
  0
LINE
  5
286
100
AcDbEntity
  8
1
  6
CONTINUOUS
 62
     7
100
AcDbLine
 10
473.768084
 20
322.172522
 30
0.0
 11
471.592595
 21
324.131341
 31
0.0
  0
LINE
  5
287
100
AcDbEntity
  8
1
  6
CONTINUOUS
 62
     7
100
AcDbLine
 10
473.725507
 20
322.182351
 30
0.0
 11
471.592595
 21
324.102835
 31
0.0
  0
LINE
  5
288
100
AcDbEntity
  8
1
  6
CONTINUOUS
 62
     7
100
AcDbLine
 10
473.682931
 20
322.192181
 30
0.0
 11
471.592595
 21
324.074328
 31
0.0
  0
LINE
  5
289
100
AcDbEntity
  8
1
  6
CONTINUOUS
 62
     7
100
AcDbLine
 10
473.640354
 20
322.202011
 30
0.0
 11
471.592595
 21
324.045822
 31
0.0
  0
LINE
  5
28A
100
AcDbEntity
  8
1
  6
CONTINUOUS
 62
     7
100
AcDbLine
 10
473.597777
 20
322.21184
 30
0.0
 11
471.592595
 21
324.017315
 31
0.0
  0
LINE
  5
28B
100
AcDbEntity
  8
1
  6
CONTINUOUS
 62
     7
100
AcDbLine
 10
473.555201
 20
322.22167
 30
0.0
 11
471.592595
 21
323.988808
 31
0.0
  0
LINE
  5
28C
100
AcDbEntity
  8
1
  6
CONTINUOUS
 62
     7
100
AcDbLine
 10
473.512624
 20
322.2315
 30
0.0
 11
471.592595
 21
323.960302
 31
0.0
  0
LINE
  5
28D
100
AcDbEntity
  8
1
  6
CONTINUOUS
 62
     7
100
AcDbLine
 10
473.470047
 20
322.241329
 30
0.0
 11
471.592595
 21
323.931795
 31
0.0
  0
LINE
  5
28E
100
AcDbEntity
  8
1
  6
CONTINUOUS
 62
     7
100
AcDbLine
 10
473.427471
 20
322.251159
 30
0.0
 11
471.592595
 21
323.903288
 31
0.0
  0
LINE
  5
28F
100
AcDbEntity
  8
1
  6
CONTINUOUS
 62
     7
100
AcDbLine
 10
473.384894
 20
322.260988
 30
0.0
 11
471.592595
 21
323.874782
 31
0.0
  0
LINE
  5
290
100
AcDbEntity
  8
1
  6
CONTINUOUS
 62
     7
100
AcDbLine
 10
473.342317
 20
322.270818
 30
0.0
 11
471.592595
 21
323.846275
 31
0.0
  0
LINE
  5
291
100
AcDbEntity
  8
1
  6
CONTINUOUS
 62
     7
100
AcDbLine
 10
473.299741
 20
322.280647
 30
0.0
 11
471.599682
 21
323.811387
 31
0.0
  0
LINE
  5
292
100
AcDbEntity
  8
1
  6
CONTINUOUS
 62
     7
100
AcDbLine
 10
473.257164
 20
322.290477
 30
0.0
 11
471.592595
 21
323.789262
 31
0.0
  0
LINE
  5
293
100
AcDbEntity
  8
1
  6
CONTINUOUS
 62
     7
100
AcDbLine
 10
473.214587
 20
322.300307
 30
0.0
 11
471.592595
 21
323.760755
 31
0.0
  0
LINE
  5
294
100
AcDbEntity
  8
1
  6
CONTINUOUS
 62
     7
100
AcDbLine
 10
473.172011
 20
322.310136
 30
0.0
 11
471.592595
 21
323.732249
 31
0.0
  0
LINE
  5
295
100
AcDbEntity
  8
1
  6
CONTINUOUS
 62
     7
100
AcDbLine
 10
473.129434
 20
322.319966
 30
0.0
 11
471.592595
 21
323.703742
 31
0.0
  0
LINE
  5
296
100
AcDbEntity
  8
1
  6
CONTINUOUS
 62
     7
100
AcDbLine
 10
473.086857
 20
322.329795
 30
0.0
 11
471.592595
 21
323.675236
 31
0.0
  0
LINE
  5
297
100
AcDbEntity
  8
1
  6
CONTINUOUS
 62
     7
100
AcDbLine
 10
472.408703
 20
322.883395
 30
0.0
 11
471.592595
 21
323.618222
 31
0.0
  0
LINE
  5
298
100
AcDbEntity
  8
1
  6
CONTINUOUS
 62
     7
100
AcDbLine
 10
472.45128
 20
322.873565
 30
0.0
 11
471.592595
 21
323.646729
 31
0.0
  0
LINE
  5
299
100
AcDbEntity
  8
1
  6
CONTINUOUS
 62
     7
100
AcDbLine
 10
475.090349
 20
322.445582
 30
0.0
 11
475.092555
 21
322.446385
 31
0.0
  0
LINE
  5
29A
100
AcDbEntity
  8
1
  6
CONTINUOUS
 62
     7
100
AcDbLine
 10
475.072984
 20
322.461218
 30
0.0
 11
475.092555
 21
322.468342
 31
0.0
  0
LINE
  5
29B
100
AcDbEntity
  8
1
  6
CONTINUOUS
 62
     7
100
AcDbLine
 10
475.055618
 20
322.476854
 30
0.0
 11
475.092555
 21
322.490298
 31
0.0
  0
LINE
  5
29C
100
AcDbEntity
  8
1
  6
CONTINUOUS
 62
     7
100
AcDbLine
 10
475.038252
 20
322.49249
 30
0.0
 11
475.092555
 21
322.512255
 31
0.0
  0
LINE
  5
29D
100
AcDbEntity
  8
1
  6
CONTINUOUS
 62
     7
100
AcDbLine
 10
475.020887
 20
322.508126
 30
0.0
 11
475.092555
 21
322.534212
 31
0.0
  0
LINE
  5
29E
100
AcDbEntity
  8
1
  6
CONTINUOUS
 62
     7
100
AcDbLine
 10
475.003521
 20
322.523763
 30
0.0
 11
475.092555
 21
322.556168
 31
0.0
  0
LINE
  5
29F
100
AcDbEntity
  8
1
  6
CONTINUOUS
 62
     7
100
AcDbLine
 10
474.986155
 20
322.539399
 30
0.0
 11
475.092555
 21
322.578125
 31
0.0
  0
LINE
  5
2A0
100
AcDbEntity
  8
1
  6
CONTINUOUS
 62
     7
100
AcDbLine
 10
474.96879
 20
322.555035
 30
0.0
 11
475.092555
 21
322.600082
 31
0.0
  0
LINE
  5
2A1
100
AcDbEntity
  8
1
  6
CONTINUOUS
 62
     7
100
AcDbLine
 10
474.951424
 20
322.570671
 30
0.0
 11
475.092555
 21
322.622038
 31
0.0
  0
LINE
  5
2A2
100
AcDbEntity
  8
1
  6
CONTINUOUS
 62
     7
100
AcDbLine
 10
474.934059
 20
322.586307
 30
0.0
 11
475.092555
 21
322.643995
 31
0.0
  0
LINE
  5
2A3
100
AcDbEntity
  8
1
  6
CONTINUOUS
 62
     7
100
AcDbLine
 10
474.916693
 20
322.601943
 30
0.0
 11
475.092555
 21
322.665951
 31
0.0
  0
LINE
  5
2A4
100
AcDbEntity
  8
1
  6
CONTINUOUS
 62
     7
100
AcDbLine
 10
474.899327
 20
322.617579
 30
0.0
 11
475.092555
 21
322.687908
 31
0.0
  0
LINE
  5
2A5
100
AcDbEntity
  8
1
  6
CONTINUOUS
 62
     7
100
AcDbLine
 10
474.881962
 20
322.633215
 30
0.0
 11
475.092555
 21
322.709865
 31
0.0
  0
LINE
  5
2A6
100
AcDbEntity
  8
1
  6
CONTINUOUS
 62
     7
100
AcDbLine
 10
474.864596
 20
322.648851
 30
0.0
 11
475.092555
 21
322.731821
 31
0.0
  0
LINE
  5
2A7
100
AcDbEntity
  8
1
  6
CONTINUOUS
 62
     7
100
AcDbLine
 10
474.847231
 20
322.664487
 30
0.0
 11
475.092555
 21
322.753778
 31
0.0
  0
LINE
  5
2A8
100
AcDbEntity
  8
1
  6
CONTINUOUS
 62
     7
100
AcDbLine
 10
474.829865
 20
322.680123
 30
0.0
 11
475.092555
 21
322.775735
 31
0.0
  0
LINE
  5
2A9
100
AcDbEntity
  8
1
  6
CONTINUOUS
 62
     7
100
AcDbLine
 10
474.812499
 20
322.695759
 30
0.0
 11
475.092555
 21
322.797691
 31
0.0
  0
LINE
  5
2AA
100
AcDbEntity
  8
1
  6
CONTINUOUS
 62
     7
100
AcDbLine
 10
474.795134
 20
322.711396
 30
0.0
 11
475.092555
 21
322.819648
 31
0.0
  0
LINE
  5
2AB
100
AcDbEntity
  8
1
  6
CONTINUOUS
 62
     7
100
AcDbLine
 10
474.777768
 20
322.727032
 30
0.0
 11
475.092555
 21
322.841605
 31
0.0
  0
LINE
  5
2AC
100
AcDbEntity
  8
1
  6
CONTINUOUS
 62
     7
100
AcDbLine
 10
474.760402
 20
322.742668
 30
0.0
 11
475.092555
 21
322.863561
 31
0.0
  0
LINE
  5
2AD
100
AcDbEntity
  8
1
  6
CONTINUOUS
 62
     7
100
AcDbLine
 10
474.743037
 20
322.758304
 30
0.0
 11
475.092555
 21
322.885518
 31
0.0
  0
LINE
  5
2AE
100
AcDbEntity
  8
1
  6
CONTINUOUS
 62
     7
100
AcDbLine
 10
474.725671
 20
322.77394
 30
0.0
 11
475.092555
 21
322.907475
 31
0.0
  0
LINE
  5
2AF
100
AcDbEntity
  8
1
  6
CONTINUOUS
 62
     7
100
AcDbLine
 10
474.708306
 20
322.789576
 30
0.0
 11
475.092555
 21
322.929431
 31
0.0
  0
LINE
  5
2B0
100
AcDbEntity
  8
1
  6
CONTINUOUS
 62
     7
100
AcDbLine
 10
474.69094
 20
322.805212
 30
0.0
 11
475.092555
 21
322.951388
 31
0.0
  0
LINE
  5
2B1
100
AcDbEntity
  8
1
  6
CONTINUOUS
 62
     7
100
AcDbLine
 10
474.673574
 20
322.820848
 30
0.0
 11
475.092555
 21
322.973345
 31
0.0
  0
LINE
  5
2B2
100
AcDbEntity
  8
1
  6
CONTINUOUS
 62
     7
100
AcDbLine
 10
474.656209
 20
322.836484
 30
0.0
 11
475.092555
 21
322.995301
 31
0.0
  0
LINE
  5
2B3
100
AcDbEntity
  8
1
  6
CONTINUOUS
 62
     7
100
AcDbLine
 10
474.638843
 20
322.85212
 30
0.0
 11
475.092555
 21
323.017258
 31
0.0
  0
LINE
  5
2B4
100
AcDbEntity
  8
1
  6
CONTINUOUS
 62
     7
100
AcDbLine
 10
474.621477
 20
322.867756
 30
0.0
 11
475.092555
 21
323.039214
 31
0.0
  0
LINE
  5
2B5
100
AcDbEntity
  8
1
  6
CONTINUOUS
 62
     7
100
AcDbLine
 10
474.604112
 20
322.883392
 30
0.0
 11
475.092555
 21
323.061171
 31
0.0
  0
LINE
  5
2B6
100
AcDbEntity
  8
1
  6
CONTINUOUS
 62
     7
100
AcDbLine
 10
474.586746
 20
322.899029
 30
0.0
 11
475.092555
 21
323.083128
 31
0.0
  0
LINE
  5
2B7
100
AcDbEntity
  8
1
  6
CONTINUOUS
 62
     7
100
AcDbLine
 10
474.569381
 20
322.914665
 30
0.0
 11
475.092555
 21
323.105084
 31
0.0
  0
LINE
  5
2B8
100
AcDbEntity
  8
1
  6
CONTINUOUS
 62
     7
100
AcDbLine
 10
474.552015
 20
322.930301
 30
0.0
 11
475.092555
 21
323.127041
 31
0.0
  0
LINE
  5
2B9
100
AcDbEntity
  8
1
  6
CONTINUOUS
 62
     7
100
AcDbLine
 10
474.534649
 20
322.945937
 30
0.0
 11
475.092555
 21
323.148998
 31
0.0
  0
LINE
  5
2BA
100
AcDbEntity
  8
1
  6
CONTINUOUS
 62
     7
100
AcDbLine
 10
474.517284
 20
322.961573
 30
0.0
 11
475.092555
 21
323.170954
 31
0.0
  0
LINE
  5
2BB
100
AcDbEntity
  8
1
  6
CONTINUOUS
 62
     7
100
AcDbLine
 10
474.499918
 20
322.977209
 30
0.0
 11
475.092555
 21
323.192911
 31
0.0
  0
LINE
  5
2BC
100
AcDbEntity
  8
1
  6
CONTINUOUS
 62
     7
100
AcDbLine
 10
474.482552
 20
322.992845
 30
0.0
 11
475.092555
 21
323.214868
 31
0.0
  0
LINE
  5
2BD
100
AcDbEntity
  8
1
  6
CONTINUOUS
 62
     7
100
AcDbLine
 10
474.465187
 20
323.008481
 30
0.0
 11
475.092555
 21
323.236824
 31
0.0
  0
LINE
  5
2BE
100
AcDbEntity
  8
1
  6
CONTINUOUS
 62
     7
100
AcDbLine
 10
474.447821
 20
323.024117
 30
0.0
 11
475.092555
 21
323.258781
 31
0.0
  0
LINE
  5
2BF
100
AcDbEntity
  8
1
  6
CONTINUOUS
 62
     7
100
AcDbLine
 10
474.430456
 20
323.039753
 30
0.0
 11
475.092555
 21
323.280737
 31
0.0
  0
LINE
  5
2C0
100
AcDbEntity
  8
1
  6
CONTINUOUS
 62
     7
100
AcDbLine
 10
474.41309
 20
323.055389
 30
0.0
 11
475.092555
 21
323.302694
 31
0.0
  0
LINE
  5
2C1
100
AcDbEntity
  8
1
  6
CONTINUOUS
 62
     7
100
AcDbLine
 10
474.395724
 20
323.071025
 30
0.0
 11
475.092555
 21
323.324651
 31
0.0
  0
LINE
  5
2C2
100
AcDbEntity
  8
1
  6
CONTINUOUS
 62
     7
100
AcDbLine
 10
474.378359
 20
323.086661
 30
0.0
 11
475.092555
 21
323.346608
 31
0.0
  0
LINE
  5
2C3
100
AcDbEntity
  8
1
  6
CONTINUOUS
 62
     7
100
AcDbLine
 10
474.360993
 20
323.102298
 30
0.0
 11
475.092555
 21
323.368564
 31
0.0
  0
LINE
  5
2C4
100
AcDbEntity
  8
1
  6
CONTINUOUS
 62
     7
100
AcDbLine
 10
474.343627
 20
323.117934
 30
0.0
 11
475.092555
 21
323.390521
 31
0.0
  0
LINE
  5
2C5
100
AcDbEntity
  8
1
  6
CONTINUOUS
 62
     7
100
AcDbLine
 10
474.326262
 20
323.13357
 30
0.0
 11
475.092555
 21
323.412477
 31
0.0
  0
LINE
  5
2C6
100
AcDbEntity
  8
1
  6
CONTINUOUS
 62
     7
100
AcDbLine
 10
474.308896
 20
323.149206
 30
0.0
 11
475.092555
 21
323.434434
 31
0.0
  0
LINE
  5
2C7
100
AcDbEntity
  8
1
  6
CONTINUOUS
 62
     7
100
AcDbLine
 10
474.291531
 20
323.164842
 30
0.0
 11
475.092555
 21
323.456391
 31
0.0
  0
LINE
  5
2C8
100
AcDbEntity
  8
1
  6
CONTINUOUS
 62
     7
100
AcDbLine
 10
474.274165
 20
323.180478
 30
0.0
 11
475.092555
 21
323.478347
 31
0.0
  0
LINE
  5
2C9
100
AcDbEntity
  8
1
  6
CONTINUOUS
 62
     7
100
AcDbLine
 10
474.256799
 20
323.196114
 30
0.0
 11
475.092555
 21
323.500304
 31
0.0
  0
LINE
  5
2CA
100
AcDbEntity
  8
1
  6
CONTINUOUS
 62
     7
100
AcDbLine
 10
474.239434
 20
323.21175
 30
0.0
 11
475.092555
 21
323.522261
 31
0.0
  0
LINE
  5
2CB
100
AcDbEntity
  8
1
  6
CONTINUOUS
 62
     7
100
AcDbLine
 10
474.222068
 20
323.227386
 30
0.0
 11
475.092555
 21
323.544217
 31
0.0
  0
LINE
  5
2CC
100
AcDbEntity
  8
1
  6
CONTINUOUS
 62
     7
100
AcDbLine
 10
474.204702
 20
323.243022
 30
0.0
 11
475.092555
 21
323.566174
 31
0.0
  0
LINE
  5
2CD
100
AcDbEntity
  8
1
  6
CONTINUOUS
 62
     7
100
AcDbLine
 10
474.187337
 20
323.258658
 30
0.0
 11
475.092555
 21
323.588131
 31
0.0
  0
LINE
  5
2CE
100
AcDbEntity
  8
1
  6
CONTINUOUS
 62
     7
100
AcDbLine
 10
474.169971
 20
323.274294
 30
0.0
 11
475.092555
 21
323.610087
 31
0.0
  0
LINE
  5
2CF
100
AcDbEntity
  8
1
  6
CONTINUOUS
 62
     7
100
AcDbLine
 10
474.152606
 20
323.28993
 30
0.0
 11
475.092555
 21
323.632044
 31
0.0
  0
LINE
  5
2D0
100
AcDbEntity
  8
1
  6
CONTINUOUS
 62
     7
100
AcDbLine
 10
474.13524
 20
323.305567
 30
0.0
 11
475.092555
 21
323.654001
 31
0.0
  0
LINE
  5
2D1
100
AcDbEntity
  8
1
  6
CONTINUOUS
 62
     7
100
AcDbLine
 10
474.117874
 20
323.321203
 30
0.0
 11
475.092555
 21
323.675957
 31
0.0
  0
LINE
  5
2D2
100
AcDbEntity
  8
1
  6
CONTINUOUS
 62
     7
100
AcDbLine
 10
474.100509
 20
323.336839
 30
0.0
 11
475.092555
 21
323.697914
 31
0.0
  0
LINE
  5
2D3
100
AcDbEntity
  8
1
  6
CONTINUOUS
 62
     7
100
AcDbLine
 10
474.083143
 20
323.352475
 30
0.0
 11
475.092555
 21
323.719871
 31
0.0
  0
LINE
  5
2D4
100
AcDbEntity
  8
1
  6
CONTINUOUS
 62
     7
100
AcDbLine
 10
474.065777
 20
323.368111
 30
0.0
 11
475.092555
 21
323.741827
 31
0.0
  0
LINE
  5
2D5
100
AcDbEntity
  8
1
  6
CONTINUOUS
 62
     7
100
AcDbLine
 10
474.048412
 20
323.383747
 30
0.0
 11
475.092555
 21
323.763784
 31
0.0
  0
LINE
  5
2D6
100
AcDbEntity
  8
1
  6
CONTINUOUS
 62
     7
100
AcDbLine
 10
474.031046
 20
323.399383
 30
0.0
 11
475.092555
 21
323.78574
 31
0.0
  0
LINE
  5
2D7
100
AcDbEntity
  8
1
  6
CONTINUOUS
 62
     7
100
AcDbLine
 10
474.013681
 20
323.415019
 30
0.0
 11
475.092555
 21
323.807697
 31
0.0
  0
LINE
  5
2D8
100
AcDbEntity
  8
1
  6
CONTINUOUS
 62
     7
100
AcDbLine
 10
473.996315
 20
323.430655
 30
0.0
 11
475.092555
 21
323.829654
 31
0.0
  0
LINE
  5
2D9
100
AcDbEntity
  8
1
  6
CONTINUOUS
 62
     7
100
AcDbLine
 10
473.978949
 20
323.446291
 30
0.0
 11
475.092555
 21
323.85161
 31
0.0
  0
LINE
  5
2DA
100
AcDbEntity
  8
1
  6
CONTINUOUS
 62
     7
100
AcDbLine
 10
473.961584
 20
323.461927
 30
0.0
 11
475.092555
 21
323.873567
 31
0.0
  0
LINE
  5
2DB
100
AcDbEntity
  8
1
  6
CONTINUOUS
 62
     7
100
AcDbLine
 10
473.944218
 20
323.477563
 30
0.0
 11
475.092555
 21
323.895524
 31
0.0
  0
LINE
  5
2DC
100
AcDbEntity
  8
1
  6
CONTINUOUS
 62
     7
100
AcDbLine
 10
473.926852
 20
323.493199
 30
0.0
 11
475.092555
 21
323.91748
 31
0.0
  0
LINE
  5
2DD
100
AcDbEntity
  8
1
  6
CONTINUOUS
 62
     7
100
AcDbLine
 10
473.909487
 20
323.508836
 30
0.0
 11
475.092555
 21
323.939437
 31
0.0
  0
LINE
  5
2DE
100
AcDbEntity
  8
1
  6
CONTINUOUS
 62
     7
100
AcDbLine
 10
473.892121
 20
323.524472
 30
0.0
 11
475.092555
 21
323.961394
 31
0.0
  0
LINE
  5
2DF
100
AcDbEntity
  8
1
  6
CONTINUOUS
 62
     7
100
AcDbLine
 10
473.874756
 20
323.540108
 30
0.0
 11
475.092555
 21
323.98335
 31
0.0
  0
LINE
  5
2E0
100
AcDbEntity
  8
1
  6
CONTINUOUS
 62
     7
100
AcDbLine
 10
473.85739
 20
323.555744
 30
0.0
 11
475.092555
 21
324.005307
 31
0.0
  0
LINE
  5
2E1
100
AcDbEntity
  8
1
  6
CONTINUOUS
 62
     7
100
AcDbLine
 10
473.840024
 20
323.57138
 30
0.0
 11
475.092555
 21
324.027264
 31
0.0
  0
LINE
  5
2E2
100
AcDbEntity
  8
1
  6
CONTINUOUS
 62
     7
100
AcDbLine
 10
473.822659
 20
323.587016
 30
0.0
 11
475.092555
 21
324.04922
 31
0.0
  0
LINE
  5
2E3
100
AcDbEntity
  8
1
  6
CONTINUOUS
 62
     7
100
AcDbLine
 10
473.475346
 20
323.899737
 30
0.0
 11
475.092555
 21
324.488353
 31
0.0
  0
LINE
  5
2E4
100
AcDbEntity
  8
1
  6
CONTINUOUS
 62
     7
100
AcDbLine
 10
473.423249
 20
323.946646
 30
0.0
 11
475.092555
 21
324.554223
 31
0.0
  0
LINE
  5
2E5
100
AcDbEntity
  8
1
  6
CONTINUOUS
 62
     7
100
AcDbLine
 10
473.805293
 20
323.602652
 30
0.0
 11
475.092555
 21
324.071177
 31
0.0
  0
LINE
  5
2E6
100
AcDbEntity
  8
1
  6
CONTINUOUS
 62
     7
100
AcDbLine
 10
473.787927
 20
323.618288
 30
0.0
 11
475.092555
 21
324.093134
 31
0.0
  0
LINE
  5
2E7
100
AcDbEntity
  8
1
  6
CONTINUOUS
 62
     7
100
AcDbLine
 10
473.770562
 20
323.633924
 30
0.0
 11
475.092555
 21
324.11509
 31
0.0
  0
LINE
  5
2E8
100
AcDbEntity
  8
1
  6
CONTINUOUS
 62
     7
100
AcDbLine
 10
473.753196
 20
323.64956
 30
0.0
 11
475.092555
 21
324.137047
 31
0.0
  0
LINE
  5
2E9
100
AcDbEntity
  8
1
  6
CONTINUOUS
 62
     7
100
AcDbLine
 10
473.735831
 20
323.665196
 30
0.0
 11
475.092555
 21
324.159004
 31
0.0
  0
LINE
  5
2EA
100
AcDbEntity
  8
1
  6
CONTINUOUS
 62
     7
100
AcDbLine
 10
473.718465
 20
323.680832
 30
0.0
 11
475.092555
 21
324.18096
 31
0.0
  0
LINE
  5
2EB
100
AcDbEntity
  8
1
  6
CONTINUOUS
 62
     7
100
AcDbLine
 10
473.701099
 20
323.696468
 30
0.0
 11
475.092555
 21
324.202917
 31
0.0
  0
LINE
  5
2EC
100
AcDbEntity
  8
1
  6
CONTINUOUS
 62
     7
100
AcDbLine
 10
473.683734
 20
323.712104
 30
0.0
 11
475.092555
 21
324.224873
 31
0.0
  0
LINE
  5
2ED
100
AcDbEntity
  8
1
  6
CONTINUOUS
 62
     7
100
AcDbLine
 10
473.666368
 20
323.72774
 30
0.0
 11
475.092555
 21
324.24683
 31
0.0
  0
LINE
  5
2EE
100
AcDbEntity
  8
1
  6
CONTINUOUS
 62
     7
100
AcDbLine
 10
473.649003
 20
323.743376
 30
0.0
 11
475.092555
 21
324.268787
 31
0.0
  0
LINE
  5
2EF
100
AcDbEntity
  8
1
  6
CONTINUOUS
 62
     7
100
AcDbLine
 10
473.631637
 20
323.759013
 30
0.0
 11
475.092555
 21
324.290743
 31
0.0
  0
LINE
  5
2F0
100
AcDbEntity
  8
1
  6
CONTINUOUS
 62
     7
100
AcDbLine
 10
473.614271
 20
323.774649
 30
0.0
 11
475.092555
 21
324.3127
 31
0.0
  0
LINE
  5
2F1
100
AcDbEntity
  8
1
  6
CONTINUOUS
 62
     7
100
AcDbLine
 10
473.596906
 20
323.790285
 30
0.0
 11
475.092555
 21
324.334657
 31
0.0
  0
LINE
  5
2F2
100
AcDbEntity
  8
1
  6
CONTINUOUS
 62
     7
100
AcDbLine
 10
473.57954
 20
323.805921
 30
0.0
 11
475.092555
 21
324.356613
 31
0.0
  0
LINE
  5
2F3
100
AcDbEntity
  8
1
  6
CONTINUOUS
 62
     7
100
AcDbLine
 10
473.562174
 20
323.821557
 30
0.0
 11
475.092555
 21
324.37857
 31
0.0
  0
LINE
  5
2F4
100
AcDbEntity
  8
1
  6
CONTINUOUS
 62
     7
100
AcDbLine
 10
473.544809
 20
323.837193
 30
0.0
 11
475.092555
 21
324.400527
 31
0.0
  0
LINE
  5
2F5
100
AcDbEntity
  8
1
  6
CONTINUOUS
 62
     7
100
AcDbLine
 10
473.527443
 20
323.852829
 30
0.0
 11
475.092555
 21
324.422483
 31
0.0
  0
LINE
  5
2F6
100
AcDbEntity
  8
1
  6
CONTINUOUS
 62
     7
100
AcDbLine
 10
473.510078
 20
323.868465
 30
0.0
 11
475.092555
 21
324.44444
 31
0.0
  0
LINE
  5
2F7
100
AcDbEntity
  8
1
  6
CONTINUOUS
 62
     7
100
AcDbLine
 10
473.492712
 20
323.884101
 30
0.0
 11
475.092555
 21
324.466397
 31
0.0
  0
LINE
  5
2F8
100
AcDbEntity
  8
1
  6
CONTINUOUS
 62
     7
100
AcDbLine
 10
473.457981
 20
323.915373
 30
0.0
 11
475.092555
 21
324.51031
 31
0.0
  0
LINE
  5
2F9
100
AcDbEntity
  8
1
  6
CONTINUOUS
 62
     7
100
AcDbLine
 10
473.440615
 20
323.931009
 30
0.0
 11
475.092555
 21
324.532266
 31
0.0
  0
LINE
  5
2FA
100
AcDbEntity
  8
1
  6
CONTINUOUS
 62
     7
100
AcDbLine
 10
475.092555
 20
321.866744
 30
0.0
 11
471.592595
 21
322.674773
 31
0.0
  0
LINE
  5
2FB
100
AcDbEntity
  8
1
  6
CONTINUOUS
 62
     7
100
AcDbLine
 10
475.092555
 20
321.893213
 30
0.0
 11
471.592595
 21
322.701242
 31
0.0
  0
LINE
  5
2FC
100
AcDbEntity
  8
1
  6
CONTINUOUS
 62
     7
100
AcDbLine
 10
475.092555
 20
321.919682
 30
0.0
 11
471.592595
 21
322.727711
 31
0.0
  0
LINE
  5
2FD
100
AcDbEntity
  8
1
  6
CONTINUOUS
 62
     7
100
AcDbLine
 10
475.092555
 20
321.946151
 30
0.0
 11
471.592595
 21
322.75418
 31
0.0
  0
LINE
  5
2FE
100
AcDbEntity
  8
1
  6
CONTINUOUS
 62
     7
100
AcDbLine
 10
475.092555
 20
321.97262
 30
0.0
 11
471.592595
 21
322.780649
 31
0.0
  0
LINE
  5
2FF
100
AcDbEntity
  8
1
  6
CONTINUOUS
 62
     7
100
AcDbLine
 10
475.092555
 20
321.999089
 30
0.0
 11
471.592595
 21
322.807118
 31
0.0
  0
LINE
  5
300
100
AcDbEntity
  8
1
  6
CONTINUOUS
 62
     7
100
AcDbLine
 10
475.092555
 20
322.025558
 30
0.0
 11
471.592595
 21
322.833587
 31
0.0
  0
LINE
  5
301
100
AcDbEntity
  8
1
  6
CONTINUOUS
 62
     7
100
AcDbLine
 10
475.092555
 20
322.052027
 30
0.0
 11
471.592595
 21
322.860056
 31
0.0
  0
LINE
  5
302
100
AcDbEntity
  8
1
  6
CONTINUOUS
 62
     7
100
AcDbLine
 10
475.092555
 20
322.078496
 30
0.0
 11
471.592595
 21
322.886525
 31
0.0
  0
LINE
  5
303
100
AcDbEntity
  8
1
  6
CONTINUOUS
 62
     7
100
AcDbLine
 10
475.092555
 20
322.104965
 30
0.0
 11
471.592595
 21
322.912994
 31
0.0
  0
LINE
  5
304
100
AcDbEntity
  8
1
  6
CONTINUOUS
 62
     7
100
AcDbLine
 10
475.092555
 20
322.131434
 30
0.0
 11
471.592595
 21
322.939463
 31
0.0
  0
LINE
  5
305
100
AcDbEntity
  8
1
  6
CONTINUOUS
 62
     7
100
AcDbLine
 10
475.092555
 20
322.157903
 30
0.0
 11
471.592595
 21
322.965932
 31
0.0
  0
LINE
  5
306
100
AcDbEntity
  8
1
  6
CONTINUOUS
 62
     7
100
AcDbLine
 10
475.092555
 20
322.184372
 30
0.0
 11
471.592595
 21
322.992401
 31
0.0
  0
LINE
  5
307
100
AcDbEntity
  8
1
  6
CONTINUOUS
 62
     7
100
AcDbLine
 10
475.084947
 20
322.212598
 30
0.0
 11
471.592595
 21
323.018871
 31
0.0
  0
LINE
  5
308
100
AcDbEntity
  8
1
  6
CONTINUOUS
 62
     7
100
AcDbLine
 10
475.045413
 20
322.248194
 30
0.0
 11
471.592595
 21
323.04534
 31
0.0
  0
LINE
  5
309
100
AcDbEntity
  8
1
  6
CONTINUOUS
 62
     7
100
AcDbLine
 10
475.00588
 20
322.28379
 30
0.0
 11
471.592595
 21
323.071808
 31
0.0
  0
LINE
  5
30A
100
AcDbEntity
  8
1
  6
CONTINUOUS
 62
     7
100
AcDbLine
 10
472.429991
 20
322.87848
 30
0.0
 11
471.592595
 21
323.632476
 31
0.0
  0
LINE
  5
30B
100
AcDbEntity
  8
1
  6
CONTINUOUS
 62
     7
100
AcDbLine
 10
473.108146
 20
322.324881
 30
0.0
 11
471.592595
 21
323.689489
 31
0.0
  0
LINE
  5
30C
100
AcDbEntity
  8
1
  6
CONTINUOUS
 62
     7
100
AcDbLine
 10
473.193299
 20
322.305221
 30
0.0
 11
471.592595
 21
323.746502
 31
0.0
  0
LINE
  5
30D
100
AcDbEntity
  8
1
  6
CONTINUOUS
 62
     7
100
AcDbLine
 10
473.278452
 20
322.285562
 30
0.0
 11
471.592595
 21
323.803515
 31
0.0
  0
LINE
  5
30E
100
AcDbEntity
  8
1
  6
CONTINUOUS
 62
     7
100
AcDbLine
 10
473.363606
 20
322.265903
 30
0.0
 11
471.592595
 21
323.860529
 31
0.0
  0
LINE
  5
30F
100
AcDbEntity
  8
1
  6
CONTINUOUS
 62
     7
100
AcDbLine
 10
473.448759
 20
322.246244
 30
0.0
 11
471.592595
 21
323.917542
 31
0.0
  0
LINE
  5
310
100
AcDbEntity
  8
1
  6
CONTINUOUS
 62
     7
100
AcDbLine
 10
473.533912
 20
322.226585
 30
0.0
 11
471.592595
 21
323.974555
 31
0.0
  0
LINE
  5
311
100
AcDbEntity
  8
1
  6
CONTINUOUS
 62
     7
100
AcDbLine
 10
473.619066
 20
322.206926
 30
0.0
 11
471.592595
 21
324.031568
 31
0.0
  0
LINE
  5
312
100
AcDbEntity
  8
1
  6
CONTINUOUS
 62
     7
100
AcDbLine
 10
473.704219
 20
322.187266
 30
0.0
 11
471.592595
 21
324.088581
 31
0.0
  0
LINE
  5
313
100
AcDbEntity
  8
1
  6
CONTINUOUS
 62
     7
100
AcDbLine
 10
473.789372
 20
322.167607
 30
0.0
 11
471.592595
 21
324.145594
 31
0.0
  0
LINE
  5
314
100
AcDbEntity
  8
1
  6
CONTINUOUS
 62
     7
100
AcDbLine
 10
473.874526
 20
322.147948
 30
0.0
 11
471.592595
 21
324.202608
 31
0.0
  0
LINE
  5
315
100
AcDbEntity
  8
1
  6
CONTINUOUS
 62
     7
100
AcDbLine
 10
473.959679
 20
322.128289
 30
0.0
 11
471.592595
 21
324.259621
 31
0.0
  0
LINE
  5
316
100
AcDbEntity
  8
1
  6
CONTINUOUS
 62
     7
100
AcDbLine
 10
474.044832
 20
322.10863
 30
0.0
 11
471.592595
 21
324.316634
 31
0.0
  0
LINE
  5
317
100
AcDbEntity
  8
1
  6
CONTINUOUS
 62
     7
100
AcDbLine
 10
474.129986
 20
322.08897
 30
0.0
 11
471.592595
 21
324.373647
 31
0.0
  0
LINE
  5
318
100
AcDbEntity
  8
1
  6
CONTINUOUS
 62
     7
100
AcDbLine
 10
474.215139
 20
322.069311
 30
0.0
 11
471.592595
 21
324.430661
 31
0.0
  0
LINE
  5
319
100
AcDbEntity
  8
1
  6
CONTINUOUS
 62
     7
100
AcDbLine
 10
474.300292
 20
322.049652
 30
0.0
 11
471.592595
 21
324.487674
 31
0.0
  0
LINE
  5
31A
100
AcDbEntity
  8
1
  6
CONTINUOUS
 62
     7
100
AcDbLine
 10
474.385446
 20
322.029993
 30
0.0
 11
471.592595
 21
324.544687
 31
0.0
  0
LINE
  5
31B
100
AcDbEntity
  8
1
  6
CONTINUOUS
 62
     7
100
AcDbLine
 10
474.470599
 20
322.010333
 30
0.0
 11
471.592595
 21
324.6017
 31
0.0
  0
LINE
  5
31C
100
AcDbEntity
  8
1
  6
CONTINUOUS
 62
     7
100
AcDbLine
 10
474.555752
 20
321.990674
 30
0.0
 11
471.592595
 21
324.658713
 31
0.0
  0
LINE
  5
31D
100
AcDbEntity
  8
1
  6
CONTINUOUS
 62
     7
100
AcDbLine
 10
474.640906
 20
321.971015
 30
0.0
 11
471.592595
 21
324.715727
 31
0.0
  0
LINE
  5
31E
100
AcDbEntity
  8
1
  6
CONTINUOUS
 62
     7
100
AcDbLine
 10
474.726059
 20
321.951356
 30
0.0
 11
471.592595
 21
324.77274
 31
0.0
  0
LINE
  5
31F
100
AcDbEntity
  8
1
  6
CONTINUOUS
 62
     7
100
AcDbLine
 10
474.811212
 20
321.931697
 30
0.0
 11
471.592595
 21
324.829753
 31
0.0
  0
LINE
  5
320
100
AcDbEntity
  8
1
  6
CONTINUOUS
 62
     7
100
AcDbLine
 10
474.896366
 20
321.912038
 30
0.0
 11
471.592595
 21
324.886766
 31
0.0
  0
LINE
  5
321
100
AcDbEntity
  8
1
  6
CONTINUOUS
 62
     7
100
AcDbLine
 10
474.981519
 20
321.892378
 30
0.0
 11
471.592595
 21
324.94378
 31
0.0
  0
LINE
  5
322
100
AcDbEntity
  8
1
  6
CONTINUOUS
 62
     7
100
AcDbLine
 10
475.066672
 20
321.872719
 30
0.0
 11
471.592595
 21
325.000793
 31
0.0
  0
LINE
  5
323
100
AcDbEntity
  8
1
  6
CONTINUOUS
 62
     7
100
AcDbLine
 10
475.092555
 20
321.906428
 30
0.0
 11
471.592595
 21
325.057806
 31
0.0
  0
LINE
  5
324
100
AcDbEntity
  8
1
  6
CONTINUOUS
 62
     7
100
AcDbLine
 10
475.092555
 20
321.963441
 30
0.0
 11
471.592595
 21
325.114819
 31
0.0
  0
LINE
  5
325
100
AcDbEntity
  8
1
  6
CONTINUOUS
 62
     7
100
AcDbLine
 10
475.092555
 20
322.020454
 30
0.0
 11
471.592595
 21
325.171833
 31
0.0
  0
LINE
  5
326
100
AcDbEntity
  8
1
  6
CONTINUOUS
 62
     7
100
AcDbLine
 10
475.092555
 20
322.077467
 30
0.0
 11
471.592595
 21
325.228846
 31
0.0
  0
LINE
  5
327
100
AcDbEntity
  8
1
  6
CONTINUOUS
 62
     7
100
AcDbLine
 10
475.092555
 20
322.13448
 30
0.0
 11
471.592595
 21
325.285859
 31
0.0
  0
LINE
  5
328
100
AcDbEntity
  8
1
  6
CONTINUOUS
 62
     7
100
AcDbLine
 10
475.092555
 20
322.191494
 30
0.0
 11
471.592595
 21
325.342872
 31
0.0
  0
LINE
  5
329
100
AcDbEntity
  8
1
  6
CONTINUOUS
 62
     7
100
AcDbLine
 10
473.405884
 20
323.962282
 30
0.0
 11
475.092555
 21
324.57618
 31
0.0
  0
ENDBLK
  5
32A
100
AcDbEntity
  8
0
100
AcDbBlockEnd
  0
ENDSEC
  0
SECTION
  2
ENTITIES
  0
INSERT
  5
42
100
AcDbEntity
  8
0
  6
CONTINUOUS
 62
     7
100
AcDbBlockReference
  2
*G0
 10
0.0
 20
0.0
 30
0.0
  0
LINE
  5
43
100
AcDbEntity
  8
7
  6
CENTER
 62
     4
100
AcDbLine
 10
219.023772
 20
175.692178
 30
0.0
 11
219.023772
 21
485.692178
 31
0.0
  0
LINE
  5
44
100
AcDbEntity
  8
7
  6
CENTER
 62
     4
100
AcDbLine
 10
139.023772
 20
370.692176
 30
0.0
 11
299.023772
 21
370.692176
 31
0.0
  0
LINE
  5
45
100
AcDbEntity
  8
7
  6
CENTER
 62
     4
100
AcDbLine
 10
318.592555
 20
370.692176
 30
0.0
 11
487.592555
 21
370.692176
 31
0.0
  0
LINE
  5
46
100
AcDbEntity
  8
7
  6
CENTER
 62
     4
100
AcDbLine
 10
481.592555
 20
485.692176
 30
0.0
 11
481.592555
 21
175.692178
 31
0.0
  0
LINE
  5
47
100
AcDbEntity
  8
7
  6
CENTER
 62
     4
100
AcDbLine
 10
461.592555
 20
323.192176
 30
0.0
 11
501.592555
 21
323.192176
 31
0.0
  0
ARC
  5
48
100
AcDbEntity
  8
1
  6
CONTINUOUS
 62
     7
100
AcDbCircle
 10
281.385641
 20
396.523307
 30
0.0
 40
5.5
100
AcDbArc
 50
65.380023
 51
114.619977
  0
ARC
  5
49
100
AcDbEntity
  8
1
  6
CONTINUOUS
 62
     7
100
AcDbCircle
 10
281.385641
 20
396.523307
 30
0.0
 40
5.5
100
AcDbArc
 50
5.380023
 51
54.619977
  0
ARC
  5
4A
100
AcDbEntity
  8
1
  6
CONTINUOUS
 62
     7
100
AcDbCircle
 10
281.385641
 20
396.523307
 30
0.0
 40
5.5
100
AcDbArc
 50
-54.619977
 51
-5.380023
  0
ARC
  5
4B
100
AcDbEntity
  8
1
  6
CONTINUOUS
 62
     7
100
AcDbCircle
 10
281.385641
 20
396.523307
 30
0.0
 40
5.5
100
AcDbArc
 50
-114.619977
 51
-65.380023
  0
ARC
  5
4C
100
AcDbEntity
  8
1
  6
CONTINUOUS
 62
     7
100
AcDbCircle
 10
281.385641
 20
396.523307
 30
0.0
 40
5.5
100
AcDbArc
 50
-174.619977
 51
-125.380023
  0
ARC
  5
4D
100
AcDbEntity
  8
1
  6
CONTINUOUS
 62
     7
100
AcDbCircle
 10
281.385641
 20
396.523307
 30
0.0
 40
5.5
100
AcDbArc
 50
125.380023
 51
174.619977
  0
POLYLINE
  5
4E
100
AcDbEntity
  8
1
  6
CONTINUOUS
 62
     7
100
AcDb2dPolyline
 66
     1
 10
0.0
 20
0.0
 30
0.0
  0
VERTEX
  5
4F
100
AcDbEntity
  8
1
  6
CONTINUOUS
 62
     7
100
AcDbVertex
100
AcDb2dVertex
 10
278.498889
 20
401.523307
 30
0.0
  0
VERTEX
  5
50
100
AcDbEntity
  8
1
  6
CONTINUOUS
 62
     7
100
AcDbVertex
100
AcDb2dVertex
 10
275.612138
 20
396.523307
 30
0.0
  0
VERTEX
  5
51
100
AcDbEntity
  8
1
  6
CONTINUOUS
 62
     7
100
AcDbVertex
100
AcDb2dVertex
 10
278.498889
 20
391.523307
 30
0.0
  0
VERTEX
  5
52
100
AcDbEntity
  8
1
  6
CONTINUOUS
 62
     7
100
AcDbVertex
100
AcDb2dVertex
 10
284.272392
 20
391.523307
 30
0.0
  0
VERTEX
  5
53
100
AcDbEntity
  8
1
  6
CONTINUOUS
 62
     7
100
AcDbVertex
100
AcDb2dVertex
 10
287.159144
 20
396.523307
 30
0.0
  0
VERTEX
  5
54
100
AcDbEntity
  8
1
  6
CONTINUOUS
 62
     7
100
AcDbVertex
100
AcDb2dVertex
 10
284.272392
 20
401.523307
 30
0.0
  0
VERTEX
  5
55
100
AcDbEntity
  8
1
  6
CONTINUOUS
 62
     7
100
AcDbVertex
100
AcDb2dVertex
 10
278.498889
 20
401.523307
 30
0.0
  0
SEQEND
  5
56
100
AcDbEntity
  8
1
  6
CONTINUOUS
 62
     7
  0
CIRCLE
  5
57
100
AcDbEntity
  8
1
  6
CONTINUOUS
 62
     7
100
AcDbCircle
 10
281.385641
 20
396.523307
 30
0.0
 40
5.0
  0
ARC
  5
58
100
AcDbEntity
  8
1
  6
CONTINUOUS
 62
     7
100
AcDbCircle
 10
281.385641
 20
344.861044
 30
0.0
 40
5.5
100
AcDbArc
 50
65.380023
 51
114.619977
  0
ARC
  5
59
100
AcDbEntity
  8
1
  6
CONTINUOUS
 62
     7
100
AcDbCircle
 10
281.385641
 20
344.861044
 30
0.0
 40
5.5
100
AcDbArc
 50
5.380023
 51
54.619977
  0
ARC
  5
5A
100
AcDbEntity
  8
1
  6
CONTINUOUS
 62
     7
100
AcDbCircle
 10
281.385641
 20
344.861044
 30
0.0
 40
5.5
100
AcDbArc
 50
-54.619977
 51
-5.380023
  0
ARC
  5
5B
100
AcDbEntity
  8
1
  6
CONTINUOUS
 62
     7
100
AcDbCircle
 10
281.385641
 20
344.861044
 30
0.0
 40
5.5
100
AcDbArc
 50
-114.619977
 51
-65.380023
  0
ARC
  5
5C
100
AcDbEntity
  8
1
  6
CONTINUOUS
 62
     7
100
AcDbCircle
 10
281.385641
 20
344.861044
 30
0.0
 40
5.5
100
AcDbArc
 50
-174.619977
 51
-125.380023
  0
ARC
  5
5D
100
AcDbEntity
  8
1
  6
CONTINUOUS
 62
     7
100
AcDbCircle
 10
281.385641
 20
344.861044
 30
0.0
 40
5.5
100
AcDbArc
 50
125.380023
 51
174.619977
  0
POLYLINE
  5
5E
100
AcDbEntity
  8
1
  6
CONTINUOUS
 62
     7
100
AcDb2dPolyline
 66
     1
 10
0.0
 20
0.0
 30
0.0
  0
VERTEX
  5
5F
100
AcDbEntity
  8
1
  6
CONTINUOUS
 62
     7
100
AcDbVertex
100
AcDb2dVertex
 10
278.49889
 20
349.861044
 30
0.0
  0
VERTEX
  5
60
100
AcDbEntity
  8
1
  6
CONTINUOUS
 62
     7
100
AcDbVertex
100
AcDb2dVertex
 10
275.612138
 20
344.861044
 30
0.0
  0
VERTEX
  5
61
100
AcDbEntity
  8
1
  6
CONTINUOUS
 62
     7
100
AcDbVertex
100
AcDb2dVertex
 10
278.49889
 20
339.861044
 30
0.0
  0
VERTEX
  5
62
100
AcDbEntity
  8
1
  6
CONTINUOUS
 62
     7
100
AcDbVertex
100
AcDb2dVertex
 10
284.272392
 20
339.861044
 30
0.0
  0
VERTEX
  5
63
100
AcDbEntity
  8
1
  6
CONTINUOUS
 62
     7
100
AcDbVertex
100
AcDb2dVertex
 10
287.159144
 20
344.861044
 30
0.0
  0
VERTEX
  5
64
100
AcDbEntity
  8
1
  6
CONTINUOUS
 62
     7
100
AcDbVertex
100
AcDb2dVertex
 10
284.272392
 20
349.861044
 30
0.0
  0
VERTEX
  5
65
100
AcDbEntity
  8
1
  6
CONTINUOUS
 62
     7
100
AcDbVertex
100
AcDb2dVertex
 10
278.49889
 20
349.861044
 30
0.0
  0
SEQEND
  5
66
100
AcDbEntity
  8
1
  6
CONTINUOUS
 62
     7
  0
CIRCLE
  5
67
100
AcDbEntity
  8
1
  6
CONTINUOUS
 62
     7
100
AcDbCircle
 10
281.385641
 20
344.861044
 30
0.0
 40
5.0
  0
ARC
  5
68
100
AcDbEntity
  8
1
  6
CONTINUOUS
 62
     7
100
AcDbCircle
 10
244.854904
 20
308.330307
 30
0.0
 40
5.5
100
AcDbArc
 50
65.380023
 51
114.619977
  0
ARC
  5
69
100
AcDbEntity
  8
1
  6
CONTINUOUS
 62
     7
100
AcDbCircle
 10
244.854904
 20
308.330307
 30
0.0
 40
5.5
100
AcDbArc
 50
5.380023
 51
54.619977
  0
ARC
  5
6A
100
AcDbEntity
  8
1
  6
CONTINUOUS
 62
     7
100
AcDbCircle
 10
244.854904
 20
308.330307
 30
0.0
 40
5.5
100
AcDbArc
 50
-54.619977
 51
-5.380023
  0
ARC
  5
6B
100
AcDbEntity
  8
1
  6
CONTINUOUS
 62
     7
100
AcDbCircle
 10
244.854904
 20
308.330307
 30
0.0
 40
5.5
100
AcDbArc
 50
-114.619977
 51
-65.380023
  0
ARC
  5
6C
100
AcDbEntity
  8
1
  6
CONTINUOUS
 62
     7
100
AcDbCircle
 10
244.854904
 20
308.330307
 30
0.0
 40
5.5
100
AcDbArc
 50
-174.619977
 51
-125.380023
  0
ARC
  5
6D
100
AcDbEntity
  8
1
  6
CONTINUOUS
 62
     7
100
AcDbCircle
 10
244.854904
 20
308.330307
 30
0.0
 40
5.5
100
AcDbArc
 50
125.380023
 51
174.619977
  0
POLYLINE
  5
6E
100
AcDbEntity
  8
1
  6
CONTINUOUS
 62
     7
100
AcDb2dPolyline
 66
     1
 10
0.0
 20
0.0
 30
0.0
  0
VERTEX
  5
6F
100
AcDbEntity
  8
1
  6
CONTINUOUS
 62
     7
100
AcDbVertex
100
AcDb2dVertex
 10
241.968153
 20
313.330307
 30
0.0
  0
VERTEX
  5
70
100
AcDbEntity
  8
1
  6
CONTINUOUS
 62
     7
100
AcDbVertex
100
AcDb2dVertex
 10
239.081401
 20
308.330307
 30
0.0
  0
VERTEX
  5
71
100
AcDbEntity
  8
1
  6
CONTINUOUS
 62
     7
100
AcDbVertex
100
AcDb2dVertex
 10
241.968153
 20
303.330307
 30
0.0
  0
VERTEX
  5
72
100
AcDbEntity
  8
1
  6
CONTINUOUS
 62
     7
100
AcDbVertex
100
AcDb2dVertex
 10
247.741655
 20
303.330307
 30
0.0
  0
VERTEX
  5
73
100
AcDbEntity
  8
1
  6
CONTINUOUS
 62
     7
100
AcDbVertex
100
AcDb2dVertex
 10
250.628407
 20
308.330307
 30
0.0
  0
VERTEX
  5
74
100
AcDbEntity
  8
1
  6
CONTINUOUS
 62
     7
100
AcDbVertex
100
AcDb2dVertex
 10
247.741655
 20
313.330307
 30
0.0
  0
VERTEX
  5
75
100
AcDbEntity
  8
1
  6
CONTINUOUS
 62
     7
100
AcDbVertex
100
AcDb2dVertex
 10
241.968153
 20
313.330307
 30
0.0
  0
SEQEND
  5
76
100
AcDbEntity
  8
1
  6
CONTINUOUS
 62
     7
  0
CIRCLE
  5
77
100
AcDbEntity
  8
1
  6
CONTINUOUS
 62
     7
100
AcDbCircle
 10
244.854904
 20
308.330307
 30
0.0
 40
5.0
  0
ARC
  5
78
100
AcDbEntity
  8
1
  6
CONTINUOUS
 62
     7
100
AcDbCircle
 10
193.192641
 20
308.330307
 30
0.0
 40
5.5
100
AcDbArc
 50
65.380023
 51
114.619977
  0
ARC
  5
79
100
AcDbEntity
  8
1
  6
CONTINUOUS
 62
     7
100
AcDbCircle
 10
193.192641
 20
308.330307
 30
0.0
 40
5.5
100
AcDbArc
 50
5.380023
 51
54.619977
  0
ARC
  5
7A
100
AcDbEntity
  8
1
  6
CONTINUOUS
 62
     7
100
AcDbCircle
 10
193.192641
 20
308.330307
 30
0.0
 40
5.5
100
AcDbArc
 50
-54.619977
 51
-5.380023
  0
ARC
  5
7B
100
AcDbEntity
  8
1
  6
CONTINUOUS
 62
     7
100
AcDbCircle
 10
193.192641
 20
308.330307
 30
0.0
 40
5.5
100
AcDbArc
 50
-114.619977
 51
-65.380023
  0
ARC
  5
7C
100
AcDbEntity
  8
1
  6
CONTINUOUS
 62
     7
100
AcDbCircle
 10
193.192641
 20
308.330307
 30
0.0
 40
5.5
100
AcDbArc
 50
-174.619977
 51
-125.380023
  0
ARC
  5
7D
100
AcDbEntity
  8
1
  6
CONTINUOUS
 62
     7
100
AcDbCircle
 10
193.192641
 20
308.330307
 30
0.0
 40
5.5
100
AcDbArc
 50
125.380023
 51
174.619977
  0
POLYLINE
  5
7E
100
AcDbEntity
  8
1
  6
CONTINUOUS
 62
     7
100
AcDb2dPolyline
 66
     1
 10
0.0
 20
0.0
 30
0.0
  0
VERTEX
  5
7F
100
AcDbEntity
  8
1
  6
CONTINUOUS
 62
     7
100
AcDbVertex
100
AcDb2dVertex
 10
190.305889
 20
313.330307
 30
0.0
  0
VERTEX
  5
80
100
AcDbEntity
  8
1
  6
CONTINUOUS
 62
     7
100
AcDbVertex
100
AcDb2dVertex
 10
187.419138
 20
308.330307
 30
0.0
  0
VERTEX
  5
81
100
AcDbEntity
  8
1
  6
CONTINUOUS
 62
     7
100
AcDbVertex
100
AcDb2dVertex
 10
190.305889
 20
303.330307
 30
0.0
  0
VERTEX
  5
82
100
AcDbEntity
  8
1
  6
CONTINUOUS
 62
     7
100
AcDbVertex
100
AcDb2dVertex
 10
196.079392
 20
303.330307
 30
0.0
  0
VERTEX
  5
83
100
AcDbEntity
  8
1
  6
CONTINUOUS
 62
     7
100
AcDbVertex
100
AcDb2dVertex
 10
198.966143
 20
308.330307
 30
0.0
  0
VERTEX
  5
84
100
AcDbEntity
  8
1
  6
CONTINUOUS
 62
     7
100
AcDbVertex
100
AcDb2dVertex
 10
196.079392
 20
313.330307
 30
0.0
  0
VERTEX
  5
85
100
AcDbEntity
  8
1
  6
CONTINUOUS
 62
     7
100
AcDbVertex
100
AcDb2dVertex
 10
190.305889
 20
313.330307
 30
0.0
  0
SEQEND
  5
86
100
AcDbEntity
  8
1
  6
CONTINUOUS
 62
     7
  0
CIRCLE
  5
87
100
AcDbEntity
  8
1
  6
CONTINUOUS
 62
     7
100
AcDbCircle
 10
193.192641
 20
308.330307
 30
0.0
 40
5.0
  0
ARC
  5
88
100
AcDbEntity
  8
1
  6
CONTINUOUS
 62
     7
100
AcDbCircle
 10
156.661904
 20
344.861044
 30
0.0
 40
5.5
100
AcDbArc
 50
65.380023
 51
114.619977
  0
ARC
  5
89
100
AcDbEntity
  8
1
  6
CONTINUOUS
 62
     7
100
AcDbCircle
 10
156.661904
 20
344.861044
 30
0.0
 40
5.5
100
AcDbArc
 50
5.380023
 51
54.619977
  0
ARC
  5
8A
100
AcDbEntity
  8
1
  6
CONTINUOUS
 62
     7
100
AcDbCircle
 10
156.661904
 20
344.861044
 30
0.0
 40
5.5
100
AcDbArc
 50
-54.619977
 51
-5.380023
  0
ARC
  5
8B
100
AcDbEntity
  8
1
  6
CONTINUOUS
 62
     7
100
AcDbCircle
 10
156.661904
 20
344.861044
 30
0.0
 40
5.5
100
AcDbArc
 50
-114.619977
 51
-65.380023
  0
ARC
  5
8C
100
AcDbEntity
  8
1
  6
CONTINUOUS
 62
     7
100
AcDbCircle
 10
156.661904
 20
344.861044
 30
0.0
 40
5.5
100
AcDbArc
 50
-174.619977
 51
-125.380023
  0
ARC
  5
8D
100
AcDbEntity
  8
1
  6
CONTINUOUS
 62
     7
100
AcDbCircle
 10
156.661904
 20
344.861044
 30
0.0
 40
5.5
100
AcDbArc
 50
125.380023
 51
174.619977
  0
POLYLINE
  5
8E
100
AcDbEntity
  8
1
  6
CONTINUOUS
 62
     7
100
AcDb2dPolyline
 66
     1
 10
0.0
 20
0.0
 30
0.0
  0
VERTEX
  5
8F
100
AcDbEntity
  8
1
  6
CONTINUOUS
 62
     7
100
AcDbVertex
100
AcDb2dVertex
 10
153.775153
 20
349.861044
 30
0.0
  0
VERTEX
  5
90
100
AcDbEntity
  8
1
  6
CONTINUOUS
 62
     7
100
AcDbVertex
100
AcDb2dVertex
 10
150.888401
 20
344.861044
 30
0.0
  0
VERTEX
  5
91
100
AcDbEntity
  8
1
  6
CONTINUOUS
 62
     7
100
AcDbVertex
100
AcDb2dVertex
 10
153.775153
 20
339.861044
 30
0.0
  0
VERTEX
  5
92
100
AcDbEntity
  8
1
  6
CONTINUOUS
 62
     7
100
AcDbVertex
100
AcDb2dVertex
 10
159.548655
 20
339.861044
 30
0.0
  0
VERTEX
  5
93
100
AcDbEntity
  8
1
  6
CONTINUOUS
 62
     7
100
AcDbVertex
100
AcDb2dVertex
 10
162.435407
 20
344.861044
 30
0.0
  0
VERTEX
  5
94
100
AcDbEntity
  8
1
  6
CONTINUOUS
 62
     7
100
AcDbVertex
100
AcDb2dVertex
 10
159.548655
 20
349.861044
 30
0.0
  0
VERTEX
  5
95
100
AcDbEntity
  8
1
  6
CONTINUOUS
 62
     7
100
AcDbVertex
100
AcDb2dVertex
 10
153.775153
 20
349.861044
 30
0.0
  0
SEQEND
  5
96
100
AcDbEntity
  8
1
  6
CONTINUOUS
 62
     7
  0
CIRCLE
  5
97
100
AcDbEntity
  8
1
  6
CONTINUOUS
 62
     7
100
AcDbCircle
 10
156.661904
 20
344.861044
 30
0.0
 40
5.0
  0
ARC
  5
98
100
AcDbEntity
  8
1
  6
CONTINUOUS
 62
     7
100
AcDbCircle
 10
156.661904
 20
396.523307
 30
0.0
 40
5.5
100
AcDbArc
 50
65.380023
 51
114.619977
  0
ARC
  5
99
100
AcDbEntity
  8
1
  6
CONTINUOUS
 62
     7
100
AcDbCircle
 10
156.661904
 20
396.523307
 30
0.0
 40
5.5
100
AcDbArc
 50
5.380023
 51
54.619977
  0
ARC
  5
9A
100
AcDbEntity
  8
1
  6
CONTINUOUS
 62
     7
100
AcDbCircle
 10
156.661904
 20
396.523307
 30
0.0
 40
5.5
100
AcDbArc
 50
-54.619977
 51
-5.380023
  0
ARC
  5
9B
100
AcDbEntity
  8
1
  6
CONTINUOUS
 62
     7
100
AcDbCircle
 10
156.661904
 20
396.523307
 30
0.0
 40
5.5
100
AcDbArc
 50
-114.619977
 51
-65.380023
  0
ARC
  5
9C
100
AcDbEntity
  8
1
  6
CONTINUOUS
 62
     7
100
AcDbCircle
 10
156.661904
 20
396.523307
 30
0.0
 40
5.5
100
AcDbArc
 50
-174.619977
 51
-125.380023
  0
ARC
  5
9D
100
AcDbEntity
  8
1
  6
CONTINUOUS
 62
     7
100
AcDbCircle
 10
156.661904
 20
396.523307
 30
0.0
 40
5.5
100
AcDbArc
 50
125.380023
 51
174.619977
  0
POLYLINE
  5
9E
100
AcDbEntity
  8
1
  6
CONTINUOUS
 62
     7
100
AcDb2dPolyline
 66
     1
 10
0.0
 20
0.0
 30
0.0
  0
VERTEX
  5
9F
100
AcDbEntity
  8
1
  6
CONTINUOUS
 62
     7
100
AcDbVertex
100
AcDb2dVertex
 10
153.775153
 20
401.523307
 30
0.0
  0
VERTEX
  5
A0
100
AcDbEntity
  8
1
  6
CONTINUOUS
 62
     7
100
AcDbVertex
100
AcDb2dVertex
 10
150.888401
 20
396.523307
 30
0.0
  0
VERTEX
  5
A1
100
AcDbEntity
  8
1
  6
CONTINUOUS
 62
     7
100
AcDbVertex
100
AcDb2dVertex
 10
153.775153
 20
391.523307
 30
0.0
  0
VERTEX
  5
A2
100
AcDbEntity
  8
1
  6
CONTINUOUS
 62
     7
100
AcDbVertex
100
AcDb2dVertex
 10
159.548655
 20
391.523307
 30
0.0
  0
VERTEX
  5
A3
100
AcDbEntity
  8
1
  6
CONTINUOUS
 62
     7
100
AcDbVertex
100
AcDb2dVertex
 10
162.435407
 20
396.523307
 30
0.0
  0
VERTEX
  5
A4
100
AcDbEntity
  8
1
  6
CONTINUOUS
 62
     7
100
AcDbVertex
100
AcDb2dVertex
 10
159.548655
 20
401.523307
 30
0.0
  0
VERTEX
  5
A5
100
AcDbEntity
  8
1
  6
CONTINUOUS
 62
     7
100
AcDbVertex
100
AcDb2dVertex
 10
153.775153
 20
401.523307
 30
0.0
  0
SEQEND
  5
A6
100
AcDbEntity
  8
1
  6
CONTINUOUS
 62
     7
  0
CIRCLE
  5
A7
100
AcDbEntity
  8
1
  6
CONTINUOUS
 62
     7
100
AcDbCircle
 10
156.661904
 20
396.523307
 30
0.0
 40
5.0
  0
LINE
  5
A8
100
AcDbEntity
  8
1
  6
CONTINUOUS
 62
     7
100
AcDbLine
 10
421.992555
 20
302.826574
 30
0.0
 11
423.592555
 21
302.826574
 31
0.0
  0
LINE
  5
A9
100
AcDbEntity
  8
1
  6
CONTINUOUS
 62
     7
100
AcDbLine
 10
421.992555
 20
313.826574
 30
0.0
 11
421.992555
 21
302.826574
 31
0.0
  0
LINE
  5
AA
100
AcDbEntity
  8
1
  6
CONTINUOUS
 62
     7
100
AcDbLine
 10
423.592555
 20
313.826574
 30
0.0
 11
421.992555
 21
313.826574
 31
0.0
  0
LINE
  5
AB
100
AcDbEntity
  8
1
  6
CONTINUOUS
 62
     7
100
AcDbLine
 10
423.592555
 20
302.826574
 30
0.0
 11
423.592555
 21
313.826574
 31
0.0
  0
LINE
  5
AC
100
AcDbEntity
  8
1
  6
CONTINUOUS
 62
     7
100
AcDbLine
 10
418.439134
 20
302.549909
 30
0.0
 11
421.992555
 21
302.549909
 31
0.0
  0
LINE
  5
AD
100
AcDbEntity
  8
1
  6
CONTINUOUS
 62
     7
100
AcDbLine
 10
418.439134
 20
305.436662
 30
0.0
 11
421.992555
 21
305.436662
 31
0.0
  0
LINE
  5
AE
100
AcDbEntity
  8
1
  6
CONTINUOUS
 62
     7
100
AcDbLine
 10
421.992555
 20
302.549909
 30
0.0
 11
421.992555
 21
308.323413
 31
0.0
  0
ARC
  5
AF
100
AcDbEntity
  8
1
  6
CONTINUOUS
 62
     7
100
AcDbCircle
 10
427.54598
 20
308.323413
 30
0.0
 40
9.553428
100
AcDbArc
 50
179.999997
 51
-162.412054
  0
ARC
  5
B0
100
AcDbEntity
  8
1
  6
CONTINUOUS
 62
     7
100
AcDbCircle
 10
420.548383
 20
303.993284
 30
0.0
 40
2.555828
100
AcDbArc
 50
145.615794
 51
-154.384696
  0
LINE
  5
B1
100
AcDbEntity
  8
1
  6
CONTINUOUS
 62
     7
100
AcDbLine
 10
418.439134
 20
302.549909
 30
0.0
 11
417.992555
 21
303.323413
 31
0.0
  0
LINE
  5
B2
100
AcDbEntity
  8
1
  6
CONTINUOUS
 62
     7
100
AcDbLine
 10
417.992555
 20
303.323413
 30
0.0
 11
417.992555
 21
308.323413
 31
0.0
  0
LINE
  5
B3
100
AcDbEntity
  8
1
  6
CONTINUOUS
 62
     7
100
AcDbLine
 10
418.439134
 20
314.096916
 30
0.0
 11
421.992555
 21
314.096916
 31
0.0
  0
LINE
  5
B4
100
AcDbEntity
  8
1
  6
CONTINUOUS
 62
     7
100
AcDbLine
 10
418.439134
 20
311.210164
 30
0.0
 11
421.992555
 21
311.210164
 31
0.0
  0
ARC
  5
B5
100
AcDbEntity
  8
1
  6
CONTINUOUS
 62
     7
100
AcDbCircle
 10
420.548383
 20
312.653541
 30
0.0
 40
2.555828
100
AcDbArc
 50
154.384691
 51
-145.615789
  0
LINE
  5
B6
100
AcDbEntity
  8
1
  6
CONTINUOUS
 62
     7
100
AcDbLine
 10
418.439134
 20
314.096916
 30
0.0
 11
417.992555
 21
313.323413
 31
0.0
  0
LINE
  5
B7
100
AcDbEntity
  8
1
  6
CONTINUOUS
 62
     7
100
AcDbLine
 10
421.992555
 20
314.096916
 30
0.0
 11
421.992555
 21
308.323413
 31
0.0
  0
ARC
  5
B8
100
AcDbEntity
  8
1
  6
CONTINUOUS
 62
     7
100
AcDbCircle
 10
427.54598
 20
308.323411
 30
0.0
 40
9.553428
100
AcDbArc
 50
162.412055
 51
179.999997
  0
LINE
  5
B9
100
AcDbEntity
  8
1
  6
CONTINUOUS
 62
     7
100
AcDbLine
 10
417.992555
 20
313.323413
 30
0.0
 11
417.992555
 21
308.323413
 31
0.0
  0
ARC
  5
BA
100
AcDbEntity
  8
1
  6
CONTINUOUS
 62
     7
100
AcDbCircle
 10
437.139129
 20
308.323005
 30
0.0
 40
9.553428
100
AcDbArc
 50
-17.587946
 51
0.000003
  0
ARC
  5
BB
100
AcDbEntity
  8
1
  6
CONTINUOUS
 62
     7
100
AcDbCircle
 10
444.136727
 20
303.992876
 30
0.0
 40
2.555828
100
AcDbArc
 50
-25.615304
 51
34.384206
  0
LINE
  5
BC
100
AcDbEntity
  8
1
  6
CONTINUOUS
 62
     7
100
AcDbLine
 10
441.592555
 20
302.223005
 30
0.0
 11
441.592555
 21
308.323005
 31
0.0
  0
LINE
  5
BD
100
AcDbEntity
  8
1
  6
CONTINUOUS
 62
     7
100
AcDbLine
 10
441.592555
 20
302.223005
 30
0.0
 11
443.092555
 21
302.223005
 31
0.0
  0
LINE
  5
BE
100
AcDbEntity
  8
1
  6
CONTINUOUS
 62
     7
100
AcDbLine
 10
443.092555
 20
302.223005
 30
0.0
 11
443.092555
 21
308.323005
 31
0.0
  0
LINE
  5
BF
100
AcDbEntity
  8
1
  6
CONTINUOUS
 62
     7
100
AcDbLine
 10
446.245973
 20
302.549501
 30
0.0
 11
446.692555
 21
303.323005
 31
0.0
  0
LINE
  5
C0
100
AcDbEntity
  8
1
  6
CONTINUOUS
 62
     7
100
AcDbLine
 10
446.245973
 20
302.549501
 30
0.0
 11
443.092555
 21
302.549501
 31
0.0
  0
LINE
  5
C1
100
AcDbEntity
  8
1
  6
CONTINUOUS
 62
     7
100
AcDbLine
 10
446.692555
 20
303.323005
 30
0.0
 11
446.692555
 21
308.323005
 31
0.0
  0
LINE
  5
C2
100
AcDbEntity
  8
1
  6
CONTINUOUS
 62
     7
100
AcDbLine
 10
446.245973
 20
305.436254
 30
0.0
 11
443.092555
 21
305.436254
 31
0.0
  0
ARC
  5
C3
100
AcDbEntity
  8
1
  6
CONTINUOUS
 62
     7
100
AcDbCircle
 10
444.136727
 20
312.653133
 30
0.0
 40
2.555828
100
AcDbArc
 50
-34.384211
 51
25.615309
  0
LINE
  5
C4
100
AcDbEntity
  8
1
  6
CONTINUOUS
 62
     7
100
AcDbLine
 10
441.592555
 20
314.423004
 30
0.0
 11
443.092555
 21
314.423004
 31
0.0
  0
LINE
  5
C5
100
AcDbEntity
  8
1
  6
CONTINUOUS
 62
     7
100
AcDbLine
 10
446.245973
 20
314.096508
 30
0.0
 11
443.092555
 21
314.096508
 31
0.0
  0
LINE
  5
C6
100
AcDbEntity
  8
1
  6
CONTINUOUS
 62
     7
100
AcDbLine
 10
446.245973
 20
311.209757
 30
0.0
 11
443.092555
 21
311.209757
 31
0.0
  0
LINE
  5
C7
100
AcDbEntity
  8
1
  6
CONTINUOUS
 62
     7
100
AcDbLine
 10
446.245973
 20
314.096508
 30
0.0
 11
446.692555
 21
313.323005
 31
0.0
  0
ARC
  5
C8
100
AcDbEntity
  8
1
  6
CONTINUOUS
 62
     7
100
AcDbCircle
 10
437.139129
 20
308.323004
 30
0.0
 40
9.553428
100
AcDbArc
 50
0.000003
 51
17.587945
  0
LINE
  5
C9
100
AcDbEntity
  8
1
  6
CONTINUOUS
 62
     7
100
AcDbLine
 10
441.592555
 20
314.423004
 30
0.0
 11
441.592555
 21
308.323005
 31
0.0
  0
LINE
  5
CA
100
AcDbEntity
  8
1
  6
CONTINUOUS
 62
     7
100
AcDbLine
 10
446.692555
 20
313.323005
 30
0.0
 11
446.692555
 21
308.323005
 31
0.0
  0
LINE
  5
CB
100
AcDbEntity
  8
1
  6
CONTINUOUS
 62
     7
100
AcDbLine
 10
443.092555
 20
314.423004
 30
0.0
 11
443.092555
 21
308.323005
 31
0.0
  0
LINE
  5
CC
100
AcDbEntity
  8
1
  6
CONTINUOUS
 62
     7
100
AcDbLine
 10
450.992555
 20
305.31857
 30
0.0
 11
451.992555
 21
306.31857
 31
0.0
  0
LINE
  5
CD
100
AcDbEntity
  8
1
  6
CONTINUOUS
 62
     7
100
AcDbLine
 10
450.992555
 20
305.31857
 30
0.0
 11
450.992555
 21
308.31857
 31
0.0
  0
LINE
  5
CE
100
AcDbEntity
  8
1
  6
CONTINUOUS
 62
     7
100
AcDbLine
 10
451.992555
 20
306.31857
 30
0.0
 11
451.992555
 21
308.31857
 31
0.0
  0
LINE
  5
CF
100
AcDbEntity
  8
1
  6
CONTINUOUS
 62
     7
100
AcDbLine
 10
450.992555
 20
311.31857
 30
0.0
 11
451.992555
 21
310.31857
 31
0.0
  0
LINE
  5
D0
100
AcDbEntity
  8
1
  6
CONTINUOUS
 62
     7
100
AcDbLine
 10
450.992555
 20
311.31857
 30
0.0
 11
450.992555
 21
308.31857
 31
0.0
  0
LINE
  5
D1
100
AcDbEntity
  8
1
  6
CONTINUOUS
 62
     7
100
AcDbLine
 10
451.992555
 20
310.31857
 30
0.0
 11
451.992555
 21
308.31857
 31
0.0
  0
LINE
  5
D2
100
AcDbEntity
  8
1
  6
CONTINUOUS
 62
     7
100
AcDbLine
 10
446.692555
 20
305.31857
 30
0.0
 11
450.992555
 21
305.31857
 31
0.0
  0
LINE
  5
D3
100
AcDbEntity
  8
1
  6
CONTINUOUS
 62
     7
100
AcDbLine
 10
446.692555
 20
305.860071
 30
0.0
 11
451.534055
 21
305.860071
 31
0.0
  0
LINE
  5
D4
100
AcDbEntity
  8
1
  6
CONTINUOUS
 62
     7
100
AcDbLine
 10
446.692555
 20
310.77707
 30
0.0
 11
451.534055
 21
310.77707
 31
0.0
  0
LINE
  5
D5
100
AcDbEntity
  8
1
  6
CONTINUOUS
 62
     7
100
AcDbLine
 10
446.692555
 20
311.31857
 30
0.0
 11
450.992555
 21
311.31857
 31
0.0
  0
LINE
  5
D6
100
AcDbEntity
  8
1
  6
CONTINUOUS
 62
     7
100
AcDbLine
 10
421.992555
 20
339.357311
 30
0.0
 11
423.592555
 21
339.357311
 31
0.0
  0
LINE
  5
D7
100
AcDbEntity
  8
1
  6
CONTINUOUS
 62
     7
100
AcDbLine
 10
421.992555
 20
350.357311
 30
0.0
 11
421.992555
 21
339.357311
 31
0.0
  0
LINE
  5
D8
100
AcDbEntity
  8
1
  6
CONTINUOUS
 62
     7
100
AcDbLine
 10
423.592555
 20
350.357311
 30
0.0
 11
421.992555
 21
350.357311
 31
0.0
  0
LINE
  5
D9
100
AcDbEntity
  8
1
  6
CONTINUOUS
 62
     7
100
AcDbLine
 10
423.592555
 20
339.357311
 30
0.0
 11
423.592555
 21
350.357311
 31
0.0
  0
LINE
  5
DA
100
AcDbEntity
  8
1
  6
CONTINUOUS
 62
     7
100
AcDbLine
 10
418.439134
 20
339.080646
 30
0.0
 11
421.992555
 21
339.080646
 31
0.0
  0
LINE
  5
DB
100
AcDbEntity
  8
1
  6
CONTINUOUS
 62
     7
100
AcDbLine
 10
418.439134
 20
341.967399
 30
0.0
 11
421.992555
 21
341.967399
 31
0.0
  0
LINE
  5
DC
100
AcDbEntity
  8
1
  6
CONTINUOUS
 62
     7
100
AcDbLine
 10
421.992555
 20
339.080646
 30
0.0
 11
421.992555
 21
344.85415
 31
0.0
  0
ARC
  5
DD
100
AcDbEntity
  8
1
  6
CONTINUOUS
 62
     7
100
AcDbCircle
 10
427.54598
 20
344.85415
 30
0.0
 40
9.553428
100
AcDbArc
 50
179.999997
 51
-162.412054
  0
ARC
  5
DE
100
AcDbEntity
  8
1
  6
CONTINUOUS
 62
     7
100
AcDbCircle
 10
420.548383
 20
340.52402
 30
0.0
 40
2.555828
100
AcDbArc
 50
145.615794
 51
-154.384696
  0
LINE
  5
DF
100
AcDbEntity
  8
1
  6
CONTINUOUS
 62
     7
100
AcDbLine
 10
418.439134
 20
339.080646
 30
0.0
 11
417.992555
 21
339.85415
 31
0.0
  0
LINE
  5
E0
100
AcDbEntity
  8
1
  6
CONTINUOUS
 62
     7
100
AcDbLine
 10
417.992555
 20
339.85415
 30
0.0
 11
417.992555
 21
344.85415
 31
0.0
  0
LINE
  5
E1
100
AcDbEntity
  8
1
  6
CONTINUOUS
 62
     7
100
AcDbLine
 10
418.439134
 20
350.627652
 30
0.0
 11
421.992555
 21
350.627652
 31
0.0
  0
LINE
  5
E2
100
AcDbEntity
  8
1
  6
CONTINUOUS
 62
     7
100
AcDbLine
 10
418.439134
 20
347.740901
 30
0.0
 11
421.992555
 21
347.740901
 31
0.0
  0
ARC
  5
E3
100
AcDbEntity
  8
1
  6
CONTINUOUS
 62
     7
100
AcDbCircle
 10
420.548383
 20
349.184278
 30
0.0
 40
2.555828
100
AcDbArc
 50
154.384691
 51
-145.615789
  0
LINE
  5
E4
100
AcDbEntity
  8
1
  6
CONTINUOUS
 62
     7
100
AcDbLine
 10
418.439134
 20
350.627652
 30
0.0
 11
417.992555
 21
349.85415
 31
0.0
  0
LINE
  5
E5
100
AcDbEntity
  8
1
  6
CONTINUOUS
 62
     7
100
AcDbLine
 10
421.992555
 20
350.627652
 30
0.0
 11
421.992555
 21
344.85415
 31
0.0
  0
ARC
  5
E6
100
AcDbEntity
  8
1
  6
CONTINUOUS
 62
     7
100
AcDbCircle
 10
427.54598
 20
344.854148
 30
0.0
 40
9.553428
100
AcDbArc
 50
162.412055
 51
179.999997
  0
LINE
  5
E7
100
AcDbEntity
  8
1
  6
CONTINUOUS
 62
     7
100
AcDbLine
 10
417.992555
 20
349.85415
 30
0.0
 11
417.992555
 21
344.85415
 31
0.0
  0
ARC
  5
E8
100
AcDbEntity
  8
1
  6
CONTINUOUS
 62
     7
100
AcDbCircle
 10
437.139129
 20
344.853742
 30
0.0
 40
9.553428
100
AcDbArc
 50
-17.587946
 51
0.000003
  0
ARC
  5
E9
100
AcDbEntity
  8
1
  6
CONTINUOUS
 62
     7
100
AcDbCircle
 10
444.136727
 20
340.523613
 30
0.0
 40
2.555828
100
AcDbArc
 50
-25.615304
 51
34.384206
  0
LINE
  5
EA
100
AcDbEntity
  8
1
  6
CONTINUOUS
 62
     7
100
AcDbLine
 10
441.592555
 20
338.753742
 30
0.0
 11
441.592555
 21
344.853742
 31
0.0
  0
LINE
  5
EB
100
AcDbEntity
  8
1
  6
CONTINUOUS
 62
     7
100
AcDbLine
 10
441.592555
 20
338.753742
 30
0.0
 11
443.092555
 21
338.753742
 31
0.0
  0
LINE
  5
EC
100
AcDbEntity
  8
1
  6
CONTINUOUS
 62
     7
100
AcDbLine
 10
443.092555
 20
338.753742
 30
0.0
 11
443.092555
 21
344.853742
 31
0.0
  0
LINE
  5
ED
100
AcDbEntity
  8
1
  6
CONTINUOUS
 62
     7
100
AcDbLine
 10
446.245973
 20
339.080238
 30
0.0
 11
446.692555
 21
339.853742
 31
0.0
  0
LINE
  5
EE
100
AcDbEntity
  8
1
  6
CONTINUOUS
 62
     7
100
AcDbLine
 10
446.245973
 20
339.080238
 30
0.0
 11
443.092555
 21
339.080238
 31
0.0
  0
LINE
  5
EF
100
AcDbEntity
  8
1
  6
CONTINUOUS
 62
     7
100
AcDbLine
 10
446.692555
 20
339.853742
 30
0.0
 11
446.692555
 21
344.853742
 31
0.0
  0
LINE
  5
F0
100
AcDbEntity
  8
1
  6
CONTINUOUS
 62
     7
100
AcDbLine
 10
446.245973
 20
341.966991
 30
0.0
 11
443.092555
 21
341.966991
 31
0.0
  0
ARC
  5
F1
100
AcDbEntity
  8
1
  6
CONTINUOUS
 62
     7
100
AcDbCircle
 10
444.136727
 20
349.18387
 30
0.0
 40
2.555828
100
AcDbArc
 50
-34.384211
 51
25.615309
  0
LINE
  5
F2
100
AcDbEntity
  8
1
  6
CONTINUOUS
 62
     7
100
AcDbLine
 10
441.592555
 20
350.953741
 30
0.0
 11
443.092555
 21
350.953741
 31
0.0
  0
LINE
  5
F3
100
AcDbEntity
  8
1
  6
CONTINUOUS
 62
     7
100
AcDbLine
 10
446.245973
 20
350.627245
 30
0.0
 11
443.092555
 21
350.627245
 31
0.0
  0
LINE
  5
F4
100
AcDbEntity
  8
1
  6
CONTINUOUS
 62
     7
100
AcDbLine
 10
446.245973
 20
347.740493
 30
0.0
 11
443.092555
 21
347.740493
 31
0.0
  0
LINE
  5
F5
100
AcDbEntity
  8
1
  6
CONTINUOUS
 62
     7
100
AcDbLine
 10
446.245973
 20
350.627245
 30
0.0
 11
446.692555
 21
349.853742
 31
0.0
  0
ARC
  5
F6
100
AcDbEntity
  8
1
  6
CONTINUOUS
 62
     7
100
AcDbCircle
 10
437.139129
 20
344.85374
 30
0.0
 40
9.553428
100
AcDbArc
 50
0.000003
 51
17.587945
  0
LINE
  5
F7
100
AcDbEntity
  8
1
  6
CONTINUOUS
 62
     7
100
AcDbLine
 10
441.592555
 20
350.953741
 30
0.0
 11
441.592555
 21
344.853742
 31
0.0
  0
LINE
  5
F8
100
AcDbEntity
  8
1
  6
CONTINUOUS
 62
     7
100
AcDbLine
 10
446.692555
 20
349.853742
 30
0.0
 11
446.692555
 21
344.853742
 31
0.0
  0
LINE
  5
F9
100
AcDbEntity
  8
1
  6
CONTINUOUS
 62
     7
100
AcDbLine
 10
443.092555
 20
350.953741
 30
0.0
 11
443.092555
 21
344.853742
 31
0.0
  0
LINE
  5
FA
100
AcDbEntity
  8
1
  6
CONTINUOUS
 62
     7
100
AcDbLine
 10
450.992555
 20
341.849307
 30
0.0
 11
451.992555
 21
342.849307
 31
0.0
  0
LINE
  5
FB
100
AcDbEntity
  8
1
  6
CONTINUOUS
 62
     7
100
AcDbLine
 10
450.992555
 20
341.849307
 30
0.0
 11
450.992555
 21
344.849307
 31
0.0
  0
LINE
  5
FC
100
AcDbEntity
  8
1
  6
CONTINUOUS
 62
     7
100
AcDbLine
 10
451.992555
 20
342.849307
 30
0.0
 11
451.992555
 21
344.849307
 31
0.0
  0
LINE
  5
FD
100
AcDbEntity
  8
1
  6
CONTINUOUS
 62
     7
100
AcDbLine
 10
450.992555
 20
347.849307
 30
0.0
 11
451.992555
 21
346.849307
 31
0.0
  0
LINE
  5
FE
100
AcDbEntity
  8
1
  6
CONTINUOUS
 62
     7
100
AcDbLine
 10
450.992555
 20
347.849307
 30
0.0
 11
450.992555
 21
344.849307
 31
0.0
  0
LINE
  5
FF
100
AcDbEntity
  8
1
  6
CONTINUOUS
 62
     7
100
AcDbLine
 10
451.992555
 20
346.849307
 30
0.0
 11
451.992555
 21
344.849307
 31
0.0
  0
LINE
  5
100
100
AcDbEntity
  8
1
  6
CONTINUOUS
 62
     7
100
AcDbLine
 10
446.692555
 20
341.849307
 30
0.0
 11
450.992555
 21
341.849307
 31
0.0
  0
LINE
  5
101
100
AcDbEntity
  8
1
  6
CONTINUOUS
 62
     7
100
AcDbLine
 10
446.692555
 20
342.390807
 30
0.0
 11
451.534055
 21
342.390807
 31
0.0
  0
LINE
  5
102
100
AcDbEntity
  8
1
  6
CONTINUOUS
 62
     7
100
AcDbLine
 10
446.692555
 20
347.307807
 30
0.0
 11
451.534055
 21
347.307807
 31
0.0
  0
LINE
  5
103
100
AcDbEntity
  8
1
  6
CONTINUOUS
 62
     7
100
AcDbLine
 10
446.692555
 20
347.849307
 30
0.0
 11
450.992555
 21
347.849307
 31
0.0
  0
LINE
  5
104
100
AcDbEntity
  8
1
  6
CONTINUOUS
 62
     7
100
AcDbLine
 10
421.992555
 20
391.019574
 30
0.0
 11
423.592555
 21
391.019574
 31
0.0
  0
LINE
  5
105
100
AcDbEntity
  8
1
  6
CONTINUOUS
 62
     7
100
AcDbLine
 10
421.992555
 20
402.019574
 30
0.0
 11
421.992555
 21
391.019574
 31
0.0
  0
LINE
  5
106
100
AcDbEntity
  8
1
  6
CONTINUOUS
 62
     7
100
AcDbLine
 10
423.592555
 20
402.019574
 30
0.0
 11
421.992555
 21
402.019574
 31
0.0
  0
LINE
  5
107
100
AcDbEntity
  8
1
  6
CONTINUOUS
 62
     7
100
AcDbLine
 10
423.592555
 20
391.019574
 30
0.0
 11
423.592555
 21
402.019574
 31
0.0
  0
LINE
  5
108
100
AcDbEntity
  8
1
  6
CONTINUOUS
 62
     7
100
AcDbLine
 10
418.439134
 20
390.742909
 30
0.0
 11
421.992555
 21
390.742909
 31
0.0
  0
LINE
  5
109
100
AcDbEntity
  8
1
  6
CONTINUOUS
 62
     7
100
AcDbLine
 10
418.439134
 20
393.629662
 30
0.0
 11
421.992555
 21
393.629662
 31
0.0
  0
LINE
  5
10A
100
AcDbEntity
  8
1
  6
CONTINUOUS
 62
     7
100
AcDbLine
 10
421.992555
 20
390.742909
 30
0.0
 11
421.992555
 21
396.516413
 31
0.0
  0
ARC
  5
10B
100
AcDbEntity
  8
1
  6
CONTINUOUS
 62
     7
100
AcDbCircle
 10
427.54598
 20
396.516413
 30
0.0
 40
9.553428
100
AcDbArc
 50
179.999997
 51
-162.412054
  0
ARC
  5
10C
100
AcDbEntity
  8
1
  6
CONTINUOUS
 62
     7
100
AcDbCircle
 10
420.548383
 20
392.186284
 30
0.0
 40
2.555828
100
AcDbArc
 50
145.615794
 51
-154.384696
  0
LINE
  5
10D
100
AcDbEntity
  8
1
  6
CONTINUOUS
 62
     7
100
AcDbLine
 10
418.439134
 20
390.742909
 30
0.0
 11
417.992555
 21
391.516413
 31
0.0
  0
LINE
  5
10E
100
AcDbEntity
  8
1
  6
CONTINUOUS
 62
     7
100
AcDbLine
 10
417.992555
 20
391.516413
 30
0.0
 11
417.992555
 21
396.516413
 31
0.0
  0
LINE
  5
10F
100
AcDbEntity
  8
1
  6
CONTINUOUS
 62
     7
100
AcDbLine
 10
418.439134
 20
402.289916
 30
0.0
 11
421.992555
 21
402.289916
 31
0.0
  0
LINE
  5
110
100
AcDbEntity
  8
1
  6
CONTINUOUS
 62
     7
100
AcDbLine
 10
418.439134
 20
399.403165
 30
0.0
 11
421.992555
 21
399.403165
 31
0.0
  0
ARC
  5
111
100
AcDbEntity
  8
1
  6
CONTINUOUS
 62
     7
100
AcDbCircle
 10
420.548383
 20
400.846541
 30
0.0
 40
2.555828
100
AcDbArc
 50
154.384691
 51
-145.615789
  0
LINE
  5
112
100
AcDbEntity
  8
1
  6
CONTINUOUS
 62
     7
100
AcDbLine
 10
418.439134
 20
402.289916
 30
0.0
 11
417.992555
 21
401.516413
 31
0.0
  0
LINE
  5
113
100
AcDbEntity
  8
1
  6
CONTINUOUS
 62
     7
100
AcDbLine
 10
421.992555
 20
402.289916
 30
0.0
 11
421.992555
 21
396.516413
 31
0.0
  0
ARC
  5
114
100
AcDbEntity
  8
1
  6
CONTINUOUS
 62
     7
100
AcDbCircle
 10
427.54598
 20
396.516411
 30
0.0
 40
9.553428
100
AcDbArc
 50
162.412055
 51
179.999997
  0
LINE
  5
115
100
AcDbEntity
  8
1
  6
CONTINUOUS
 62
     7
100
AcDbLine
 10
417.992555
 20
401.516413
 30
0.0
 11
417.992555
 21
396.516413
 31
0.0
  0
ARC
  5
116
100
AcDbEntity
  8
1
  6
CONTINUOUS
 62
     7
100
AcDbCircle
 10
437.139129
 20
396.516006
 30
0.0
 40
9.553428
100
AcDbArc
 50
-17.587946
 51
0.000003
  0
ARC
  5
117
100
AcDbEntity
  8
1
  6
CONTINUOUS
 62
     7
100
AcDbCircle
 10
444.136727
 20
392.185876
 30
0.0
 40
2.555828
100
AcDbArc
 50
-25.615304
 51
34.384206
  0
LINE
  5
118
100
AcDbEntity
  8
1
  6
CONTINUOUS
 62
     7
100
AcDbLine
 10
441.592555
 20
390.416005
 30
0.0
 11
441.592555
 21
396.516006
 31
0.0
  0
LINE
  5
119
100
AcDbEntity
  8
1
  6
CONTINUOUS
 62
     7
100
AcDbLine
 10
441.592555
 20
390.416005
 30
0.0
 11
443.092555
 21
390.416005
 31
0.0
  0
LINE
  5
11A
100
AcDbEntity
  8
1
  6
CONTINUOUS
 62
     7
100
AcDbLine
 10
443.092555
 20
390.416005
 30
0.0
 11
443.092555
 21
396.516006
 31
0.0
  0
LINE
  5
11B
100
AcDbEntity
  8
1
  6
CONTINUOUS
 62
     7
100
AcDbLine
 10
446.245973
 20
390.742501
 30
0.0
 11
446.692555
 21
391.516006
 31
0.0
  0
LINE
  5
11C
100
AcDbEntity
  8
1
  6
CONTINUOUS
 62
     7
100
AcDbLine
 10
446.245973
 20
390.742501
 30
0.0
 11
443.092555
 21
390.742501
 31
0.0
  0
LINE
  5
11D
100
AcDbEntity
  8
1
  6
CONTINUOUS
 62
     7
100
AcDbLine
 10
446.692555
 20
391.516006
 30
0.0
 11
446.692555
 21
396.516006
 31
0.0
  0
LINE
  5
11E
100
AcDbEntity
  8
1
  6
CONTINUOUS
 62
     7
100
AcDbLine
 10
446.245973
 20
393.629254
 30
0.0
 11
443.092555
 21
393.629254
 31
0.0
  0
ARC
  5
11F
100
AcDbEntity
  8
1
  6
CONTINUOUS
 62
     7
100
AcDbCircle
 10
444.136727
 20
400.846133
 30
0.0
 40
2.555828
100
AcDbArc
 50
-34.384211
 51
25.615309
  0
LINE
  5
120
100
AcDbEntity
  8
1
  6
CONTINUOUS
 62
     7
100
AcDbLine
 10
441.592555
 20
402.616004
 30
0.0
 11
443.092555
 21
402.616004
 31
0.0
  0
LINE
  5
121
100
AcDbEntity
  8
1
  6
CONTINUOUS
 62
     7
100
AcDbLine
 10
446.245973
 20
402.289508
 30
0.0
 11
443.092555
 21
402.289508
 31
0.0
  0
LINE
  5
122
100
AcDbEntity
  8
1
  6
CONTINUOUS
 62
     7
100
AcDbLine
 10
446.245973
 20
399.402757
 30
0.0
 11
443.092555
 21
399.402757
 31
0.0
  0
LINE
  5
123
100
AcDbEntity
  8
1
  6
CONTINUOUS
 62
     7
100
AcDbLine
 10
446.245973
 20
402.289508
 30
0.0
 11
446.692555
 21
401.516006
 31
0.0
  0
ARC
  5
124
100
AcDbEntity
  8
1
  6
CONTINUOUS
 62
     7
100
AcDbCircle
 10
437.139129
 20
396.516004
 30
0.0
 40
9.553428
100
AcDbArc
 50
0.000003
 51
17.587945
  0
LINE
  5
125
100
AcDbEntity
  8
1
  6
CONTINUOUS
 62
     7
100
AcDbLine
 10
441.592555
 20
402.616004
 30
0.0
 11
441.592555
 21
396.516006
 31
0.0
  0
LINE
  5
126
100
AcDbEntity
  8
1
  6
CONTINUOUS
 62
     7
100
AcDbLine
 10
446.692555
 20
401.516006
 30
0.0
 11
446.692555
 21
396.516006
 31
0.0
  0
LINE
  5
127
100
AcDbEntity
  8
1
  6
CONTINUOUS
 62
     7
100
AcDbLine
 10
443.092555
 20
402.616004
 30
0.0
 11
443.092555
 21
396.516006
 31
0.0
  0
LINE
  5
128
100
AcDbEntity
  8
1
  6
CONTINUOUS
 62
     7
100
AcDbLine
 10
450.992555
 20
393.511571
 30
0.0
 11
451.992555
 21
394.511571
 31
0.0
  0
LINE
  5
129
100
AcDbEntity
  8
1
  6
CONTINUOUS
 62
     7
100
AcDbLine
 10
450.992555
 20
393.511571
 30
0.0
 11
450.992555
 21
396.511571
 31
0.0
  0
LINE
  5
12A
100
AcDbEntity
  8
1
  6
CONTINUOUS
 62
     7
100
AcDbLine
 10
451.992555
 20
394.511571
 30
0.0
 11
451.992555
 21
396.511571
 31
0.0
  0
LINE
  5
12B
100
AcDbEntity
  8
1
  6
CONTINUOUS
 62
     7
100
AcDbLine
 10
450.992555
 20
399.511571
 30
0.0
 11
451.992555
 21
398.511571
 31
0.0
  0
LINE
  5
12C
100
AcDbEntity
  8
1
  6
CONTINUOUS
 62
     7
100
AcDbLine
 10
450.992555
 20
399.511571
 30
0.0
 11
450.992555
 21
396.511571
 31
0.0
  0
LINE
  5
12D
100
AcDbEntity
  8
1
  6
CONTINUOUS
 62
     7
100
AcDbLine
 10
451.992555
 20
398.511571
 30
0.0
 11
451.992555
 21
396.511571
 31
0.0
  0
LINE
  5
12E
100
AcDbEntity
  8
1
  6
CONTINUOUS
 62
     7
100
AcDbLine
 10
446.692555
 20
393.511571
 30
0.0
 11
450.992555
 21
393.511571
 31
0.0
  0
LINE
  5
12F
100
AcDbEntity
  8
1
  6
CONTINUOUS
 62
     7
100
AcDbLine
 10
446.692555
 20
394.053071
 30
0.0
 11
451.534055
 21
394.053071
 31
0.0
  0
LINE
  5
130
100
AcDbEntity
  8
1
  6
CONTINUOUS
 62
     7
100
AcDbLine
 10
446.692555
 20
398.97007
 30
0.0
 11
451.534055
 21
398.97007
 31
0.0
  0
LINE
  5
131
100
AcDbEntity
  8
1
  6
CONTINUOUS
 62
     7
100
AcDbLine
 10
446.692555
 20
399.511571
 30
0.0
 11
450.992555
 21
399.511571
 31
0.0
  0
LINE
  5
132
100
AcDbEntity
  8
1
  6
CONTINUOUS
 62
     7
100
AcDbLine
 10
421.992555
 20
427.550311
 30
0.0
 11
423.592555
 21
427.550311
 31
0.0
  0
LINE
  5
133
100
AcDbEntity
  8
1
  6
CONTINUOUS
 62
     7
100
AcDbLine
 10
421.992555
 20
438.550311
 30
0.0
 11
421.992555
 21
427.550311
 31
0.0
  0
LINE
  5
134
100
AcDbEntity
  8
1
  6
CONTINUOUS
 62
     7
100
AcDbLine
 10
423.592555
 20
438.550311
 30
0.0
 11
421.992555
 21
438.550311
 31
0.0
  0
LINE
  5
135
100
AcDbEntity
  8
1
  6
CONTINUOUS
 62
     7
100
AcDbLine
 10
423.592555
 20
427.550311
 30
0.0
 11
423.592555
 21
438.550311
 31
0.0
  0
LINE
  5
136
100
AcDbEntity
  8
1
  6
CONTINUOUS
 62
     7
100
AcDbLine
 10
418.439134
 20
427.273646
 30
0.0
 11
421.992555
 21
427.273646
 31
0.0
  0
LINE
  5
137
100
AcDbEntity
  8
1
  6
CONTINUOUS
 62
     7
100
AcDbLine
 10
418.439134
 20
430.160399
 30
0.0
 11
421.992555
 21
430.160399
 31
0.0
  0
LINE
  5
138
100
AcDbEntity
  8
1
  6
CONTINUOUS
 62
     7
100
AcDbLine
 10
421.992555
 20
427.273646
 30
0.0
 11
421.992555
 21
433.04715
 31
0.0
  0
ARC
  5
139
100
AcDbEntity
  8
1
  6
CONTINUOUS
 62
     7
100
AcDbCircle
 10
427.54598
 20
433.04715
 30
0.0
 40
9.553428
100
AcDbArc
 50
179.999997
 51
-162.412054
  0
ARC
  5
13A
100
AcDbEntity
  8
1
  6
CONTINUOUS
 62
     7
100
AcDbCircle
 10
420.548383
 20
428.717021
 30
0.0
 40
2.555828
100
AcDbArc
 50
145.615794
 51
-154.384696
  0
LINE
  5
13B
100
AcDbEntity
  8
1
  6
CONTINUOUS
 62
     7
100
AcDbLine
 10
418.439134
 20
427.273646
 30
0.0
 11
417.992555
 21
428.04715
 31
0.0
  0
LINE
  5
13C
100
AcDbEntity
  8
1
  6
CONTINUOUS
 62
     7
100
AcDbLine
 10
417.992555
 20
428.04715
 30
0.0
 11
417.992555
 21
433.04715
 31
0.0
  0
LINE
  5
13D
100
AcDbEntity
  8
1
  6
CONTINUOUS
 62
     7
100
AcDbLine
 10
418.439134
 20
438.820652
 30
0.0
 11
421.992555
 21
438.820652
 31
0.0
  0
LINE
  5
13E
100
AcDbEntity
  8
1
  6
CONTINUOUS
 62
     7
100
AcDbLine
 10
418.439134
 20
435.933901
 30
0.0
 11
421.992555
 21
435.933901
 31
0.0
  0
ARC
  5
13F
100
AcDbEntity
  8
1
  6
CONTINUOUS
 62
     7
100
AcDbCircle
 10
420.548383
 20
437.377278
 30
0.0
 40
2.555828
100
AcDbArc
 50
154.384691
 51
-145.615789
  0
LINE
  5
140
100
AcDbEntity
  8
1
  6
CONTINUOUS
 62
     7
100
AcDbLine
 10
418.439134
 20
438.820652
 30
0.0
 11
417.992555
 21
438.04715
 31
0.0
  0
LINE
  5
141
100
AcDbEntity
  8
1
  6
CONTINUOUS
 62
     7
100
AcDbLine
 10
421.992555
 20
438.820652
 30
0.0
 11
421.992555
 21
433.04715
 31
0.0
  0
ARC
  5
142
100
AcDbEntity
  8
1
  6
CONTINUOUS
 62
     7
100
AcDbCircle
 10
427.54598
 20
433.047148
 30
0.0
 40
9.553428
100
AcDbArc
 50
162.412055
 51
179.999997
  0
LINE
  5
143
100
AcDbEntity
  8
1
  6
CONTINUOUS
 62
     7
100
AcDbLine
 10
417.992555
 20
438.04715
 30
0.0
 11
417.992555
 21
433.04715
 31
0.0
  0
ARC
  5
144
100
AcDbEntity
  8
1
  6
CONTINUOUS
 62
     7
100
AcDbCircle
 10
437.139129
 20
433.046742
 30
0.0
 40
9.553428
100
AcDbArc
 50
-17.587946
 51
0.000003
  0
ARC
  5
145
100
AcDbEntity
  8
1
  6
CONTINUOUS
 62
     7
100
AcDbCircle
 10
444.136727
 20
428.716613
 30
0.0
 40
2.555828
100
AcDbArc
 50
-25.615304
 51
34.384206
  0
LINE
  5
146
100
AcDbEntity
  8
1
  6
CONTINUOUS
 62
     7
100
AcDbLine
 10
441.592555
 20
426.946742
 30
0.0
 11
441.592555
 21
433.046742
 31
0.0
  0
LINE
  5
147
100
AcDbEntity
  8
1
  6
CONTINUOUS
 62
     7
100
AcDbLine
 10
441.592555
 20
426.946742
 30
0.0
 11
443.092555
 21
426.946742
 31
0.0
  0
LINE
  5
148
100
AcDbEntity
  8
1
  6
CONTINUOUS
 62
     7
100
AcDbLine
 10
443.092555
 20
426.946742
 30
0.0
 11
443.092555
 21
433.046742
 31
0.0
  0
LINE
  5
149
100
AcDbEntity
  8
1
  6
CONTINUOUS
 62
     7
100
AcDbLine
 10
446.245973
 20
427.273238
 30
0.0
 11
446.692555
 21
428.046742
 31
0.0
  0
LINE
  5
14A
100
AcDbEntity
  8
1
  6
CONTINUOUS
 62
     7
100
AcDbLine
 10
446.245973
 20
427.273238
 30
0.0
 11
443.092555
 21
427.273238
 31
0.0
  0
LINE
  5
14B
100
AcDbEntity
  8
1
  6
CONTINUOUS
 62
     7
100
AcDbLine
 10
446.692555
 20
428.046742
 30
0.0
 11
446.692555
 21
433.046742
 31
0.0
  0
LINE
  5
14C
100
AcDbEntity
  8
1
  6
CONTINUOUS
 62
     7
100
AcDbLine
 10
446.245973
 20
430.159991
 30
0.0
 11
443.092555
 21
430.159991
 31
0.0
  0
ARC
  5
14D
100
AcDbEntity
  8
1
  6
CONTINUOUS
 62
     7
100
AcDbCircle
 10
444.136727
 20
437.37687
 30
0.0
 40
2.555828
100
AcDbArc
 50
-34.384211
 51
25.615309
  0
LINE
  5
14E
100
AcDbEntity
  8
1
  6
CONTINUOUS
 62
     7
100
AcDbLine
 10
441.592555
 20
439.146741
 30
0.0
 11
443.092555
 21
439.146741
 31
0.0
  0
LINE
  5
14F
100
AcDbEntity
  8
1
  6
CONTINUOUS
 62
     7
100
AcDbLine
 10
446.245973
 20
438.820245
 30
0.0
 11
443.092555
 21
438.820245
 31
0.0
  0
LINE
  5
150
100
AcDbEntity
  8
1
  6
CONTINUOUS
 62
     7
100
AcDbLine
 10
446.245973
 20
435.933494
 30
0.0
 11
443.092555
 21
435.933494
 31
0.0
  0
LINE
  5
151
100
AcDbEntity
  8
1
  6
CONTINUOUS
 62
     7
100
AcDbLine
 10
446.245973
 20
438.820245
 30
0.0
 11
446.692555
 21
438.046742
 31
0.0
  0
ARC
  5
152
100
AcDbEntity
  8
1
  6
CONTINUOUS
 62
     7
100
AcDbCircle
 10
437.139129
 20
433.04674
 30
0.0
 40
9.553428
100
AcDbArc
 50
0.000003
 51
17.587945
  0
LINE
  5
153
100
AcDbEntity
  8
1
  6
CONTINUOUS
 62
     7
100
AcDbLine
 10
441.592555
 20
439.146741
 30
0.0
 11
441.592555
 21
433.046742
 31
0.0
  0
LINE
  5
154
100
AcDbEntity
  8
1
  6
CONTINUOUS
 62
     7
100
AcDbLine
 10
446.692555
 20
438.046742
 30
0.0
 11
446.692555
 21
433.046742
 31
0.0
  0
LINE
  5
155
100
AcDbEntity
  8
1
  6
CONTINUOUS
 62
     7
100
AcDbLine
 10
443.092555
 20
439.146741
 30
0.0
 11
443.092555
 21
433.046742
 31
0.0
  0
LINE
  5
156
100
AcDbEntity
  8
1
  6
CONTINUOUS
 62
     7
100
AcDbLine
 10
450.992555
 20
430.042307
 30
0.0
 11
451.992555
 21
431.042307
 31
0.0
  0
LINE
  5
157
100
AcDbEntity
  8
1
  6
CONTINUOUS
 62
     7
100
AcDbLine
 10
450.992555
 20
430.042307
 30
0.0
 11
450.992555
 21
433.042307
 31
0.0
  0
LINE
  5
158
100
AcDbEntity
  8
1
  6
CONTINUOUS
 62
     7
100
AcDbLine
 10
451.992555
 20
431.042307
 30
0.0
 11
451.992555
 21
433.042307
 31
0.0
  0
LINE
  5
159
100
AcDbEntity
  8
1
  6
CONTINUOUS
 62
     7
100
AcDbLine
 10
450.992555
 20
436.042307
 30
0.0
 11
451.992555
 21
435.042307
 31
0.0
  0
LINE
  5
15A
100
AcDbEntity
  8
1
  6
CONTINUOUS
 62
     7
100
AcDbLine
 10
450.992555
 20
436.042307
 30
0.0
 11
450.992555
 21
433.042307
 31
0.0
  0
LINE
  5
15B
100
AcDbEntity
  8
1
  6
CONTINUOUS
 62
     7
100
AcDbLine
 10
451.992555
 20
435.042307
 30
0.0
 11
451.992555
 21
433.042307
 31
0.0
  0
LINE
  5
15C
100
AcDbEntity
  8
1
  6
CONTINUOUS
 62
     7
100
AcDbLine
 10
446.692555
 20
430.042307
 30
0.0
 11
450.992555
 21
430.042307
 31
0.0
  0
LINE
  5
15D
100
AcDbEntity
  8
1
  6
CONTINUOUS
 62
     7
100
AcDbLine
 10
446.692555
 20
430.583807
 30
0.0
 11
451.534055
 21
430.583807
 31
0.0
  0
LINE
  5
15E
100
AcDbEntity
  8
1
  6
CONTINUOUS
 62
     7
100
AcDbLine
 10
446.692555
 20
435.500807
 30
0.0
 11
451.534055
 21
435.500807
 31
0.0
  0
LINE
  5
15F
100
AcDbEntity
  8
1
  6
CONTINUOUS
 62
     7
100
AcDbLine
 10
446.692555
 20
436.042307
 30
0.0
 11
450.992555
 21
436.042307
 31
0.0
  0
ARC
  5
160
100
AcDbEntity
  8
1
  6
CONTINUOUS
 62
     7
100
AcDbCircle
 10
244.854904
 20
433.054044
 30
0.0
 40
5.5
100
AcDbArc
 50
65.380023
 51
114.619977
  0
ARC
  5
161
100
AcDbEntity
  8
1
  6
CONTINUOUS
 62
     7
100
AcDbCircle
 10
244.854904
 20
433.054044
 30
0.0
 40
5.5
100
AcDbArc
 50
5.380023
 51
54.619977
  0
ARC
  5
162
100
AcDbEntity
  8
1
  6
CONTINUOUS
 62
     7
100
AcDbCircle
 10
244.854904
 20
433.054044
 30
0.0
 40
5.5
100
AcDbArc
 50
-54.619977
 51
-5.380023
  0
ARC
  5
163
100
AcDbEntity
  8
1
  6
CONTINUOUS
 62
     7
100
AcDbCircle
 10
244.854904
 20
433.054044
 30
0.0
 40
5.5
100
AcDbArc
 50
-114.619977
 51
-65.380023
  0
ARC
  5
164
100
AcDbEntity
  8
1
  6
CONTINUOUS
 62
     7
100
AcDbCircle
 10
244.854904
 20
433.054044
 30
0.0
 40
5.5
100
AcDbArc
 50
-174.619977
 51
-125.380023
  0
ARC
  5
165
100
AcDbEntity
  8
1
  6
CONTINUOUS
 62
     7
100
AcDbCircle
 10
244.854904
 20
433.054044
 30
0.0
 40
5.5
100
AcDbArc
 50
125.380023
 51
174.619977
  0
POLYLINE
  5
166
100
AcDbEntity
  8
1
  6
CONTINUOUS
 62
     7
100
AcDb2dPolyline
 66
     1
 10
0.0
 20
0.0
 30
0.0
  0
VERTEX
  5
167
100
AcDbEntity
  8
1
  6
CONTINUOUS
 62
     7
100
AcDbVertex
100
AcDb2dVertex
 10
241.968153
 20
438.054044
 30
0.0
  0
VERTEX
  5
168
100
AcDbEntity
  8
1
  6
CONTINUOUS
 62
     7
100
AcDbVertex
100
AcDb2dVertex
 10
239.081401
 20
433.054044
 30
0.0
  0
VERTEX
  5
169
100
AcDbEntity
  8
1
  6
CONTINUOUS
 62
     7
100
AcDbVertex
100
AcDb2dVertex
 10
241.968153
 20
428.054044
 30
0.0
  0
VERTEX
  5
16A
100
AcDbEntity
  8
1
  6
CONTINUOUS
 62
     7
100
AcDbVertex
100
AcDb2dVertex
 10
247.741655
 20
428.054044
 30
0.0
  0
VERTEX
  5
16B
100
AcDbEntity
  8
1
  6
CONTINUOUS
 62
     7
100
AcDbVertex
100
AcDb2dVertex
 10
250.628407
 20
433.054044
 30
0.0
  0
VERTEX
  5
16C
100
AcDbEntity
  8
1
  6
CONTINUOUS
 62
     7
100
AcDbVertex
100
AcDb2dVertex
 10
247.741655
 20
438.054044
 30
0.0
  0
VERTEX
  5
16D
100
AcDbEntity
  8
1
  6
CONTINUOUS
 62
     7
100
AcDbVertex
100
AcDb2dVertex
 10
241.968153
 20
438.054044
 30
0.0
  0
SEQEND
  5
16E
100
AcDbEntity
  8
1
  6
CONTINUOUS
 62
     7
  0
CIRCLE
  5
16F
100
AcDbEntity
  8
1
  6
CONTINUOUS
 62
     7
100
AcDbCircle
 10
244.854904
 20
433.054044
 30
0.0
 40
5.0
  0
ARC
  5
170
100
AcDbEntity
  8
1
  6
CONTINUOUS
 62
     7
100
AcDbCircle
 10
193.192641
 20
433.054044
 30
0.0
 40
5.5
100
AcDbArc
 50
65.380023
 51
114.619977
  0
ARC
  5
171
100
AcDbEntity
  8
1
  6
CONTINUOUS
 62
     7
100
AcDbCircle
 10
193.192641
 20
433.054044
 30
0.0
 40
5.5
100
AcDbArc
 50
5.380023
 51
54.619977
  0
ARC
  5
172
100
AcDbEntity
  8
1
  6
CONTINUOUS
 62
     7
100
AcDbCircle
 10
193.192641
 20
433.054044
 30
0.0
 40
5.5
100
AcDbArc
 50
-54.619977
 51
-5.380023
  0
ARC
  5
173
100
AcDbEntity
  8
1
  6
CONTINUOUS
 62
     7
100
AcDbCircle
 10
193.192641
 20
433.054044
 30
0.0
 40
5.5
100
AcDbArc
 50
-114.619977
 51
-65.380023
  0
ARC
  5
174
100
AcDbEntity
  8
1
  6
CONTINUOUS
 62
     7
100
AcDbCircle
 10
193.192641
 20
433.054044
 30
0.0
 40
5.5
100
AcDbArc
 50
-174.619977
 51
-125.380023
  0
ARC
  5
175
100
AcDbEntity
  8
1
  6
CONTINUOUS
 62
     7
100
AcDbCircle
 10
193.192641
 20
433.054044
 30
0.0
 40
5.5
100
AcDbArc
 50
125.380023
 51
174.619977
  0
POLYLINE
  5
176
100
AcDbEntity
  8
1
  6
CONTINUOUS
 62
     7
100
AcDb2dPolyline
 66
     1
 10
0.0
 20
0.0
 30
0.0
  0
VERTEX
  5
177
100
AcDbEntity
  8
1
  6
CONTINUOUS
 62
     7
100
AcDbVertex
100
AcDb2dVertex
 10
190.305889
 20
438.054044
 30
0.0
  0
VERTEX
  5
178
100
AcDbEntity
  8
1
  6
CONTINUOUS
 62
     7
100
AcDbVertex
100
AcDb2dVertex
 10
187.419138
 20
433.054044
 30
0.0
  0
VERTEX
  5
179
100
AcDbEntity
  8
1
  6
CONTINUOUS
 62
     7
100
AcDbVertex
100
AcDb2dVertex
 10
190.305889
 20
428.054044
 30
0.0
  0
VERTEX
  5
17A
100
AcDbEntity
  8
1
  6
CONTINUOUS
 62
     7
100
AcDbVertex
100
AcDb2dVertex
 10
196.079392
 20
428.054044
 30
0.0
  0
VERTEX
  5
17B
100
AcDbEntity
  8
1
  6
CONTINUOUS
 62
     7
100
AcDbVertex
100
AcDb2dVertex
 10
198.966143
 20
433.054044
 30
0.0
  0
VERTEX
  5
17C
100
AcDbEntity
  8
1
  6
CONTINUOUS
 62
     7
100
AcDbVertex
100
AcDb2dVertex
 10
196.079392
 20
438.054044
 30
0.0
  0
VERTEX
  5
17D
100
AcDbEntity
  8
1
  6
CONTINUOUS
 62
     7
100
AcDbVertex
100
AcDb2dVertex
 10
190.305889
 20
438.054044
 30
0.0
  0
SEQEND
  5
17E
100
AcDbEntity
  8
1
  6
CONTINUOUS
 62
     7
  0
CIRCLE
  5
17F
100
AcDbEntity
  8
1
  6
CONTINUOUS
 62
     7
100
AcDbCircle
 10
193.192641
 20
433.054044
 30
0.0
 40
5.0
  0
INSERT
  5
186
100
AcDbEntity
  8
12
  6
CONTINUOUS
 62
     7
100
AcDbBlockReference
  2
*G1
 10
0.0
 20
0.0
 30
0.0
  0
INSERT
  5
1A0
100
AcDbEntity
  8
5
  6
CONTINUOUS
 62
     3
100
AcDbBlockReference
  2
*G2
 10
0.0
 20
0.0
 30
0.0
  0
INSERT
  5
1BB
100
AcDbEntity
  8
5
  6
CONTINUOUS
 62
     3
100
AcDbBlockReference
  2
*G6
 10
0.0
 20
0.0
 30
0.0
  0
INSERT
  5
1D5
100
AcDbEntity
  8
5
  6
CONTINUOUS
 62
     3
100
AcDbBlockReference
  2
*G10
 10
0.0
 20
0.0
 30
0.0
  0
INSERT
  5
1EF
100
AcDbEntity
  8
5
  6
CONTINUOUS
 62
     3
100
AcDbBlockReference
  2
*G14
 10
0.0
 20
0.0
 30
0.0
  0
INSERT
  5
32B
100
AcDbEntity
  8
4
  6
CONTINUOUS
 62
     3
100
AcDbBlockReference
  2
*G18
 10
0.0
 20
0.0
 30
0.0
  0
ARC
  5
32C
100
AcDbEntity
  8
1
  6
CONTINUOUS
 62
     7
100
AcDbCircle
 10
481.592555
 20
323.192176
 30
0.0
 40
9.0
100
AcDbArc
 50
-165.0
 51
-96.379364
  0
ARC
  5
32D
100
AcDbEntity
  8
1
  6
CONTINUOUS
 62
     7
100
AcDbCircle
 10
481.592555
 20
323.192176
 30
0.0
 40
9.5
100
AcDbArc
 50
-165.0
 51
-96.042322
  0
ARC
  5
32E
100
AcDbEntity
  8
1
  6
CONTINUOUS
 62
     7
100
AcDbCircle
 10
481.592555
 20
323.192176
 30
0.0
 40
9.5
100
AcDbArc
 50
96.042329
 51
164.999999
  0
ARC
  5
32F
100
AcDbEntity
  8
1
  6
CONTINUOUS
 62
     7
100
AcDbCircle
 10
481.592555
 20
323.192176
 30
0.0
 40
9.0
100
AcDbArc
 50
96.37937
 51
164.999999
  0
LINE
  5
330
100
AcDbEntity
  8
1
  6
CONTINUOUS
 62
     7
100
AcDbLine
 10
472.899222
 20
320.862804
 30
0.0
 11
472.41626
 21
320.733395
 31
0.0
  0
LINE
  5
331
100
AcDbEntity
  8
1
  6
CONTINUOUS
 62
     7
100
AcDbLine
 10
472.899222
 20
325.521547
 30
0.0
 11
472.41626
 21
325.650957
 31
0.0
  0
LINE
  5
332
100
AcDbEntity
  8
1
  6
CONTINUOUS
 62
     7
100
AcDbLine
 10
482.592555
 20
313.996388
 30
0.0
 11
480.592555
 21
312.841688
 31
0.0
  0
LINE
  5
333
100
AcDbEntity
  8
1
  6
CONTINUOUS
 62
     7
100
AcDbLine
 10
482.592555
 20
313.996388
 30
0.0
 11
480.592555
 21
315.151089
 31
0.0
  0
LINE
  5
334
100
AcDbEntity
  8
1
  6
CONTINUOUS
 62
     7
100
AcDbLine
 10
480.592555
 20
313.744954
 30
0.0
 11
480.592555
 21
312.841688
 31
0.0
  0
LINE
  5
335
100
AcDbEntity
  8
1
  6
CONTINUOUS
 62
     7
100
AcDbLine
 10
480.592555
 20
314.247823
 30
0.0
 11
480.592555
 21
315.151089
 31
0.0
  0
LINE
  5
336
100
AcDbEntity
  8
1
  6
CONTINUOUS
 62
     7
100
AcDbLine
 10
480.592555
 20
332.639397
 30
0.0
 11
480.592555
 21
333.542663
 31
0.0
  0
LINE
  5
337
100
AcDbEntity
  8
1
  6
CONTINUOUS
 62
     7
100
AcDbLine
 10
482.592555
 20
332.387963
 30
0.0
 11
480.592555
 21
331.233262
 31
0.0
  0
LINE
  5
338
100
AcDbEntity
  8
1
  6
CONTINUOUS
 62
     7
100
AcDbLine
 10
482.592555
 20
332.387963
 30
0.0
 11
480.592555
 21
333.542663
 31
0.0
  0
LINE
  5
339
100
AcDbEntity
  8
1
  6
CONTINUOUS
 62
     7
100
AcDbLine
 10
480.592555
 20
332.136528
 30
0.0
 11
480.592555
 21
331.233262
 31
0.0
  0
ARC
  5
33A
100
AcDbEntity
  8
1
  6
CONTINUOUS
 62
     7
100
AcDbCircle
 10
481.592555
 20
323.192176
 30
0.0
 40
3.85
100
AcDbArc
 50
105.054651
 51
-105.054651
  0
LINE
  5
33B
100
AcDbEntity
  8
1
  6
CONTINUOUS
 62
     7
100
AcDbLine
 10
480.592555
 20
327.425673
 30
0.0
 11
480.592555
 21
318.958678
 31
0.0
  0
LINE
  5
33C
100
AcDbEntity
  8
1
  6
CONTINUOUS
 62
     7
100
AcDbLine
 10
482.592555
 20
327.425673
 30
0.0
 11
482.592555
 21
318.958678
 31
0.0
  0
ARC
  5
33D
100
AcDbEntity
  8
1
  6
CONTINUOUS
 62
     7
100
AcDbCircle
 10
481.592555
 20
323.192176
 30
0.0
 40
3.85
100
AcDbArc
 50
-74.945349
 51
74.945349
  0
CIRCLE
  5
33E
100
AcDbEntity
  8
1
  6
CONTINUOUS
 62
     7
100
AcDbCircle
 10
481.592555
 20
323.192176
 30
0.0
 40
4.35
  0
POLYLINE
  5
33F
100
AcDbEntity
  8
1
  6
CONTINUOUS
 62
     7
100
AcDb2dPolyline
 66
     1
 10
0.0
 20
0.0
 30
0.0
  0
VERTEX
  5
340
100
AcDbEntity
  8
1
  6
CONTINUOUS
 62
     7
100
AcDbVertex
100
AcDb2dVertex
 10
474.664352
 20
311.192176
 30
0.0
  0
VERTEX
  5
341
100
AcDbEntity
  8
1
  6
CONTINUOUS
 62
     7
100
AcDbVertex
100
AcDb2dVertex
 10
467.736148
 20
323.192176
 30
0.0
  0
VERTEX
  5
342
100
AcDbEntity
  8
1
  6
CONTINUOUS
 62
     7
100
AcDbVertex
100
AcDb2dVertex
 10
474.664352
 20
335.192176
 30
0.0
  0
VERTEX
  5
343
100
AcDbEntity
  8
1
  6
CONTINUOUS
 62
     7
100
AcDbVertex
100
AcDb2dVertex
 10
488.520758
 20
335.192176
 30
0.0
  0
VERTEX
  5
344
100
AcDbEntity
  8
1
  6
CONTINUOUS
 62
     7
100
AcDbVertex
100
AcDb2dVertex
 10
495.448961
 20
323.192176
 30
0.0
  0
VERTEX
  5
345
100
AcDbEntity
  8
1
  6
CONTINUOUS
 62
     7
100
AcDbVertex
100
AcDb2dVertex
 10
488.520758
 20
311.192176
 30
0.0
  0
VERTEX
  5
346
100
AcDbEntity
  8
1
  6
CONTINUOUS
 62
     7
100
AcDbVertex
100
AcDb2dVertex
 10
474.664352
 20
311.192176
 30
0.0
  0
SEQEND
  5
347
100
AcDbEntity
  8
1
  6
CONTINUOUS
 62
     7
  0
CIRCLE
  5
348
100
AcDbEntity
  8
1
  6
CONTINUOUS
 62
     7
100
AcDbCircle
 10
481.592555
 20
323.192176
 30
0.0
 40
12.0
  0
LINE
  5
349
100
AcDbEntity
  8
1
  6
CONTINUOUS
 62
     7
100
AcDbLine
 10
498.592555
 20
202.692178
 30
0.0
 11
481.592555
 21
202.692178
 31
0.0
  0
LINE
  5
34A
100
AcDbEntity
  8
1
  6
CONTINUOUS
 62
     7
100
AcDbLine
 10
498.592555
 20
202.692178
 30
0.0
 11
503.592555
 21
197.692178
 31
0.0
  0
LINE
  5
34B
100
AcDbEntity
  8
1
  6
CONTINUOUS
 62
     7
100
AcDbLine
 10
481.592555
 20
197.692178
 30
0.0
 11
530.092555
 21
197.692178
 31
0.0
  0
ARC
  5
34C
100
AcDbEntity
  8
1
  6
CONTINUOUS
 62
     7
100
AcDbCircle
 10
511.092555
 20
182.192178
 30
0.0
 40
0.5
100
AcDbArc
 50
89.999997
 51
180.0
  0
LINE
  5
34D
100
AcDbEntity
  8
1
  6
CONTINUOUS
 62
     7
100
AcDbLine
 10
481.592555
 20
230.402184
 30
0.0
 11
498.417056
 21
230.402184
 31
0.0
  0
LINE
  5
34E
100
AcDbEntity
  8
1
  6
CONTINUOUS
 62
     7
100
AcDbLine
 10
498.592555
 20
227.887925
 30
0.0
 11
481.592555
 21
227.887925
 31
0.0
  0
LINE
  5
34F
100
AcDbEntity
  8
1
  6
CONTINUOUS
 62
     7
100
AcDbLine
 10
496.937331
 20
230.402184
 30
0.0
 11
498.495623
 21
227.887925
 31
0.0
  0
LINE
  5
350
100
AcDbEntity
  8
1
  6
CONTINUOUS
 62
     7
100
AcDbLine
 10
498.282991
 20
234.692176
 30
0.0
 11
498.495623
 21
227.887925
 31
0.0
  0
LINE
  5
351
100
AcDbEntity
  8
1
  6
CONTINUOUS
 62
     7
100
AcDbLine
 10
496.803269
 20
234.692176
 30
0.0
 11
496.937331
 21
230.402184
 31
0.0
  0
LINE
  5
352
100
AcDbEntity
  8
1
  6
CONTINUOUS
 62
     7
100
AcDbLine
 10
498.592555
 20
202.692178
 30
0.0
 11
498.592555
 21
227.887925
 31
0.0
  0
LINE
  5
353
100
AcDbEntity
  8
1
  6
CONTINUOUS
 62
     7
100
AcDbLine
 10
481.592555
 20
181.692178
 30
0.0
 11
510.592555
 21
181.692178
 31
0.0
  0
LINE
  5
354
100
AcDbEntity
  8
1
  6
CONTINUOUS
 62
     7
100
AcDbLine
 10
481.592555
 20
182.692178
 30
0.0
 11
530.092555
 21
182.692178
 31
0.0
  0
LINE
  5
355
100
AcDbEntity
  8
1
  6
CONTINUOUS
 62
     7
100
AcDbLine
 10
510.592555
 20
181.692178
 30
0.0
 11
510.592555
 21
182.192178
 31
0.0
  0
ARC
  5
356
100
AcDbEntity
  8
1
  6
CONTINUOUS
 62
     7
100
AcDbCircle
 10
530.092555
 20
184.192178
 30
0.0
 40
1.5
100
AcDbArc
 50
-90.0
 51
0.0
  0
ARC
  5
357
100
AcDbEntity
  8
1
  6
CONTINUOUS
 62
     7
100
AcDbCircle
 10
530.092555
 20
196.192178
 30
0.0
 40
1.5
100
AcDbArc
 50
0.0
 51
90.0
  0
LINE
  5
358
100
AcDbEntity
  8
1
  6
CONTINUOUS
 62
     7
100
AcDbLine
 10
531.592555
 20
196.192178
 30
0.0
 11
531.592555
 21
184.192178
 31
0.0
  0
LINE
  5
359
100
AcDbEntity
  8
1
  6
CONTINUOUS
 62
     7
100
AcDbLine
 10
464.592555
 20
202.692178
 30
0.0
 11
481.592555
 21
202.692178
 31
0.0
  0
LINE
  5
35A
100
AcDbEntity
  8
1
  6
CONTINUOUS
 62
     7
100
AcDbLine
 10
464.592555
 20
202.692178
 30
0.0
 11
459.592555
 21
197.692178
 31
0.0
  0
LINE
  5
35B
100
AcDbEntity
  8
1
  6
CONTINUOUS
 62
     7
100
AcDbLine
 10
481.592555
 20
197.692178
 30
0.0
 11
433.092555
 21
197.692178
 31
0.0
  0
ARC
  5
35C
100
AcDbEntity
  8
1
  6
CONTINUOUS
 62
     7
100
AcDbCircle
 10
452.092555
 20
182.192178
 30
0.0
 40
0.5
100
AcDbArc
 50
0.0
 51
90.000003
  0
LINE
  5
35D
100
AcDbEntity
  8
1
  6
CONTINUOUS
 62
     7
100
AcDbLine
 10
481.592555
 20
230.402184
 30
0.0
 11
464.768054
 21
230.402184
 31
0.0
  0
LINE
  5
35E
100
AcDbEntity
  8
1
  6
CONTINUOUS
 62
     7
100
AcDbLine
 10
464.592555
 20
227.887925
 30
0.0
 11
481.592555
 21
227.887925
 31
0.0
  0
LINE
  5
35F
100
AcDbEntity
  8
1
  6
CONTINUOUS
 62
     7
100
AcDbLine
 10
466.247779
 20
230.402184
 30
0.0
 11
464.689486
 21
227.887925
 31
0.0
  0
LINE
  5
360
100
AcDbEntity
  8
1
  6
CONTINUOUS
 62
     7
100
AcDbLine
 10
464.902119
 20
234.692176
 30
0.0
 11
464.689486
 21
227.887925
 31
0.0
  0
LINE
  5
361
100
AcDbEntity
  8
1
  6
CONTINUOUS
 62
     7
100
AcDbLine
 10
466.381841
 20
234.692176
 30
0.0
 11
466.247779
 21
230.402184
 31
0.0
  0
LINE
  5
362
100
AcDbEntity
  8
1
  6
CONTINUOUS
 62
     7
100
AcDbLine
 10
464.592555
 20
202.692178
 30
0.0
 11
464.592555
 21
227.887925
 31
0.0
  0
LINE
  5
363
100
AcDbEntity
  8
1
  6
CONTINUOUS
 62
     7
100
AcDbLine
 10
481.592555
 20
181.692178
 30
0.0
 11
452.592555
 21
181.692178
 31
0.0
  0
LINE
  5
364
100
AcDbEntity
  8
1
  6
CONTINUOUS
 62
     7
100
AcDbLine
 10
481.592555
 20
182.692178
 30
0.0
 11
433.092555
 21
182.692178
 31
0.0
  0
LINE
  5
365
100
AcDbEntity
  8
1
  6
CONTINUOUS
 62
     7
100
AcDbLine
 10
452.592555
 20
181.692178
 30
0.0
 11
452.592555
 21
182.192178
 31
0.0
  0
ARC
  5
366
100
AcDbEntity
  8
1
  6
CONTINUOUS
 62
     7
100
AcDbCircle
 10
433.092555
 20
184.192178
 30
0.0
 40
1.5
100
AcDbArc
 50
180.0
 51
-90.0
  0
ARC
  5
367
100
AcDbEntity
  8
1
  6
CONTINUOUS
 62
     7
100
AcDbCircle
 10
433.092555
 20
196.192178
 30
0.0
 40
1.5
100
AcDbArc
 50
90.0
 51
180.0
  0
LINE
  5
368
100
AcDbEntity
  8
1
  6
CONTINUOUS
 62
     7
100
AcDbLine
 10
431.592555
 20
196.192178
 30
0.0
 11
431.592555
 21
184.192178
 31
0.0
  0
LINE
  5
369
100
AcDbEntity
  8
1
  6
CONTINUOUS
 62
     7
100
AcDbLine
 10
504.592555
 20
234.692178
 30
0.0
 11
452.092555
 21
234.692178
 31
0.0
  0
ARC
  5
36A
100
AcDbEntity
  8
1
  6
CONTINUOUS
 62
     7
100
AcDbCircle
 10
554.592555
 20
370.692176
 30
0.0
 40
230.0
100
AcDbArc
 50
179.999997
 51
-172.438573
  0
ARC
  5
36B
100
AcDbEntity
  8
1
  6
CONTINUOUS
 62
     7
100
AcDbCircle
 10
554.592555
 20
370.692176
 30
0.0
 40
230.0
100
AcDbArc
 50
172.438568
 51
179.999997
  0
LINE
  5
36C
100
AcDbEntity
  8
1
  6
CONTINUOUS
 62
     7
100
AcDbLine
 10
327.592555
 20
403.192176
 30
0.0
 11
331.592555
 21
403.192176
 31
0.0
  0
LINE
  5
36D
100
AcDbEntity
  8
1
  6
CONTINUOUS
 62
     7
100
AcDbLine
 10
326.592555
 20
402.192176
 30
0.0
 11
327.592555
 21
403.192176
 31
0.0
  0
LINE
  5
36E
100
AcDbEntity
  8
1
  6
CONTINUOUS
 62
     7
100
AcDbLine
 10
327.592555
 20
386.942176
 30
0.0
 11
331.592555
 21
386.942176
 31
0.0
  0
LINE
  5
36F
100
AcDbEntity
  8
1
  6
CONTINUOUS
 62
     7
100
AcDbLine
 10
327.592555
 20
378.817176
 30
0.0
 11
331.592555
 21
378.817176
 31
0.0
  0
LINE
  5
370
100
AcDbEntity
  8
1
  6
CONTINUOUS
 62
     7
100
AcDbLine
 10
327.592555
 20
382.879676
 30
0.0
 11
331.592555
 21
382.879676
 31
0.0
  0
LINE
  5
371
100
AcDbEntity
  8
1
  6
CONTINUOUS
 62
     7
100
AcDbLine
 10
327.592555
 20
374.754676
 30
0.0
 11
331.592555
 21
374.754676
 31
0.0
  0
LINE
  5
372
100
AcDbEntity
  8
1
  6
CONTINUOUS
 62
     7
100
AcDbLine
 10
327.592555
 20
372.723426
 30
0.0
 11
331.592555
 21
372.723426
 31
0.0
  0
LINE
  5
373
100
AcDbEntity
  8
1
  6
CONTINUOUS
 62
     7
100
AcDbLine
 10
327.592555
 20
376.785926
 30
0.0
 11
331.592555
 21
376.785926
 31
0.0
  0
LINE
  5
374
100
AcDbEntity
  8
1
  6
CONTINUOUS
 62
     7
100
AcDbLine
 10
327.592555
 20
380.848426
 30
0.0
 11
331.592555
 21
380.848426
 31
0.0
  0
LINE
  5
375
100
AcDbEntity
  8
1
  6
CONTINUOUS
 62
     7
100
AcDbLine
 10
327.592555
 20
384.910926
 30
0.0
 11
331.592555
 21
384.910926
 31
0.0
  0
LINE
  5
376
100
AcDbEntity
  8
1
  6
CONTINUOUS
 62
     7
100
AcDbLine
 10
327.592555
 20
388.973426
 30
0.0
 11
331.592555
 21
388.973426
 31
0.0
  0
LINE
  5
377
100
AcDbEntity
  8
1
  6
CONTINUOUS
 62
     7
100
AcDbLine
 10
327.592555
 20
393.035926
 30
0.0
 11
331.592555
 21
393.035926
 31
0.0
  0
LINE
  5
378
100
AcDbEntity
  8
1
  6
CONTINUOUS
 62
     7
100
AcDbLine
 10
327.592555
 20
397.098426
 30
0.0
 11
331.592555
 21
397.098426
 31
0.0
  0
LINE
  5
379
100
AcDbEntity
  8
1
  6
CONTINUOUS
 62
     7
100
AcDbLine
 10
327.592555
 20
399.129676
 30
0.0
 11
331.592555
 21
399.129676
 31
0.0
  0
LINE
  5
37A
100
AcDbEntity
  8
1
  6
CONTINUOUS
 62
     7
100
AcDbLine
 10
327.592555
 20
391.004676
 30
0.0
 11
331.592555
 21
391.004676
 31
0.0
  0
LINE
  5
37B
100
AcDbEntity
  8
1
  6
CONTINUOUS
 62
     7
100
AcDbLine
 10
327.592555
 20
395.067176
 30
0.0
 11
331.592555
 21
395.067176
 31
0.0
  0
LINE
  5
37C
100
AcDbEntity
  8
1
  6
CONTINUOUS
 62
     7
100
AcDbLine
 10
327.592555
 20
401.160926
 30
0.0
 11
331.592555
 21
401.160926
 31
0.0
  0
LINE
  5
37D
100
AcDbEntity
  8
1
  6
CONTINUOUS
 62
     7
100
AcDbLine
 10
327.592555
 20
340.223426
 30
0.0
 11
331.592555
 21
340.223426
 31
0.0
  0
LINE
  5
37E
100
AcDbEntity
  8
1
  6
CONTINUOUS
 62
     7
100
AcDbLine
 10
327.592555
 20
346.317176
 30
0.0
 11
331.592555
 21
346.317176
 31
0.0
  0
LINE
  5
37F
100
AcDbEntity
  8
1
  6
CONTINUOUS
 62
     7
100
AcDbLine
 10
327.592555
 20
350.379676
 30
0.0
 11
331.592555
 21
350.379676
 31
0.0
  0
LINE
  5
380
100
AcDbEntity
  8
1
  6
CONTINUOUS
 62
     7
100
AcDbLine
 10
327.592555
 20
342.254676
 30
0.0
 11
331.592555
 21
342.254676
 31
0.0
  0
LINE
  5
381
100
AcDbEntity
  8
1
  6
CONTINUOUS
 62
     7
100
AcDbLine
 10
327.592555
 20
344.285926
 30
0.0
 11
331.592555
 21
344.285926
 31
0.0
  0
LINE
  5
382
100
AcDbEntity
  8
1
  6
CONTINUOUS
 62
     7
100
AcDbLine
 10
327.592555
 20
348.348426
 30
0.0
 11
331.592555
 21
348.348426
 31
0.0
  0
LINE
  5
383
100
AcDbEntity
  8
1
  6
CONTINUOUS
 62
     7
100
AcDbLine
 10
327.592555
 20
352.410926
 30
0.0
 11
331.592555
 21
352.410926
 31
0.0
  0
LINE
  5
384
100
AcDbEntity
  8
1
  6
CONTINUOUS
 62
     7
100
AcDbLine
 10
327.592555
 20
356.473426
 30
0.0
 11
331.592555
 21
356.473426
 31
0.0
  0
LINE
  5
385
100
AcDbEntity
  8
1
  6
CONTINUOUS
 62
     7
100
AcDbLine
 10
327.592555
 20
360.535926
 30
0.0
 11
331.592555
 21
360.535926
 31
0.0
  0
LINE
  5
386
100
AcDbEntity
  8
1
  6
CONTINUOUS
 62
     7
100
AcDbLine
 10
327.592555
 20
364.598426
 30
0.0
 11
331.592555
 21
364.598426
 31
0.0
  0
LINE
  5
387
100
AcDbEntity
  8
1
  6
CONTINUOUS
 62
     7
100
AcDbLine
 10
327.592555
 20
368.660926
 30
0.0
 11
331.592555
 21
368.660926
 31
0.0
  0
LINE
  5
388
100
AcDbEntity
  8
1
  6
CONTINUOUS
 62
     7
100
AcDbLine
 10
327.592555
 20
366.629676
 30
0.0
 11
331.592555
 21
366.629676
 31
0.0
  0
LINE
  5
389
100
AcDbEntity
  8
1
  6
CONTINUOUS
 62
     7
100
AcDbLine
 10
327.592555
 20
358.504676
 30
0.0
 11
331.592555
 21
358.504676
 31
0.0
  0
LINE
  5
38A
100
AcDbEntity
  8
1
  6
CONTINUOUS
 62
     7
100
AcDbLine
 10
327.592555
 20
362.567176
 30
0.0
 11
331.592555
 21
362.567176
 31
0.0
  0
LINE
  5
38B
100
AcDbEntity
  8
1
  6
CONTINUOUS
 62
     7
100
AcDbLine
 10
327.592555
 20
354.442176
 30
0.0
 11
331.592555
 21
354.442176
 31
0.0
  0
LINE
  5
38C
100
AcDbEntity
  8
1
  6
CONTINUOUS
 62
     7
100
AcDbLine
 10
326.592555
 20
339.192176
 30
0.0
 11
327.592555
 21
338.192176
 31
0.0
  0
LINE
  5
38D
100
AcDbEntity
  8
1
  6
CONTINUOUS
 62
     7
100
AcDbLine
 10
327.592555
 20
338.192176
 30
0.0
 11
331.592555
 21
338.192176
 31
0.0
  0
LINE
  5
38E
100
AcDbEntity
  8
1
  6
CONTINUOUS
 62
     7
100
AcDbLine
 10
327.592555
 20
338.192176
 30
0.0
 11
327.592555
 21
370.692176
 31
0.0
  0
LINE
  5
38F
100
AcDbEntity
  8
1
  6
CONTINUOUS
 62
     7
100
AcDbLine
 10
327.592555
 20
403.192176
 30
0.0
 11
327.592555
 21
370.692176
 31
0.0
  0
LINE
  5
390
100
AcDbEntity
  8
1
  6
CONTINUOUS
 62
     7
100
AcDbLine
 10
327.592555
 20
370.692176
 30
0.0
 11
331.592555
 21
370.692176
 31
0.0
  0
LINE
  5
391
100
AcDbEntity
  8
1
  6
CONTINUOUS
 62
     7
100
AcDbLine
 10
326.592555
 20
339.192176
 30
0.0
 11
326.592555
 21
370.692176
 31
0.0
  0
LINE
  5
392
100
AcDbEntity
  8
1
  6
CONTINUOUS
 62
     7
100
AcDbLine
 10
331.592555
 20
338.192176
 30
0.0
 11
331.592555
 21
370.692176
 31
0.0
  0
LINE
  5
393
100
AcDbEntity
  8
1
  6
CONTINUOUS
 62
     7
100
AcDbLine
 10
331.592555
 20
403.192176
 30
0.0
 11
331.592555
 21
370.692176
 31
0.0
  0
LINE
  5
394
100
AcDbEntity
  8
1
  6
CONTINUOUS
 62
     7
100
AcDbLine
 10
326.592555
 20
402.192176
 30
0.0
 11
326.592555
 21
370.692176
 31
0.0
  0
ARC
  5
395
100
AcDbEntity
  8
1
  6
CONTINUOUS
 62
     7
100
AcDbCircle
 10
407.10361
 20
376.892176
 30
0.0
 40
1.0
100
AcDbArc
 50
-90.0
 51
0.0
  0
ARC
  5
396
100
AcDbEntity
  8
1
  6
CONTINUOUS
 62
     7
100
AcDbCircle
 10
407.10361
 20
364.492176
 30
0.0
 40
1.0
100
AcDbArc
 50
0.0
 51
90.0
  0
ARC
  5
397
100
AcDbEntity
  8
1
  6
CONTINUOUS
 62
     7
100
AcDbCircle
 10
332.592555
 20
374.892176
 30
0.0
 40
1.0
100
AcDbArc
 50
90.0
 51
180.0
  0
ARC
  5
398
100
AcDbEntity
  8
1
  6
CONTINUOUS
 62
     7
100
AcDbCircle
 10
332.592555
 20
366.492176
 30
0.0
 40
1.0
100
AcDbArc
 50
180.0
 51
-90.0
  0
LINE
  5
399
100
AcDbEntity
  8
1
  6
CONTINUOUS
 62
     7
100
AcDbLine
 10
332.592555
 20
375.892176
 30
0.0
 11
407.10361
 21
375.892176
 31
0.0
  0
LINE
  5
39A
100
AcDbEntity
  8
1
  6
CONTINUOUS
 62
     7
100
AcDbLine
 10
332.592555
 20
365.492176
 30
0.0
 11
407.10361
 21
365.492176
 31
0.0
  0
LINE
  5
39B
100
AcDbEntity
  8
1
  6
CONTINUOUS
 62
     7
100
AcDbLine
 10
431.592555
 20
444.692176
 30
0.0
 11
424.592555
 21
444.692176
 31
0.0
  0
ARC
  5
39C
100
AcDbEntity
  8
1
  6
CONTINUOUS
 62
     7
100
AcDbCircle
 10
424.592555
 20
443.692176
 30
0.0
 40
1.0
100
AcDbArc
 50
90.0
 51
-179.999997
  0
ARC
  5
39D
100
AcDbEntity
  8
1
  6
CONTINUOUS
 62
     7
100
AcDbCircle
 10
332.592555
 20
401.743211
 30
0.0
 40
1.0
100
AcDbArc
 50
93.0
 51
-179.999997
  0
LINE
  5
39E
100
AcDbEntity
  8
1
  6
CONTINUOUS
 62
     7
100
AcDbLine
 10
331.592555
 20
401.743211
 30
0.0
 11
331.592555
 21
370.692176
 31
0.0
  0
ARC
  5
39F
100
AcDbEntity
  8
1
  6
CONTINUOUS
 62
     7
100
AcDbCircle
 10
332.592555
 20
339.641141
 30
0.0
 40
1.0
100
AcDbArc
 50
-179.999997
 51
-93.000005
  0
LINE
  5
3A0
100
AcDbEntity
  8
1
  6
CONTINUOUS
 62
     7
100
AcDbLine
 10
331.592555
 20
339.641141
 30
0.0
 11
331.592555
 21
370.692176
 31
0.0
  0
ARC
  5
3A1
100
AcDbEntity
  8
1
  6
CONTINUOUS
 62
     7
100
AcDbCircle
 10
416.415904
 20
423.692176
 30
0.0
 40
2.0
100
AcDbArc
 50
90.0
 51
160.0
  0
ARC
  5
3A2
100
AcDbEntity
  8
1
  6
CONTINUOUS
 62
     7
100
AcDbCircle
 10
404.537036
 20
411.521895
 30
0.0
 40
5.0
100
AcDbArc
 50
-86.999995
 51
-19.999999
  0
LINE
  5
3A3
100
AcDbEntity
  8
1
  6
CONTINUOUS
 62
     7
100
AcDbLine
 10
409.235499
 20
409.811797
 30
0.0
 11
414.536517
 21
424.376216
 31
0.0
  0
ARC
  5
3A4
100
AcDbEntity
  8
1
  6
CONTINUOUS
 62
     7
100
AcDbCircle
 10
421.592555
 20
427.692176
 30
0.0
 40
2.0
100
AcDbArc
 50
-89.999995
 51
-21.854531
  0
LINE
  5
3A5
100
AcDbEntity
  8
1
  6
CONTINUOUS
 62
     7
100
AcDbLine
 10
416.415904
 20
425.692176
 30
0.0
 11
421.592555
 21
425.692176
 31
0.0
  0
LINE
  5
3A6
100
AcDbEntity
  8
1
  6
CONTINUOUS
 62
     7
100
AcDbLine
 10
415.01549
 20
370.692176
 30
0.0
 11
415.01549
 21
423.692176
 31
0.0
  0
LINE
  5
3A7
100
AcDbEntity
  8
1
  6
CONTINUOUS
 62
     7
100
AcDbLine
 10
408.10361
 20
370.692176
 30
0.0
 11
408.10361
 21
406.701949
 31
0.0
  0
ARC
  5
3A8
100
AcDbEntity
  8
1
  6
CONTINUOUS
 62
     7
100
AcDbCircle
 10
390.592555
 20
333.597372
 30
0.0
 40
2.0
100
AcDbArc
 50
0.0
 51
86.999998
  0
ARC
  5
3A9
100
AcDbEntity
  8
1
  6
CONTINUOUS
 62
     7
100
AcDbCircle
 10
393.592555
 20
326.692176
 30
0.0
 40
1.0
100
AcDbArc
 50
180.0
 51
-90.0
  0
LINE
  5
3AA
100
AcDbEntity
  8
1
  6
CONTINUOUS
 62
     7
100
AcDbLine
 10
392.592555
 20
333.597372
 30
0.0
 11
392.592555
 21
326.692176
 31
0.0
  0
ARC
  5
3AB
100
AcDbEntity
  8
1
  6
CONTINUOUS
 62
     7
100
AcDbCircle
 10
409.975367
 20
323.692176
 30
0.0
 40
2.0
100
AcDbArc
 50
19.999993
 51
90.0
  0
ARC
  5
3AC
100
AcDbEntity
  8
1
  6
CONTINUOUS
 62
     7
100
AcDbCircle
 10
417.01549
 20
319.777148
 30
0.0
 40
2.0
100
AcDbArc
 50
-179.999997
 51
-89.999995
  0
ARC
  5
3AD
100
AcDbEntity
  8
1
  6
CONTINUOUS
 62
     7
100
AcDbCircle
 10
421.592555
 20
315.777148
 30
0.0
 40
2.0
100
AcDbArc
 50
-0.000003
 51
90.0
  0
LINE
  5
3AE
100
AcDbEntity
  8
1
  6
CONTINUOUS
 62
     7
100
AcDbLine
 10
421.592555
 20
317.777148
 30
0.0
 11
417.01549
 21
317.777148
 31
0.0
  0
LINE
  5
3AF
100
AcDbEntity
  8
1
  6
CONTINUOUS
 62
     7
100
AcDbLine
 10
393.592555
 20
325.692176
 30
0.0
 11
409.975367
 21
325.692176
 31
0.0
  0
POLYLINE
  5
3B0
100
AcDbEntity
  8
1
  6
CONTINUOUS
 62
     7
100
AcDb2dPolyline
 66
     1
 10
0.0
 20
0.0
 30
0.0
  0
VERTEX
  5
3B1
100
AcDbEntity
  8
1
  6
CONTINUOUS
 62
     7
100
AcDbVertex
100
AcDb2dVertex
 10
392.593
 20
335.495
 30
0.0
  0
VERTEX
  5
3B2
100
AcDbEntity
  8
1
  6
CONTINUOUS
 62
     7
100
AcDbVertex
100
AcDb2dVertex
 10
392.71
 20
335.489
 30
0.0
  0
VERTEX
  5
3B3
100
AcDbEntity
  8
1
  6
CONTINUOUS
 62
     7
100
AcDbVertex
100
AcDb2dVertex
 10
392.828
 20
335.482
 30
0.0
  0
VERTEX
  5
3B4
100
AcDbEntity
  8
1
  6
CONTINUOUS
 62
     7
100
AcDbVertex
100
AcDb2dVertex
 10
392.946
 20
335.476
 30
0.0
  0
VERTEX
  5
3B5
100
AcDbEntity
  8
1
  6
CONTINUOUS
 62
     7
100
AcDbVertex
100
AcDb2dVertex
 10
393.064
 20
335.469
 30
0.0
  0
VERTEX
  5
3B6
100
AcDbEntity
  8
1
  6
CONTINUOUS
 62
     7
100
AcDbVertex
100
AcDb2dVertex
 10
393.182
 20
335.462
 30
0.0
  0
VERTEX
  5
3B7
100
AcDbEntity
  8
1
  6
CONTINUOUS
 62
     7
100
AcDbVertex
100
AcDb2dVertex
 10
393.3
 20
335.456
 30
0.0
  0
VERTEX
  5
3B8
100
AcDbEntity
  8
1
  6
CONTINUOUS
 62
     7
100
AcDbVertex
100
AcDb2dVertex
 10
393.418
 20
335.449
 30
0.0
  0
VERTEX
  5
3B9
100
AcDbEntity
  8
1
  6
CONTINUOUS
 62
     7
100
AcDbVertex
100
AcDb2dVertex
 10
393.536
 20
335.443
 30
0.0
  0
VERTEX
  5
3BA
100
AcDbEntity
  8
1
  6
CONTINUOUS
 62
     7
100
AcDbVertex
100
AcDb2dVertex
 10
393.654
 20
335.436
 30
0.0
  0
VERTEX
  5
3BB
100
AcDbEntity
  8
1
  6
CONTINUOUS
 62
     7
100
AcDbVertex
100
AcDb2dVertex
 10
393.772
 20
335.43
 30
0.0
  0
VERTEX
  5
3BC
100
AcDbEntity
  8
1
  6
CONTINUOUS
 62
     7
100
AcDbVertex
100
AcDb2dVertex
 10
393.89
 20
335.423
 30
0.0
  0
VERTEX
  5
3BD
100
AcDbEntity
  8
1
  6
CONTINUOUS
 62
     7
100
AcDbVertex
100
AcDb2dVertex
 10
394.009
 20
335.417
 30
0.0
  0
VERTEX
  5
3BE
100
AcDbEntity
  8
1
  6
CONTINUOUS
 62
     7
100
AcDbVertex
100
AcDb2dVertex
 10
394.127
 20
335.41
 30
0.0
  0
VERTEX
  5
3BF
100
AcDbEntity
  8
1
  6
CONTINUOUS
 62
     7
100
AcDbVertex
100
AcDb2dVertex
 10
394.245
 20
335.403
 30
0.0
  0
VERTEX
  5
3C0
100
AcDbEntity
  8
1
  6
CONTINUOUS
 62
     7
100
AcDbVertex
100
AcDb2dVertex
 10
394.364
 20
335.397
 30
0.0
  0
VERTEX
  5
3C1
100
AcDbEntity
  8
1
  6
CONTINUOUS
 62
     7
100
AcDbVertex
100
AcDb2dVertex
 10
394.482
 20
335.39
 30
0.0
  0
VERTEX
  5
3C2
100
AcDbEntity
  8
1
  6
CONTINUOUS
 62
     7
100
AcDbVertex
100
AcDb2dVertex
 10
394.601
 20
335.384
 30
0.0
  0
VERTEX
  5
3C3
100
AcDbEntity
  8
1
  6
CONTINUOUS
 62
     7
100
AcDbVertex
100
AcDb2dVertex
 10
394.72
 20
335.377
 30
0.0
  0
VERTEX
  5
3C4
100
AcDbEntity
  8
1
  6
CONTINUOUS
 62
     7
100
AcDbVertex
100
AcDb2dVertex
 10
394.839
 20
335.371
 30
0.0
  0
VERTEX
  5
3C5
100
AcDbEntity
  8
1
  6
CONTINUOUS
 62
     7
100
AcDbVertex
100
AcDb2dVertex
 10
394.958
 20
335.364
 30
0.0
  0
VERTEX
  5
3C6
100
AcDbEntity
  8
1
  6
CONTINUOUS
 62
     7
100
AcDbVertex
100
AcDb2dVertex
 10
395.077
 20
335.358
 30
0.0
  0
VERTEX
  5
3C7
100
AcDbEntity
  8
1
  6
CONTINUOUS
 62
     7
100
AcDbVertex
100
AcDb2dVertex
 10
395.196
 20
335.351
 30
0.0
  0
VERTEX
  5
3C8
100
AcDbEntity
  8
1
  6
CONTINUOUS
 62
     7
100
AcDbVertex
100
AcDb2dVertex
 10
395.315
 20
335.345
 30
0.0
  0
VERTEX
  5
3C9
100
AcDbEntity
  8
1
  6
CONTINUOUS
 62
     7
100
AcDbVertex
100
AcDb2dVertex
 10
395.434
 20
335.338
 30
0.0
  0
VERTEX
  5
3CA
100
AcDbEntity
  8
1
  6
CONTINUOUS
 62
     7
100
AcDbVertex
100
AcDb2dVertex
 10
395.554
 20
335.332
 30
0.0
  0
VERTEX
  5
3CB
100
AcDbEntity
  8
1
  6
CONTINUOUS
 62
     7
100
AcDbVertex
100
AcDb2dVertex
 10
395.674
 20
335.325
 30
0.0
  0
VERTEX
  5
3CC
100
AcDbEntity
  8
1
  6
CONTINUOUS
 62
     7
100
AcDbVertex
100
AcDb2dVertex
 10
395.794
 20
335.319
 30
0.0
  0
VERTEX
  5
3CD
100
AcDbEntity
  8
1
  6
CONTINUOUS
 62
     7
100
AcDbVertex
100
AcDb2dVertex
 10
395.914
 20
335.312
 30
0.0
  0
VERTEX
  5
3CE
100
AcDbEntity
  8
1
  6
CONTINUOUS
 62
     7
100
AcDbVertex
100
AcDb2dVertex
 10
396.034
 20
335.306
 30
0.0
  0
VERTEX
  5
3CF
100
AcDbEntity
  8
1
  6
CONTINUOUS
 62
     7
100
AcDbVertex
100
AcDb2dVertex
 10
396.154
 20
335.299
 30
0.0
  0
VERTEX
  5
3D0
100
AcDbEntity
  8
1
  6
CONTINUOUS
 62
     7
100
AcDbVertex
100
AcDb2dVertex
 10
396.275
 20
335.293
 30
0.0
  0
VERTEX
  5
3D1
100
AcDbEntity
  8
1
  6
CONTINUOUS
 62
     7
100
AcDbVertex
100
AcDb2dVertex
 10
396.395
 20
335.286
 30
0.0
  0
VERTEX
  5
3D2
100
AcDbEntity
  8
1
  6
CONTINUOUS
 62
     7
100
AcDbVertex
100
AcDb2dVertex
 10
396.516
 20
335.28
 30
0.0
  0
VERTEX
  5
3D3
100
AcDbEntity
  8
1
  6
CONTINUOUS
 62
     7
100
AcDbVertex
100
AcDb2dVertex
 10
396.637
 20
335.274
 30
0.0
  0
VERTEX
  5
3D4
100
AcDbEntity
  8
1
  6
CONTINUOUS
 62
     7
100
AcDbVertex
100
AcDb2dVertex
 10
396.758
 20
335.267
 30
0.0
  0
VERTEX
  5
3D5
100
AcDbEntity
  8
1
  6
CONTINUOUS
 62
     7
100
AcDbVertex
100
AcDb2dVertex
 10
396.88
 20
335.261
 30
0.0
  0
VERTEX
  5
3D6
100
AcDbEntity
  8
1
  6
CONTINUOUS
 62
     7
100
AcDbVertex
100
AcDb2dVertex
 10
397.001
 20
335.254
 30
0.0
  0
VERTEX
  5
3D7
100
AcDbEntity
  8
1
  6
CONTINUOUS
 62
     7
100
AcDbVertex
100
AcDb2dVertex
 10
397.123
 20
335.248
 30
0.0
  0
VERTEX
  5
3D8
100
AcDbEntity
  8
1
  6
CONTINUOUS
 62
     7
100
AcDbVertex
100
AcDb2dVertex
 10
397.245
 20
335.241
 30
0.0
  0
VERTEX
  5
3D9
100
AcDbEntity
  8
1
  6
CONTINUOUS
 62
     7
100
AcDbVertex
100
AcDb2dVertex
 10
397.368
 20
335.235
 30
0.0
  0
VERTEX
  5
3DA
100
AcDbEntity
  8
1
  6
CONTINUOUS
 62
     7
100
AcDbVertex
100
AcDb2dVertex
 10
397.49
 20
335.229
 30
0.0
  0
VERTEX
  5
3DB
100
AcDbEntity
  8
1
  6
CONTINUOUS
 62
     7
100
AcDbVertex
100
AcDb2dVertex
 10
397.613
 20
335.222
 30
0.0
  0
VERTEX
  5
3DC
100
AcDbEntity
  8
1
  6
CONTINUOUS
 62
     7
100
AcDbVertex
100
AcDb2dVertex
 10
397.736
 20
335.216
 30
0.0
  0
VERTEX
  5
3DD
100
AcDbEntity
  8
1
  6
CONTINUOUS
 62
     7
100
AcDbVertex
100
AcDb2dVertex
 10
397.859
 20
335.21
 30
0.0
  0
VERTEX
  5
3DE
100
AcDbEntity
  8
1
  6
CONTINUOUS
 62
     7
100
AcDbVertex
100
AcDb2dVertex
 10
397.982
 20
335.203
 30
0.0
  0
VERTEX
  5
3DF
100
AcDbEntity
  8
1
  6
CONTINUOUS
 62
     7
100
AcDbVertex
100
AcDb2dVertex
 10
398.106
 20
335.197
 30
0.0
  0
VERTEX
  5
3E0
100
AcDbEntity
  8
1
  6
CONTINUOUS
 62
     7
100
AcDbVertex
100
AcDb2dVertex
 10
398.23
 20
335.191
 30
0.0
  0
VERTEX
  5
3E1
100
AcDbEntity
  8
1
  6
CONTINUOUS
 62
     7
100
AcDbVertex
100
AcDb2dVertex
 10
398.354
 20
335.185
 30
0.0
  0
VERTEX
  5
3E2
100
AcDbEntity
  8
1
  6
CONTINUOUS
 62
     7
100
AcDbVertex
100
AcDb2dVertex
 10
398.479
 20
335.178
 30
0.0
  0
VERTEX
  5
3E3
100
AcDbEntity
  8
1
  6
CONTINUOUS
 62
     7
100
AcDbVertex
100
AcDb2dVertex
 10
398.604
 20
335.172
 30
0.0
  0
VERTEX
  5
3E4
100
AcDbEntity
  8
1
  6
CONTINUOUS
 62
     7
100
AcDbVertex
100
AcDb2dVertex
 10
398.729
 20
335.166
 30
0.0
  0
VERTEX
  5
3E5
100
AcDbEntity
  8
1
  6
CONTINUOUS
 62
     7
100
AcDbVertex
100
AcDb2dVertex
 10
398.854
 20
335.16
 30
0.0
  0
VERTEX
  5
3E6
100
AcDbEntity
  8
1
  6
CONTINUOUS
 62
     7
100
AcDbVertex
100
AcDb2dVertex
 10
398.98
 20
335.153
 30
0.0
  0
VERTEX
  5
3E7
100
AcDbEntity
  8
1
  6
CONTINUOUS
 62
     7
100
AcDbVertex
100
AcDb2dVertex
 10
399.106
 20
335.147
 30
0.0
  0
VERTEX
  5
3E8
100
AcDbEntity
  8
1
  6
CONTINUOUS
 62
     7
100
AcDbVertex
100
AcDb2dVertex
 10
399.232
 20
335.141
 30
0.0
  0
VERTEX
  5
3E9
100
AcDbEntity
  8
1
  6
CONTINUOUS
 62
     7
100
AcDbVertex
100
AcDb2dVertex
 10
399.358
 20
335.135
 30
0.0
  0
VERTEX
  5
3EA
100
AcDbEntity
  8
1
  6
CONTINUOUS
 62
     7
100
AcDbVertex
100
AcDb2dVertex
 10
399.485
 20
335.129
 30
0.0
  0
VERTEX
  5
3EB
100
AcDbEntity
  8
1
  6
CONTINUOUS
 62
     7
100
AcDbVertex
100
AcDb2dVertex
 10
399.612
 20
335.122
 30
0.0
  0
VERTEX
  5
3EC
100
AcDbEntity
  8
1
  6
CONTINUOUS
 62
     7
100
AcDbVertex
100
AcDb2dVertex
 10
399.74
 20
335.116
 30
0.0
  0
VERTEX
  5
3ED
100
AcDbEntity
  8
1
  6
CONTINUOUS
 62
     7
100
AcDbVertex
100
AcDb2dVertex
 10
399.868
 20
335.11
 30
0.0
  0
VERTEX
  5
3EE
100
AcDbEntity
  8
1
  6
CONTINUOUS
 62
     7
100
AcDbVertex
100
AcDb2dVertex
 10
399.996
 20
335.104
 30
0.0
  0
VERTEX
  5
3EF
100
AcDbEntity
  8
1
  6
CONTINUOUS
 62
     7
100
AcDbVertex
100
AcDb2dVertex
 10
400.124
 20
335.098
 30
0.0
  0
VERTEX
  5
3F0
100
AcDbEntity
  8
1
  6
CONTINUOUS
 62
     7
100
AcDbVertex
100
AcDb2dVertex
 10
400.253
 20
335.092
 30
0.0
  0
VERTEX
  5
3F1
100
AcDbEntity
  8
1
  6
CONTINUOUS
 62
     7
100
AcDbVertex
100
AcDb2dVertex
 10
400.383
 20
335.086
 30
0.0
  0
VERTEX
  5
3F2
100
AcDbEntity
  8
1
  6
CONTINUOUS
 62
     7
100
AcDbVertex
100
AcDb2dVertex
 10
400.512
 20
335.08
 30
0.0
  0
VERTEX
  5
3F3
100
AcDbEntity
  8
1
  6
CONTINUOUS
 62
     7
100
AcDbVertex
100
AcDb2dVertex
 10
400.642
 20
335.074
 30
0.0
  0
VERTEX
  5
3F4
100
AcDbEntity
  8
1
  6
CONTINUOUS
 62
     7
100
AcDbVertex
100
AcDb2dVertex
 10
400.772
 20
335.068
 30
0.0
  0
VERTEX
  5
3F5
100
AcDbEntity
  8
1
  6
CONTINUOUS
 62
     7
100
AcDbVertex
100
AcDb2dVertex
 10
400.903
 20
335.062
 30
0.0
  0
VERTEX
  5
3F6
100
AcDbEntity
  8
1
  6
CONTINUOUS
 62
     7
100
AcDbVertex
100
AcDb2dVertex
 10
401.034
 20
335.056
 30
0.0
  0
VERTEX
  5
3F7
100
AcDbEntity
  8
1
  6
CONTINUOUS
 62
     7
100
AcDbVertex
100
AcDb2dVertex
 10
401.165
 20
335.049
 30
0.0
  0
VERTEX
  5
3F8
100
AcDbEntity
  8
1
  6
CONTINUOUS
 62
     7
100
AcDbVertex
100
AcDb2dVertex
 10
401.296
 20
335.043
 30
0.0
  0
VERTEX
  5
3F9
100
AcDbEntity
  8
1
  6
CONTINUOUS
 62
     7
100
AcDbVertex
100
AcDb2dVertex
 10
401.428
 20
335.037
 30
0.0
  0
VERTEX
  5
3FA
100
AcDbEntity
  8
1
  6
CONTINUOUS
 62
     7
100
AcDbVertex
100
AcDb2dVertex
 10
401.56
 20
335.03
 30
0.0
  0
VERTEX
  5
3FB
100
AcDbEntity
  8
1
  6
CONTINUOUS
 62
     7
100
AcDbVertex
100
AcDb2dVertex
 10
401.692
 20
335.023
 30
0.0
  0
VERTEX
  5
3FC
100
AcDbEntity
  8
1
  6
CONTINUOUS
 62
     7
100
AcDbVertex
100
AcDb2dVertex
 10
401.824
 20
335.016
 30
0.0
  0
VERTEX
  5
3FD
100
AcDbEntity
  8
1
  6
CONTINUOUS
 62
     7
100
AcDbVertex
100
AcDb2dVertex
 10
401.956
 20
335.008
 30
0.0
  0
VERTEX
  5
3FE
100
AcDbEntity
  8
1
  6
CONTINUOUS
 62
     7
100
AcDbVertex
100
AcDb2dVertex
 10
402.088
 20
335.001
 30
0.0
  0
VERTEX
  5
3FF
100
AcDbEntity
  8
1
  6
CONTINUOUS
 62
     7
100
AcDbVertex
100
AcDb2dVertex
 10
402.22
 20
334.992
 30
0.0
  0
VERTEX
  5
400
100
AcDbEntity
  8
1
  6
CONTINUOUS
 62
     7
100
AcDbVertex
100
AcDb2dVertex
 10
402.352
 20
334.984
 30
0.0
  0
VERTEX
  5
401
100
AcDbEntity
  8
1
  6
CONTINUOUS
 62
     7
100
AcDbVertex
100
AcDb2dVertex
 10
402.483
 20
334.975
 30
0.0
  0
VERTEX
  5
402
100
AcDbEntity
  8
1
  6
CONTINUOUS
 62
     7
100
AcDbVertex
100
AcDb2dVertex
 10
402.615
 20
334.966
 30
0.0
  0
VERTEX
  5
403
100
AcDbEntity
  8
1
  6
CONTINUOUS
 62
     7
100
AcDbVertex
100
AcDb2dVertex
 10
402.747
 20
334.956
 30
0.0
  0
VERTEX
  5
404
100
AcDbEntity
  8
1
  6
CONTINUOUS
 62
     7
100
AcDbVertex
100
AcDb2dVertex
 10
402.878
 20
334.945
 30
0.0
  0
VERTEX
  5
405
100
AcDbEntity
  8
1
  6
CONTINUOUS
 62
     7
100
AcDbVertex
100
AcDb2dVertex
 10
403.009
 20
334.934
 30
0.0
  0
VERTEX
  5
406
100
AcDbEntity
  8
1
  6
CONTINUOUS
 62
     7
100
AcDbVertex
100
AcDb2dVertex
 10
403.14
 20
334.923
 30
0.0
  0
VERTEX
  5
407
100
AcDbEntity
  8
1
  6
CONTINUOUS
 62
     7
100
AcDbVertex
100
AcDb2dVertex
 10
403.271
 20
334.911
 30
0.0
  0
VERTEX
  5
408
100
AcDbEntity
  8
1
  6
CONTINUOUS
 62
     7
100
AcDbVertex
100
AcDb2dVertex
 10
403.401
 20
334.898
 30
0.0
  0
VERTEX
  5
409
100
AcDbEntity
  8
1
  6
CONTINUOUS
 62
     7
100
AcDbVertex
100
AcDb2dVertex
 10
403.531
 20
334.885
 30
0.0
  0
VERTEX
  5
40A
100
AcDbEntity
  8
1
  6
CONTINUOUS
 62
     7
100
AcDbVertex
100
AcDb2dVertex
 10
403.66
 20
334.87
 30
0.0
  0
VERTEX
  5
40B
100
AcDbEntity
  8
1
  6
CONTINUOUS
 62
     7
100
AcDbVertex
100
AcDb2dVertex
 10
403.79
 20
334.856
 30
0.0
  0
VERTEX
  5
40C
100
AcDbEntity
  8
1
  6
CONTINUOUS
 62
     7
100
AcDbVertex
100
AcDb2dVertex
 10
403.918
 20
334.84
 30
0.0
  0
VERTEX
  5
40D
100
AcDbEntity
  8
1
  6
CONTINUOUS
 62
     7
100
AcDbVertex
100
AcDb2dVertex
 10
404.046
 20
334.823
 30
0.0
  0
VERTEX
  5
40E
100
AcDbEntity
  8
1
  6
CONTINUOUS
 62
     7
100
AcDbVertex
100
AcDb2dVertex
 10
404.174
 20
334.806
 30
0.0
  0
VERTEX
  5
40F
100
AcDbEntity
  8
1
  6
CONTINUOUS
 62
     7
100
AcDbVertex
100
AcDb2dVertex
 10
404.301
 20
334.788
 30
0.0
  0
VERTEX
  5
410
100
AcDbEntity
  8
1
  6
CONTINUOUS
 62
     7
100
AcDbVertex
100
AcDb2dVertex
 10
404.427
 20
334.769
 30
0.0
  0
VERTEX
  5
411
100
AcDbEntity
  8
1
  6
CONTINUOUS
 62
     7
100
AcDbVertex
100
AcDb2dVertex
 10
404.553
 20
334.749
 30
0.0
  0
VERTEX
  5
412
100
AcDbEntity
  8
1
  6
CONTINUOUS
 62
     7
100
AcDbVertex
100
AcDb2dVertex
 10
404.678
 20
334.728
 30
0.0
  0
VERTEX
  5
413
100
AcDbEntity
  8
1
  6
CONTINUOUS
 62
     7
100
AcDbVertex
100
AcDb2dVertex
 10
404.803
 20
334.706
 30
0.0
  0
VERTEX
  5
414
100
AcDbEntity
  8
1
  6
CONTINUOUS
 62
     7
100
AcDbVertex
100
AcDb2dVertex
 10
404.927
 20
334.683
 30
0.0
  0
VERTEX
  5
415
100
AcDbEntity
  8
1
  6
CONTINUOUS
 62
     7
100
AcDbVertex
100
AcDb2dVertex
 10
405.05
 20
334.658
 30
0.0
  0
VERTEX
  5
416
100
AcDbEntity
  8
1
  6
CONTINUOUS
 62
     7
100
AcDbVertex
100
AcDb2dVertex
 10
405.172
 20
334.633
 30
0.0
  0
VERTEX
  5
417
100
AcDbEntity
  8
1
  6
CONTINUOUS
 62
     7
100
AcDbVertex
100
AcDb2dVertex
 10
405.293
 20
334.607
 30
0.0
  0
VERTEX
  5
418
100
AcDbEntity
  8
1
  6
CONTINUOUS
 62
     7
100
AcDbVertex
100
AcDb2dVertex
 10
405.413
 20
334.579
 30
0.0
  0
VERTEX
  5
419
100
AcDbEntity
  8
1
  6
CONTINUOUS
 62
     7
100
AcDbVertex
100
AcDb2dVertex
 10
405.533
 20
334.551
 30
0.0
  0
VERTEX
  5
41A
100
AcDbEntity
  8
1
  6
CONTINUOUS
 62
     7
100
AcDbVertex
100
AcDb2dVertex
 10
405.652
 20
334.521
 30
0.0
  0
VERTEX
  5
41B
100
AcDbEntity
  8
1
  6
CONTINUOUS
 62
     7
100
AcDbVertex
100
AcDb2dVertex
 10
405.769
 20
334.489
 30
0.0
  0
VERTEX
  5
41C
100
AcDbEntity
  8
1
  6
CONTINUOUS
 62
     7
100
AcDbVertex
100
AcDb2dVertex
 10
405.886
 20
334.457
 30
0.0
  0
VERTEX
  5
41D
100
AcDbEntity
  8
1
  6
CONTINUOUS
 62
     7
100
AcDbVertex
100
AcDb2dVertex
 10
406.001
 20
334.423
 30
0.0
  0
VERTEX
  5
41E
100
AcDbEntity
  8
1
  6
CONTINUOUS
 62
     7
100
AcDbVertex
100
AcDb2dVertex
 10
406.116
 20
334.388
 30
0.0
  0
VERTEX
  5
41F
100
AcDbEntity
  8
1
  6
CONTINUOUS
 62
     7
100
AcDbVertex
100
AcDb2dVertex
 10
406.229
 20
334.351
 30
0.0
  0
VERTEX
  5
420
100
AcDbEntity
  8
1
  6
CONTINUOUS
 62
     7
100
AcDbVertex
100
AcDb2dVertex
 10
406.342
 20
334.313
 30
0.0
  0
VERTEX
  5
421
100
AcDbEntity
  8
1
  6
CONTINUOUS
 62
     7
100
AcDbVertex
100
AcDb2dVertex
 10
406.453
 20
334.274
 30
0.0
  0
VERTEX
  5
422
100
AcDbEntity
  8
1
  6
CONTINUOUS
 62
     7
100
AcDbVertex
100
AcDb2dVertex
 10
406.563
 20
334.233
 30
0.0
  0
VERTEX
  5
423
100
AcDbEntity
  8
1
  6
CONTINUOUS
 62
     7
100
AcDbVertex
100
AcDb2dVertex
 10
406.671
 20
334.19
 30
0.0
  0
VERTEX
  5
424
100
AcDbEntity
  8
1
  6
CONTINUOUS
 62
     7
100
AcDbVertex
100
AcDb2dVertex
 10
406.778
 20
334.146
 30
0.0
  0
VERTEX
  5
425
100
AcDbEntity
  8
1
  6
CONTINUOUS
 62
     7
100
AcDbVertex
100
AcDb2dVertex
 10
406.884
 20
334.1
 30
0.0
  0
VERTEX
  5
426
100
AcDbEntity
  8
1
  6
CONTINUOUS
 62
     7
100
AcDbVertex
100
AcDb2dVertex
 10
406.989
 20
334.053
 30
0.0
  0
VERTEX
  5
427
100
AcDbEntity
  8
1
  6
CONTINUOUS
 62
     7
100
AcDbVertex
100
AcDb2dVertex
 10
407.092
 20
334.004
 30
0.0
  0
VERTEX
  5
428
100
AcDbEntity
  8
1
  6
CONTINUOUS
 62
     7
100
AcDbVertex
100
AcDb2dVertex
 10
407.194
 20
333.953
 30
0.0
  0
VERTEX
  5
429
100
AcDbEntity
  8
1
  6
CONTINUOUS
 62
     7
100
AcDbVertex
100
AcDb2dVertex
 10
407.295
 20
333.901
 30
0.0
  0
VERTEX
  5
42A
100
AcDbEntity
  8
1
  6
CONTINUOUS
 62
     7
100
AcDbVertex
100
AcDb2dVertex
 10
407.394
 20
333.847
 30
0.0
  0
VERTEX
  5
42B
100
AcDbEntity
  8
1
  6
CONTINUOUS
 62
     7
100
AcDbVertex
100
AcDb2dVertex
 10
407.491
 20
333.791
 30
0.0
  0
VERTEX
  5
42C
100
AcDbEntity
  8
1
  6
CONTINUOUS
 62
     7
100
AcDbVertex
100
AcDb2dVertex
 10
407.587
 20
333.733
 30
0.0
  0
VERTEX
  5
42D
100
AcDbEntity
  8
1
  6
CONTINUOUS
 62
     7
100
AcDbVertex
100
AcDb2dVertex
 10
407.681
 20
333.674
 30
0.0
  0
VERTEX
  5
42E
100
AcDbEntity
  8
1
  6
CONTINUOUS
 62
     7
100
AcDbVertex
100
AcDb2dVertex
 10
407.774
 20
333.612
 30
0.0
  0
VERTEX
  5
42F
100
AcDbEntity
  8
1
  6
CONTINUOUS
 62
     7
100
AcDbVertex
100
AcDb2dVertex
 10
407.865
 20
333.549
 30
0.0
  0
VERTEX
  5
430
100
AcDbEntity
  8
1
  6
CONTINUOUS
 62
     7
100
AcDbVertex
100
AcDb2dVertex
 10
407.954
 20
333.483
 30
0.0
  0
VERTEX
  5
431
100
AcDbEntity
  8
1
  6
CONTINUOUS
 62
     7
100
AcDbVertex
100
AcDb2dVertex
 10
408.042
 20
333.416
 30
0.0
  0
VERTEX
  5
432
100
AcDbEntity
  8
1
  6
CONTINUOUS
 62
     7
100
AcDbVertex
100
AcDb2dVertex
 10
408.128
 20
333.347
 30
0.0
  0
VERTEX
  5
433
100
AcDbEntity
  8
1
  6
CONTINUOUS
 62
     7
100
AcDbVertex
100
AcDb2dVertex
 10
408.212
 20
333.276
 30
0.0
  0
VERTEX
  5
434
100
AcDbEntity
  8
1
  6
CONTINUOUS
 62
     7
100
AcDbVertex
100
AcDb2dVertex
 10
408.294
 20
333.202
 30
0.0
  0
VERTEX
  5
435
100
AcDbEntity
  8
1
  6
CONTINUOUS
 62
     7
100
AcDbVertex
100
AcDb2dVertex
 10
408.375
 20
333.127
 30
0.0
  0
VERTEX
  5
436
100
AcDbEntity
  8
1
  6
CONTINUOUS
 62
     7
100
AcDbVertex
100
AcDb2dVertex
 10
408.454
 20
333.05
 30
0.0
  0
VERTEX
  5
437
100
AcDbEntity
  8
1
  6
CONTINUOUS
 62
     7
100
AcDbVertex
100
AcDb2dVertex
 10
408.531
 20
332.971
 30
0.0
  0
VERTEX
  5
438
100
AcDbEntity
  8
1
  6
CONTINUOUS
 62
     7
100
AcDbVertex
100
AcDb2dVertex
 10
408.607
 20
332.89
 30
0.0
  0
VERTEX
  5
439
100
AcDbEntity
  8
1
  6
CONTINUOUS
 62
     7
100
AcDbVertex
100
AcDb2dVertex
 10
408.681
 20
332.807
 30
0.0
  0
VERTEX
  5
43A
100
AcDbEntity
  8
1
  6
CONTINUOUS
 62
     7
100
AcDbVertex
100
AcDb2dVertex
 10
408.753
 20
332.722
 30
0.0
  0
VERTEX
  5
43B
100
AcDbEntity
  8
1
  6
CONTINUOUS
 62
     7
100
AcDbVertex
100
AcDb2dVertex
 10
408.824
 20
332.636
 30
0.0
  0
VERTEX
  5
43C
100
AcDbEntity
  8
1
  6
CONTINUOUS
 62
     7
100
AcDbVertex
100
AcDb2dVertex
 10
408.893
 20
332.548
 30
0.0
  0
VERTEX
  5
43D
100
AcDbEntity
  8
1
  6
CONTINUOUS
 62
     7
100
AcDbVertex
100
AcDb2dVertex
 10
408.961
 20
332.458
 30
0.0
  0
VERTEX
  5
43E
100
AcDbEntity
  8
1
  6
CONTINUOUS
 62
     7
100
AcDbVertex
100
AcDb2dVertex
 10
409.028
 20
332.366
 30
0.0
  0
VERTEX
  5
43F
100
AcDbEntity
  8
1
  6
CONTINUOUS
 62
     7
100
AcDbVertex
100
AcDb2dVertex
 10
409.093
 20
332.273
 30
0.0
  0
VERTEX
  5
440
100
AcDbEntity
  8
1
  6
CONTINUOUS
 62
     7
100
AcDbVertex
100
AcDb2dVertex
 10
409.156
 20
332.178
 30
0.0
  0
VERTEX
  5
441
100
AcDbEntity
  8
1
  6
CONTINUOUS
 62
     7
100
AcDbVertex
100
AcDb2dVertex
 10
409.219
 20
332.082
 30
0.0
  0
VERTEX
  5
442
100
AcDbEntity
  8
1
  6
CONTINUOUS
 62
     7
100
AcDbVertex
100
AcDb2dVertex
 10
409.28
 20
331.984
 30
0.0
  0
VERTEX
  5
443
100
AcDbEntity
  8
1
  6
CONTINUOUS
 62
     7
100
AcDbVertex
100
AcDb2dVertex
 10
409.339
 20
331.885
 30
0.0
  0
VERTEX
  5
444
100
AcDbEntity
  8
1
  6
CONTINUOUS
 62
     7
100
AcDbVertex
100
AcDb2dVertex
 10
409.397
 20
331.784
 30
0.0
  0
VERTEX
  5
445
100
AcDbEntity
  8
1
  6
CONTINUOUS
 62
     7
100
AcDbVertex
100
AcDb2dVertex
 10
409.454
 20
331.682
 30
0.0
  0
VERTEX
  5
446
100
AcDbEntity
  8
1
  6
CONTINUOUS
 62
     7
100
AcDbVertex
100
AcDb2dVertex
 10
409.51
 20
331.578
 30
0.0
  0
VERTEX
  5
447
100
AcDbEntity
  8
1
  6
CONTINUOUS
 62
     7
100
AcDbVertex
100
AcDb2dVertex
 10
409.565
 20
331.473
 30
0.0
  0
VERTEX
  5
448
100
AcDbEntity
  8
1
  6
CONTINUOUS
 62
     7
100
AcDbVertex
100
AcDb2dVertex
 10
409.618
 20
331.367
 30
0.0
  0
VERTEX
  5
449
100
AcDbEntity
  8
1
  6
CONTINUOUS
 62
     7
100
AcDbVertex
100
AcDb2dVertex
 10
409.671
 20
331.259
 30
0.0
  0
VERTEX
  5
44A
100
AcDbEntity
  8
1
  6
CONTINUOUS
 62
     7
100
AcDbVertex
100
AcDb2dVertex
 10
409.722
 20
331.15
 30
0.0
  0
VERTEX
  5
44B
100
AcDbEntity
  8
1
  6
CONTINUOUS
 62
     7
100
AcDbVertex
100
AcDb2dVertex
 10
409.772
 20
331.04
 30
0.0
  0
VERTEX
  5
44C
100
AcDbEntity
  8
1
  6
CONTINUOUS
 62
     7
100
AcDbVertex
100
AcDb2dVertex
 10
409.821
 20
330.929
 30
0.0
  0
VERTEX
  5
44D
100
AcDbEntity
  8
1
  6
CONTINUOUS
 62
     7
100
AcDbVertex
100
AcDb2dVertex
 10
409.869
 20
330.816
 30
0.0
  0
VERTEX
  5
44E
100
AcDbEntity
  8
1
  6
CONTINUOUS
 62
     7
100
AcDbVertex
100
AcDb2dVertex
 10
409.916
 20
330.702
 30
0.0
  0
VERTEX
  5
44F
100
AcDbEntity
  8
1
  6
CONTINUOUS
 62
     7
100
AcDbVertex
100
AcDb2dVertex
 10
409.962
 20
330.587
 30
0.0
  0
VERTEX
  5
450
100
AcDbEntity
  8
1
  6
CONTINUOUS
 62
     7
100
AcDbVertex
100
AcDb2dVertex
 10
410.007
 20
330.472
 30
0.0
  0
VERTEX
  5
451
100
AcDbEntity
  8
1
  6
CONTINUOUS
 62
     7
100
AcDbVertex
100
AcDb2dVertex
 10
410.051
 20
330.355
 30
0.0
  0
VERTEX
  5
452
100
AcDbEntity
  8
1
  6
CONTINUOUS
 62
     7
100
AcDbVertex
100
AcDb2dVertex
 10
410.094
 20
330.237
 30
0.0
  0
VERTEX
  5
453
100
AcDbEntity
  8
1
  6
CONTINUOUS
 62
     7
100
AcDbVertex
100
AcDb2dVertex
 10
410.137
 20
330.118
 30
0.0
  0
VERTEX
  5
454
100
AcDbEntity
  8
1
  6
CONTINUOUS
 62
     7
100
AcDbVertex
100
AcDb2dVertex
 10
410.178
 20
329.998
 30
0.0
  0
VERTEX
  5
455
100
AcDbEntity
  8
1
  6
CONTINUOUS
 62
     7
100
AcDbVertex
100
AcDb2dVertex
 10
410.219
 20
329.877
 30
0.0
  0
VERTEX
  5
456
100
AcDbEntity
  8
1
  6
CONTINUOUS
 62
     7
100
AcDbVertex
100
AcDb2dVertex
 10
410.259
 20
329.755
 30
0.0
  0
VERTEX
  5
457
100
AcDbEntity
  8
1
  6
CONTINUOUS
 62
     7
100
AcDbVertex
100
AcDb2dVertex
 10
410.299
 20
329.633
 30
0.0
  0
VERTEX
  5
458
100
AcDbEntity
  8
1
  6
CONTINUOUS
 62
     7
100
AcDbVertex
100
AcDb2dVertex
 10
410.337
 20
329.509
 30
0.0
  0
VERTEX
  5
459
100
AcDbEntity
  8
1
  6
CONTINUOUS
 62
     7
100
AcDbVertex
100
AcDb2dVertex
 10
410.375
 20
329.385
 30
0.0
  0
VERTEX
  5
45A
100
AcDbEntity
  8
1
  6
CONTINUOUS
 62
     7
100
AcDbVertex
100
AcDb2dVertex
 10
410.412
 20
329.26
 30
0.0
  0
VERTEX
  5
45B
100
AcDbEntity
  8
1
  6
CONTINUOUS
 62
     7
100
AcDbVertex
100
AcDb2dVertex
 10
410.449
 20
329.135
 30
0.0
  0
VERTEX
  5
45C
100
AcDbEntity
  8
1
  6
CONTINUOUS
 62
     7
100
AcDbVertex
100
AcDb2dVertex
 10
410.485
 20
329.008
 30
0.0
  0
VERTEX
  5
45D
100
AcDbEntity
  8
1
  6
CONTINUOUS
 62
     7
100
AcDbVertex
100
AcDb2dVertex
 10
410.52
 20
328.881
 30
0.0
  0
VERTEX
  5
45E
100
AcDbEntity
  8
1
  6
CONTINUOUS
 62
     7
100
AcDbVertex
100
AcDb2dVertex
 10
410.555
 20
328.754
 30
0.0
  0
VERTEX
  5
45F
100
AcDbEntity
  8
1
  6
CONTINUOUS
 62
     7
100
AcDbVertex
100
AcDb2dVertex
 10
410.589
 20
328.625
 30
0.0
  0
VERTEX
  5
460
100
AcDbEntity
  8
1
  6
CONTINUOUS
 62
     7
100
AcDbVertex
100
AcDb2dVertex
 10
410.623
 20
328.497
 30
0.0
  0
VERTEX
  5
461
100
AcDbEntity
  8
1
  6
CONTINUOUS
 62
     7
100
AcDbVertex
100
AcDb2dVertex
 10
410.657
 20
328.367
 30
0.0
  0
VERTEX
  5
462
100
AcDbEntity
  8
1
  6
CONTINUOUS
 62
     7
100
AcDbVertex
100
AcDb2dVertex
 10
410.69
 20
328.238
 30
0.0
  0
VERTEX
  5
463
100
AcDbEntity
  8
1
  6
CONTINUOUS
 62
     7
100
AcDbVertex
100
AcDb2dVertex
 10
410.722
 20
328.108
 30
0.0
  0
VERTEX
  5
464
100
AcDbEntity
  8
1
  6
CONTINUOUS
 62
     7
100
AcDbVertex
100
AcDb2dVertex
 10
410.755
 20
327.977
 30
0.0
  0
VERTEX
  5
465
100
AcDbEntity
  8
1
  6
CONTINUOUS
 62
     7
100
AcDbVertex
100
AcDb2dVertex
 10
410.786
 20
327.846
 30
0.0
  0
VERTEX
  5
466
100
AcDbEntity
  8
1
  6
CONTINUOUS
 62
     7
100
AcDbVertex
100
AcDb2dVertex
 10
410.818
 20
327.714
 30
0.0
  0
VERTEX
  5
467
100
AcDbEntity
  8
1
  6
CONTINUOUS
 62
     7
100
AcDbVertex
100
AcDb2dVertex
 10
410.849
 20
327.583
 30
0.0
  0
VERTEX
  5
468
100
AcDbEntity
  8
1
  6
CONTINUOUS
 62
     7
100
AcDbVertex
100
AcDb2dVertex
 10
410.88
 20
327.451
 30
0.0
  0
VERTEX
  5
469
100
AcDbEntity
  8
1
  6
CONTINUOUS
 62
     7
100
AcDbVertex
100
AcDb2dVertex
 10
410.911
 20
327.318
 30
0.0
  0
VERTEX
  5
46A
100
AcDbEntity
  8
1
  6
CONTINUOUS
 62
     7
100
AcDbVertex
100
AcDb2dVertex
 10
410.942
 20
327.186
 30
0.0
  0
VERTEX
  5
46B
100
AcDbEntity
  8
1
  6
CONTINUOUS
 62
     7
100
AcDbVertex
100
AcDb2dVertex
 10
410.972
 20
327.053
 30
0.0
  0
VERTEX
  5
46C
100
AcDbEntity
  8
1
  6
CONTINUOUS
 62
     7
100
AcDbVertex
100
AcDb2dVertex
 10
411.002
 20
326.92
 30
0.0
  0
VERTEX
  5
46D
100
AcDbEntity
  8
1
  6
CONTINUOUS
 62
     7
100
AcDbVertex
100
AcDb2dVertex
 10
411.032
 20
326.787
 30
0.0
  0
VERTEX
  5
46E
100
AcDbEntity
  8
1
  6
CONTINUOUS
 62
     7
100
AcDbVertex
100
AcDb2dVertex
 10
411.063
 20
326.654
 30
0.0
  0
VERTEX
  5
46F
100
AcDbEntity
  8
1
  6
CONTINUOUS
 62
     7
100
AcDbVertex
100
AcDb2dVertex
 10
411.093
 20
326.521
 30
0.0
  0
VERTEX
  5
470
100
AcDbEntity
  8
1
  6
CONTINUOUS
 62
     7
100
AcDbVertex
100
AcDb2dVertex
 10
411.123
 20
326.388
 30
0.0
  0
SEQEND
  5
471
100
AcDbEntity
  8
1
  6
CONTINUOUS
 62
     7
  0
LINE
  5
472
100
AcDbEntity
  8
1
  6
CONTINUOUS
 62
     7
100
AcDbLine
 10
415.01549
 20
370.692176
 30
0.0
 11
415.01549
 21
319.503833
 31
0.0
  0
LINE
  5
473
100
AcDbEntity
  8
1
  6
CONTINUOUS
 62
     7
100
AcDbLine
 10
423.592555
 20
299.028571
 30
0.0
 11
423.592555
 21
370.692176
 31
0.0
  0
LINE
  5
474
100
AcDbEntity
  8
1
  6
CONTINUOUS
 62
     7
100
AcDbLine
 10
408.10361
 20
370.692176
 30
0.0
 11
408.10361
 21
334.682402
 31
0.0
  0
LINE
  5
475
100
AcDbEntity
  8
1
  6
CONTINUOUS
 62
     7
100
AcDbLine
 10
431.592555
 20
296.692176
 30
0.0
 11
422.631129
 21
296.692176
 31
0.0
  0
LINE
  5
476
100
AcDbEntity
  8
1
  6
CONTINUOUS
 62
     7
100
AcDbLine
 10
424.592555
 20
298.028571
 30
0.0
 11
431.592555
 21
298.028571
 31
0.0
  0
ARC
  5
477
100
AcDbEntity
  8
1
  6
CONTINUOUS
 62
     7
100
AcDbCircle
 10
422.631129
 20
297.692176
 30
0.0
 40
1.0
100
AcDbArc
 50
-160.000001
 51
-89.999995
  0
LINE
  5
478
100
AcDbEntity
  8
1
  6
CONTINUOUS
 62
     7
100
AcDbLine
 10
431.592555
 20
296.692176
 30
0.0
 11
431.592555
 21
370.692176
 31
0.0
  0
LINE
  5
479
100
AcDbEntity
  8
1
  6
CONTINUOUS
 62
     7
100
AcDbLine
 10
419.798694
 20
302.55043
 30
0.0
 11
421.69144
 21
297.350157
 31
0.0
  0
LINE
  5
47A
100
AcDbEntity
  8
1
  6
CONTINUOUS
 62
     7
100
AcDbLine
 10
411.854754
 20
324.376216
 30
0.0
 11
417.992555
 21
307.512755
 31
0.0
  0
ARC
  5
47B
100
AcDbEntity
  8
1
  6
CONTINUOUS
 62
     7
100
AcDbCircle
 10
424.592555
 20
299.028571
 30
0.0
 40
1.0
100
AcDbArc
 50
-179.999997
 51
-89.999995
  0
LINE
  5
47C
100
AcDbEntity
  8
1
  6
CONTINUOUS
 62
     7
100
AcDbLine
 10
332.540219
 20
338.642512
 30
0.0
 11
390.697227
 21
335.594631
 31
0.0
  0
LINE
  5
47D
100
AcDbEntity
  8
1
  6
CONTINUOUS
 62
     7
100
AcDbLine
 10
332.540219
 20
402.741839
 30
0.0
 11
404.798716
 21
406.528746
 31
0.0
  0
LINE
  5
47E
100
AcDbEntity
  8
1
  6
CONTINUOUS
 62
     7
100
AcDbLine
 10
431.592555
 20
444.692176
 30
0.0
 11
431.592555
 21
370.692176
 31
0.0
  0
LINE
  5
47F
100
AcDbEntity
  8
1
  6
CONTINUOUS
 62
     7
100
AcDbLine
 10
423.592555
 20
443.692176
 30
0.0
 11
423.592555
 21
370.692176
 31
0.0
  0
ARC
  5
480
100
AcDbEntity
  8
1
  6
CONTINUOUS
 62
     7
100
AcDbCircle
 10
499.346072
 20
469.213312
 30
0.0
 40
10.478864
100
AcDbArc
 50
64.384045
 51
124.384265
  0
ARC
  5
481
100
AcDbEntity
  8
1
  6
CONTINUOUS
 62
     7
100
AcDbCircle
 10
481.592555
 20
440.523162
 30
0.0
 40
39.169014
100
AcDbArc
 50
72.412046
 51
90.0
  0
ARC
  5
482
100
AcDbEntity
  8
1
  6
CONTINUOUS
 62
     7
100
AcDbCircle
 10
499.346072
 20
455.171038
 30
0.0
 40
10.478864
100
AcDbArc
 50
-124.38427
 51
-64.38405
  0
ARC
  5
483
100
AcDbEntity
  8
1
  6
CONTINUOUS
 62
     7
100
AcDbCircle
 10
481.592555
 20
483.86119
 30
0.0
 40
39.169014
100
AcDbArc
 50
-90.000005
 51
-72.412049
  0
ARC
  5
484
100
AcDbEntity
  8
1
  6
CONTINUOUS
 62
     7
100
AcDbCircle
 10
463.839038
 20
469.213312
 30
0.0
 40
10.478864
100
AcDbArc
 50
55.615735
 51
115.615955
  0
ARC
  5
485
100
AcDbEntity
  8
1
  6
CONTINUOUS
 62
     7
100
AcDbCircle
 10
481.592555
 20
440.523162
 30
0.0
 40
39.169014
100
AcDbArc
 50
90.0
 51
107.587954
  0
ARC
  5
486
100
AcDbEntity
  8
1
  6
CONTINUOUS
 62
     7
100
AcDbCircle
 10
463.839038
 20
455.171038
 30
0.0
 40
10.478864
100
AcDbArc
 50
-115.61596
 51
-55.61574
  0
ARC
  5
487
100
AcDbEntity
  8
1
  6
CONTINUOUS
 62
     7
100
AcDbCircle
 10
481.592555
 20
483.86119
 30
0.0
 40
39.169014
100
AcDbArc
 50
-107.587947
 51
-90.000005
  0
LINE
  5
488
100
AcDbEntity
  8
1
  6
CONTINUOUS
 62
     7
100
AcDbLine
 10
502.092555
 20
479.692176
 30
0.0
 11
481.592555
 21
479.692176
 31
0.0
  0
LINE
  5
489
100
AcDbEntity
  8
1
  6
CONTINUOUS
 62
     7
100
AcDbLine
 10
493.428236
 20
477.861189
 30
0.0
 11
493.428236
 21
446.523162
 31
0.0
  0
LINE
  5
48A
100
AcDbEntity
  8
1
  6
CONTINUOUS
 62
     7
100
AcDbLine
 10
505.263917
 20
477.861189
 30
0.0
 11
505.263917
 21
446.523162
 31
0.0
  0
LINE
  5
48B
100
AcDbEntity
  8
1
  6
CONTINUOUS
 62
     7
100
AcDbLine
 10
502.092555
 20
479.692176
 30
0.0
 11
505.263917
 21
477.861189
 31
0.0
  0
LINE
  5
48C
100
AcDbEntity
  8
1
  6
CONTINUOUS
 62
     7
100
AcDbLine
 10
502.092555
 20
444.692176
 30
0.0
 11
481.592555
 21
444.692176
 31
0.0
  0
LINE
  5
48D
100
AcDbEntity
  8
1
  6
CONTINUOUS
 62
     7
100
AcDbLine
 10
502.092555
 20
444.692176
 30
0.0
 11
505.263917
 21
446.523162
 31
0.0
  0
LINE
  5
48E
100
AcDbEntity
  8
1
  6
CONTINUOUS
 62
     7
100
AcDbLine
 10
461.092555
 20
479.692176
 30
0.0
 11
481.592555
 21
479.692176
 31
0.0
  0
LINE
  5
48F
100
AcDbEntity
  8
1
  6
CONTINUOUS
 62
     7
100
AcDbLine
 10
469.756874
 20
477.861189
 30
0.0
 11
469.756874
 21
446.523162
 31
0.0
  0
LINE
  5
490
100
AcDbEntity
  8
1
  6
CONTINUOUS
 62
     7
100
AcDbLine
 10
457.921193
 20
477.861189
 30
0.0
 11
457.921193
 21
446.523162
 31
0.0
  0
LINE
  5
491
100
AcDbEntity
  8
1
  6
CONTINUOUS
 62
     7
100
AcDbLine
 10
461.092555
 20
479.692176
 30
0.0
 11
457.921193
 21
477.861189
 31
0.0
  0
LINE
  5
492
100
AcDbEntity
  8
1
  6
CONTINUOUS
 62
     7
100
AcDbLine
 10
461.092555
 20
444.692176
 30
0.0
 11
481.592555
 21
444.692176
 31
0.0
  0
LINE
  5
493
100
AcDbEntity
  8
1
  6
CONTINUOUS
 62
     7
100
AcDbLine
 10
461.092555
 20
444.692176
 30
0.0
 11
457.921193
 21
446.523162
 31
0.0
  0
LINE
  5
494
100
AcDbEntity
  8
1
  6
CONTINUOUS
 62
     7
100
AcDbLine
 10
469.592555
 20
349.192176
 30
0.0
 11
469.592555
 21
330.403278
 31
0.0
  0
LINE
  5
495
100
AcDbEntity
  8
1
  6
CONTINUOUS
 62
     7
100
AcDbLine
 10
477.592555
 20
349.192176
 30
0.0
 11
477.592555
 21
336.608583
 31
0.0
  0
LINE
  5
496
100
AcDbEntity
  8
1
  6
CONTINUOUS
 62
     7
100
AcDbLine
 10
474.238096
 20
270.692176
 30
0.0
 11
477.37948
 21
264.692176
 31
0.0
  0
POLYLINE
  5
497
100
AcDbEntity
  8
1
  6
CONTINUOUS
 62
     7
100
AcDb2dPolyline
 66
     1
 10
0.0
 20
0.0
 30
0.0
  0
VERTEX
  5
498
100
AcDbEntity
  8
1
  6
CONTINUOUS
 62
     7
100
AcDbVertex
100
AcDb2dVertex
 10
466.58
 20
282.474
 30
0.0
  0
VERTEX
  5
499
100
AcDbEntity
  8
1
  6
CONTINUOUS
 62
     7
100
AcDbVertex
100
AcDb2dVertex
 10
466.674
 20
282.473
 30
0.0
  0
VERTEX
  5
49A
100
AcDbEntity
  8
1
  6
CONTINUOUS
 62
     7
100
AcDbVertex
100
AcDb2dVertex
 10
466.768
 20
282.47
 30
0.0
  0
VERTEX
  5
49B
100
AcDbEntity
  8
1
  6
CONTINUOUS
 62
     7
100
AcDbVertex
100
AcDb2dVertex
 10
466.862
 20
282.466
 30
0.0
  0
VERTEX
  5
49C
100
AcDbEntity
  8
1
  6
CONTINUOUS
 62
     7
100
AcDbVertex
100
AcDb2dVertex
 10
466.956
 20
282.459
 30
0.0
  0
VERTEX
  5
49D
100
AcDbEntity
  8
1
  6
CONTINUOUS
 62
     7
100
AcDbVertex
100
AcDb2dVertex
 10
467.05
 20
282.451
 30
0.0
  0
VERTEX
  5
49E
100
AcDbEntity
  8
1
  6
CONTINUOUS
 62
     7
100
AcDbVertex
100
AcDb2dVertex
 10
467.143
 20
282.442
 30
0.0
  0
VERTEX
  5
49F
100
AcDbEntity
  8
1
  6
CONTINUOUS
 62
     7
100
AcDbVertex
100
AcDb2dVertex
 10
467.237
 20
282.43
 30
0.0
  0
VERTEX
  5
4A0
100
AcDbEntity
  8
1
  6
CONTINUOUS
 62
     7
100
AcDbVertex
100
AcDb2dVertex
 10
467.331
 20
282.417
 30
0.0
  0
VERTEX
  5
4A1
100
AcDbEntity
  8
1
  6
CONTINUOUS
 62
     7
100
AcDbVertex
100
AcDb2dVertex
 10
467.424
 20
282.402
 30
0.0
  0
VERTEX
  5
4A2
100
AcDbEntity
  8
1
  6
CONTINUOUS
 62
     7
100
AcDbVertex
100
AcDb2dVertex
 10
467.517
 20
282.385
 30
0.0
  0
VERTEX
  5
4A3
100
AcDbEntity
  8
1
  6
CONTINUOUS
 62
     7
100
AcDbVertex
100
AcDb2dVertex
 10
467.611
 20
282.366
 30
0.0
  0
VERTEX
  5
4A4
100
AcDbEntity
  8
1
  6
CONTINUOUS
 62
     7
100
AcDbVertex
100
AcDb2dVertex
 10
467.704
 20
282.346
 30
0.0
  0
VERTEX
  5
4A5
100
AcDbEntity
  8
1
  6
CONTINUOUS
 62
     7
100
AcDbVertex
100
AcDb2dVertex
 10
467.797
 20
282.324
 30
0.0
  0
VERTEX
  5
4A6
100
AcDbEntity
  8
1
  6
CONTINUOUS
 62
     7
100
AcDbVertex
100
AcDb2dVertex
 10
467.889
 20
282.3
 30
0.0
  0
VERTEX
  5
4A7
100
AcDbEntity
  8
1
  6
CONTINUOUS
 62
     7
100
AcDbVertex
100
AcDb2dVertex
 10
467.982
 20
282.275
 30
0.0
  0
VERTEX
  5
4A8
100
AcDbEntity
  8
1
  6
CONTINUOUS
 62
     7
100
AcDbVertex
100
AcDb2dVertex
 10
468.074
 20
282.247
 30
0.0
  0
VERTEX
  5
4A9
100
AcDbEntity
  8
1
  6
CONTINUOUS
 62
     7
100
AcDbVertex
100
AcDb2dVertex
 10
468.166
 20
282.218
 30
0.0
  0
VERTEX
  5
4AA
100
AcDbEntity
  8
1
  6
CONTINUOUS
 62
     7
100
AcDbVertex
100
AcDb2dVertex
 10
468.258
 20
282.187
 30
0.0
  0
VERTEX
  5
4AB
100
AcDbEntity
  8
1
  6
CONTINUOUS
 62
     7
100
AcDbVertex
100
AcDb2dVertex
 10
468.349
 20
282.155
 30
0.0
  0
VERTEX
  5
4AC
100
AcDbEntity
  8
1
  6
CONTINUOUS
 62
     7
100
AcDbVertex
100
AcDb2dVertex
 10
468.441
 20
282.121
 30
0.0
  0
VERTEX
  5
4AD
100
AcDbEntity
  8
1
  6
CONTINUOUS
 62
     7
100
AcDbVertex
100
AcDb2dVertex
 10
468.532
 20
282.085
 30
0.0
  0
VERTEX
  5
4AE
100
AcDbEntity
  8
1
  6
CONTINUOUS
 62
     7
100
AcDbVertex
100
AcDb2dVertex
 10
468.623
 20
282.047
 30
0.0
  0
VERTEX
  5
4AF
100
AcDbEntity
  8
1
  6
CONTINUOUS
 62
     7
100
AcDbVertex
100
AcDb2dVertex
 10
468.713
 20
282.007
 30
0.0
  0
VERTEX
  5
4B0
100
AcDbEntity
  8
1
  6
CONTINUOUS
 62
     7
100
AcDbVertex
100
AcDb2dVertex
 10
468.803
 20
281.966
 30
0.0
  0
VERTEX
  5
4B1
100
AcDbEntity
  8
1
  6
CONTINUOUS
 62
     7
100
AcDbVertex
100
AcDb2dVertex
 10
468.893
 20
281.924
 30
0.0
  0
VERTEX
  5
4B2
100
AcDbEntity
  8
1
  6
CONTINUOUS
 62
     7
100
AcDbVertex
100
AcDb2dVertex
 10
468.982
 20
281.879
 30
0.0
  0
VERTEX
  5
4B3
100
AcDbEntity
  8
1
  6
CONTINUOUS
 62
     7
100
AcDbVertex
100
AcDb2dVertex
 10
469.071
 20
281.833
 30
0.0
  0
VERTEX
  5
4B4
100
AcDbEntity
  8
1
  6
CONTINUOUS
 62
     7
100
AcDbVertex
100
AcDb2dVertex
 10
469.16
 20
281.785
 30
0.0
  0
VERTEX
  5
4B5
100
AcDbEntity
  8
1
  6
CONTINUOUS
 62
     7
100
AcDbVertex
100
AcDb2dVertex
 10
469.248
 20
281.735
 30
0.0
  0
VERTEX
  5
4B6
100
AcDbEntity
  8
1
  6
CONTINUOUS
 62
     7
100
AcDbVertex
100
AcDb2dVertex
 10
469.336
 20
281.684
 30
0.0
  0
VERTEX
  5
4B7
100
AcDbEntity
  8
1
  6
CONTINUOUS
 62
     7
100
AcDbVertex
100
AcDb2dVertex
 10
469.424
 20
281.631
 30
0.0
  0
VERTEX
  5
4B8
100
AcDbEntity
  8
1
  6
CONTINUOUS
 62
     7
100
AcDbVertex
100
AcDb2dVertex
 10
469.511
 20
281.577
 30
0.0
  0
VERTEX
  5
4B9
100
AcDbEntity
  8
1
  6
CONTINUOUS
 62
     7
100
AcDbVertex
100
AcDb2dVertex
 10
469.597
 20
281.521
 30
0.0
  0
VERTEX
  5
4BA
100
AcDbEntity
  8
1
  6
CONTINUOUS
 62
     7
100
AcDbVertex
100
AcDb2dVertex
 10
469.683
 20
281.463
 30
0.0
  0
VERTEX
  5
4BB
100
AcDbEntity
  8
1
  6
CONTINUOUS
 62
     7
100
AcDbVertex
100
AcDb2dVertex
 10
469.769
 20
281.404
 30
0.0
  0
VERTEX
  5
4BC
100
AcDbEntity
  8
1
  6
CONTINUOUS
 62
     7
100
AcDbVertex
100
AcDb2dVertex
 10
469.854
 20
281.342
 30
0.0
  0
VERTEX
  5
4BD
100
AcDbEntity
  8
1
  6
CONTINUOUS
 62
     7
100
AcDbVertex
100
AcDb2dVertex
 10
469.939
 20
281.28
 30
0.0
  0
VERTEX
  5
4BE
100
AcDbEntity
  8
1
  6
CONTINUOUS
 62
     7
100
AcDbVertex
100
AcDb2dVertex
 10
470.023
 20
281.216
 30
0.0
  0
VERTEX
  5
4BF
100
AcDbEntity
  8
1
  6
CONTINUOUS
 62
     7
100
AcDbVertex
100
AcDb2dVertex
 10
470.107
 20
281.15
 30
0.0
  0
VERTEX
  5
4C0
100
AcDbEntity
  8
1
  6
CONTINUOUS
 62
     7
100
AcDbVertex
100
AcDb2dVertex
 10
470.19
 20
281.082
 30
0.0
  0
VERTEX
  5
4C1
100
AcDbEntity
  8
1
  6
CONTINUOUS
 62
     7
100
AcDbVertex
100
AcDb2dVertex
 10
470.273
 20
281.014
 30
0.0
  0
VERTEX
  5
4C2
100
AcDbEntity
  8
1
  6
CONTINUOUS
 62
     7
100
AcDbVertex
100
AcDb2dVertex
 10
470.355
 20
280.943
 30
0.0
  0
VERTEX
  5
4C3
100
AcDbEntity
  8
1
  6
CONTINUOUS
 62
     7
100
AcDbVertex
100
AcDb2dVertex
 10
470.436
 20
280.871
 30
0.0
  0
VERTEX
  5
4C4
100
AcDbEntity
  8
1
  6
CONTINUOUS
 62
     7
100
AcDbVertex
100
AcDb2dVertex
 10
470.517
 20
280.797
 30
0.0
  0
VERTEX
  5
4C5
100
AcDbEntity
  8
1
  6
CONTINUOUS
 62
     7
100
AcDbVertex
100
AcDb2dVertex
 10
470.597
 20
280.722
 30
0.0
  0
VERTEX
  5
4C6
100
AcDbEntity
  8
1
  6
CONTINUOUS
 62
     7
100
AcDbVertex
100
AcDb2dVertex
 10
470.677
 20
280.646
 30
0.0
  0
VERTEX
  5
4C7
100
AcDbEntity
  8
1
  6
CONTINUOUS
 62
     7
100
AcDbVertex
100
AcDb2dVertex
 10
470.756
 20
280.568
 30
0.0
  0
VERTEX
  5
4C8
100
AcDbEntity
  8
1
  6
CONTINUOUS
 62
     7
100
AcDbVertex
100
AcDb2dVertex
 10
470.835
 20
280.488
 30
0.0
  0
VERTEX
  5
4C9
100
AcDbEntity
  8
1
  6
CONTINUOUS
 62
     7
100
AcDbVertex
100
AcDb2dVertex
 10
470.912
 20
280.407
 30
0.0
  0
VERTEX
  5
4CA
100
AcDbEntity
  8
1
  6
CONTINUOUS
 62
     7
100
AcDbVertex
100
AcDb2dVertex
 10
470.99
 20
280.325
 30
0.0
  0
VERTEX
  5
4CB
100
AcDbEntity
  8
1
  6
CONTINUOUS
 62
     7
100
AcDbVertex
100
AcDb2dVertex
 10
471.066
 20
280.241
 30
0.0
  0
VERTEX
  5
4CC
100
AcDbEntity
  8
1
  6
CONTINUOUS
 62
     7
100
AcDbVertex
100
AcDb2dVertex
 10
471.142
 20
280.155
 30
0.0
  0
VERTEX
  5
4CD
100
AcDbEntity
  8
1
  6
CONTINUOUS
 62
     7
100
AcDbVertex
100
AcDb2dVertex
 10
471.217
 20
280.068
 30
0.0
  0
VERTEX
  5
4CE
100
AcDbEntity
  8
1
  6
CONTINUOUS
 62
     7
100
AcDbVertex
100
AcDb2dVertex
 10
471.291
 20
279.98
 30
0.0
  0
VERTEX
  5
4CF
100
AcDbEntity
  8
1
  6
CONTINUOUS
 62
     7
100
AcDbVertex
100
AcDb2dVertex
 10
471.365
 20
279.89
 30
0.0
  0
VERTEX
  5
4D0
100
AcDbEntity
  8
1
  6
CONTINUOUS
 62
     7
100
AcDbVertex
100
AcDb2dVertex
 10
471.438
 20
279.799
 30
0.0
  0
VERTEX
  5
4D1
100
AcDbEntity
  8
1
  6
CONTINUOUS
 62
     7
100
AcDbVertex
100
AcDb2dVertex
 10
471.511
 20
279.707
 30
0.0
  0
VERTEX
  5
4D2
100
AcDbEntity
  8
1
  6
CONTINUOUS
 62
     7
100
AcDbVertex
100
AcDb2dVertex
 10
471.582
 20
279.613
 30
0.0
  0
VERTEX
  5
4D3
100
AcDbEntity
  8
1
  6
CONTINUOUS
 62
     7
100
AcDbVertex
100
AcDb2dVertex
 10
471.653
 20
279.518
 30
0.0
  0
VERTEX
  5
4D4
100
AcDbEntity
  8
1
  6
CONTINUOUS
 62
     7
100
AcDbVertex
100
AcDb2dVertex
 10
471.723
 20
279.422
 30
0.0
  0
VERTEX
  5
4D5
100
AcDbEntity
  8
1
  6
CONTINUOUS
 62
     7
100
AcDbVertex
100
AcDb2dVertex
 10
471.792
 20
279.324
 30
0.0
  0
VERTEX
  5
4D6
100
AcDbEntity
  8
1
  6
CONTINUOUS
 62
     7
100
AcDbVertex
100
AcDb2dVertex
 10
471.861
 20
279.225
 30
0.0
  0
VERTEX
  5
4D7
100
AcDbEntity
  8
1
  6
CONTINUOUS
 62
     7
100
AcDbVertex
100
AcDb2dVertex
 10
471.928
 20
279.125
 30
0.0
  0
VERTEX
  5
4D8
100
AcDbEntity
  8
1
  6
CONTINUOUS
 62
     7
100
AcDbVertex
100
AcDb2dVertex
 10
471.995
 20
279.023
 30
0.0
  0
VERTEX
  5
4D9
100
AcDbEntity
  8
1
  6
CONTINUOUS
 62
     7
100
AcDbVertex
100
AcDb2dVertex
 10
472.061
 20
278.92
 30
0.0
  0
VERTEX
  5
4DA
100
AcDbEntity
  8
1
  6
CONTINUOUS
 62
     7
100
AcDbVertex
100
AcDb2dVertex
 10
472.126
 20
278.816
 30
0.0
  0
VERTEX
  5
4DB
100
AcDbEntity
  8
1
  6
CONTINUOUS
 62
     7
100
AcDbVertex
100
AcDb2dVertex
 10
472.191
 20
278.711
 30
0.0
  0
VERTEX
  5
4DC
100
AcDbEntity
  8
1
  6
CONTINUOUS
 62
     7
100
AcDbVertex
100
AcDb2dVertex
 10
472.254
 20
278.604
 30
0.0
  0
VERTEX
  5
4DD
100
AcDbEntity
  8
1
  6
CONTINUOUS
 62
     7
100
AcDbVertex
100
AcDb2dVertex
 10
472.317
 20
278.496
 30
0.0
  0
VERTEX
  5
4DE
100
AcDbEntity
  8
1
  6
CONTINUOUS
 62
     7
100
AcDbVertex
100
AcDb2dVertex
 10
472.379
 20
278.388
 30
0.0
  0
VERTEX
  5
4DF
100
AcDbEntity
  8
1
  6
CONTINUOUS
 62
     7
100
AcDbVertex
100
AcDb2dVertex
 10
472.44
 20
278.277
 30
0.0
  0
VERTEX
  5
4E0
100
AcDbEntity
  8
1
  6
CONTINUOUS
 62
     7
100
AcDbVertex
100
AcDb2dVertex
 10
472.5
 20
278.166
 30
0.0
  0
VERTEX
  5
4E1
100
AcDbEntity
  8
1
  6
CONTINUOUS
 62
     7
100
AcDbVertex
100
AcDb2dVertex
 10
472.559
 20
278.054
 30
0.0
  0
VERTEX
  5
4E2
100
AcDbEntity
  8
1
  6
CONTINUOUS
 62
     7
100
AcDbVertex
100
AcDb2dVertex
 10
472.617
 20
277.941
 30
0.0
  0
VERTEX
  5
4E3
100
AcDbEntity
  8
1
  6
CONTINUOUS
 62
     7
100
AcDbVertex
100
AcDb2dVertex
 10
472.675
 20
277.826
 30
0.0
  0
VERTEX
  5
4E4
100
AcDbEntity
  8
1
  6
CONTINUOUS
 62
     7
100
AcDbVertex
100
AcDb2dVertex
 10
472.731
 20
277.71
 30
0.0
  0
VERTEX
  5
4E5
100
AcDbEntity
  8
1
  6
CONTINUOUS
 62
     7
100
AcDbVertex
100
AcDb2dVertex
 10
472.787
 20
277.594
 30
0.0
  0
VERTEX
  5
4E6
100
AcDbEntity
  8
1
  6
CONTINUOUS
 62
     7
100
AcDbVertex
100
AcDb2dVertex
 10
472.841
 20
277.476
 30
0.0
  0
VERTEX
  5
4E7
100
AcDbEntity
  8
1
  6
CONTINUOUS
 62
     7
100
AcDbVertex
100
AcDb2dVertex
 10
472.895
 20
277.357
 30
0.0
  0
VERTEX
  5
4E8
100
AcDbEntity
  8
1
  6
CONTINUOUS
 62
     7
100
AcDbVertex
100
AcDb2dVertex
 10
472.947
 20
277.238
 30
0.0
  0
VERTEX
  5
4E9
100
AcDbEntity
  8
1
  6
CONTINUOUS
 62
     7
100
AcDbVertex
100
AcDb2dVertex
 10
472.999
 20
277.117
 30
0.0
  0
VERTEX
  5
4EA
100
AcDbEntity
  8
1
  6
CONTINUOUS
 62
     7
100
AcDbVertex
100
AcDb2dVertex
 10
473.05
 20
276.995
 30
0.0
  0
VERTEX
  5
4EB
100
AcDbEntity
  8
1
  6
CONTINUOUS
 62
     7
100
AcDbVertex
100
AcDb2dVertex
 10
473.1
 20
276.873
 30
0.0
  0
VERTEX
  5
4EC
100
AcDbEntity
  8
1
  6
CONTINUOUS
 62
     7
100
AcDbVertex
100
AcDb2dVertex
 10
473.149
 20
276.749
 30
0.0
  0
VERTEX
  5
4ED
100
AcDbEntity
  8
1
  6
CONTINUOUS
 62
     7
100
AcDbVertex
100
AcDb2dVertex
 10
473.196
 20
276.625
 30
0.0
  0
VERTEX
  5
4EE
100
AcDbEntity
  8
1
  6
CONTINUOUS
 62
     7
100
AcDbVertex
100
AcDb2dVertex
 10
473.243
 20
276.499
 30
0.0
  0
VERTEX
  5
4EF
100
AcDbEntity
  8
1
  6
CONTINUOUS
 62
     7
100
AcDbVertex
100
AcDb2dVertex
 10
473.289
 20
276.373
 30
0.0
  0
VERTEX
  5
4F0
100
AcDbEntity
  8
1
  6
CONTINUOUS
 62
     7
100
AcDbVertex
100
AcDb2dVertex
 10
473.334
 20
276.246
 30
0.0
  0
VERTEX
  5
4F1
100
AcDbEntity
  8
1
  6
CONTINUOUS
 62
     7
100
AcDbVertex
100
AcDb2dVertex
 10
473.378
 20
276.118
 30
0.0
  0
VERTEX
  5
4F2
100
AcDbEntity
  8
1
  6
CONTINUOUS
 62
     7
100
AcDbVertex
100
AcDb2dVertex
 10
473.42
 20
275.989
 30
0.0
  0
VERTEX
  5
4F3
100
AcDbEntity
  8
1
  6
CONTINUOUS
 62
     7
100
AcDbVertex
100
AcDb2dVertex
 10
473.462
 20
275.86
 30
0.0
  0
VERTEX
  5
4F4
100
AcDbEntity
  8
1
  6
CONTINUOUS
 62
     7
100
AcDbVertex
100
AcDb2dVertex
 10
473.503
 20
275.729
 30
0.0
  0
VERTEX
  5
4F5
100
AcDbEntity
  8
1
  6
CONTINUOUS
 62
     7
100
AcDbVertex
100
AcDb2dVertex
 10
473.542
 20
275.598
 30
0.0
  0
VERTEX
  5
4F6
100
AcDbEntity
  8
1
  6
CONTINUOUS
 62
     7
100
AcDbVertex
100
AcDb2dVertex
 10
473.581
 20
275.467
 30
0.0
  0
VERTEX
  5
4F7
100
AcDbEntity
  8
1
  6
CONTINUOUS
 62
     7
100
AcDbVertex
100
AcDb2dVertex
 10
473.619
 20
275.334
 30
0.0
  0
VERTEX
  5
4F8
100
AcDbEntity
  8
1
  6
CONTINUOUS
 62
     7
100
AcDbVertex
100
AcDb2dVertex
 10
473.655
 20
275.201
 30
0.0
  0
VERTEX
  5
4F9
100
AcDbEntity
  8
1
  6
CONTINUOUS
 62
     7
100
AcDbVertex
100
AcDb2dVertex
 10
473.691
 20
275.067
 30
0.0
  0
VERTEX
  5
4FA
100
AcDbEntity
  8
1
  6
CONTINUOUS
 62
     7
100
AcDbVertex
100
AcDb2dVertex
 10
473.725
 20
274.932
 30
0.0
  0
VERTEX
  5
4FB
100
AcDbEntity
  8
1
  6
CONTINUOUS
 62
     7
100
AcDbVertex
100
AcDb2dVertex
 10
473.758
 20
274.797
 30
0.0
  0
VERTEX
  5
4FC
100
AcDbEntity
  8
1
  6
CONTINUOUS
 62
     7
100
AcDbVertex
100
AcDb2dVertex
 10
473.79
 20
274.661
 30
0.0
  0
VERTEX
  5
4FD
100
AcDbEntity
  8
1
  6
CONTINUOUS
 62
     7
100
AcDbVertex
100
AcDb2dVertex
 10
473.822
 20
274.525
 30
0.0
  0
VERTEX
  5
4FE
100
AcDbEntity
  8
1
  6
CONTINUOUS
 62
     7
100
AcDbVertex
100
AcDb2dVertex
 10
473.852
 20
274.388
 30
0.0
  0
VERTEX
  5
4FF
100
AcDbEntity
  8
1
  6
CONTINUOUS
 62
     7
100
AcDbVertex
100
AcDb2dVertex
 10
473.881
 20
274.25
 30
0.0
  0
VERTEX
  5
500
100
AcDbEntity
  8
1
  6
CONTINUOUS
 62
     7
100
AcDbVertex
100
AcDb2dVertex
 10
473.908
 20
274.112
 30
0.0
  0
VERTEX
  5
501
100
AcDbEntity
  8
1
  6
CONTINUOUS
 62
     7
100
AcDbVertex
100
AcDb2dVertex
 10
473.935
 20
273.974
 30
0.0
  0
VERTEX
  5
502
100
AcDbEntity
  8
1
  6
CONTINUOUS
 62
     7
100
AcDbVertex
100
AcDb2dVertex
 10
473.961
 20
273.834
 30
0.0
  0
VERTEX
  5
503
100
AcDbEntity
  8
1
  6
CONTINUOUS
 62
     7
100
AcDbVertex
100
AcDb2dVertex
 10
473.985
 20
273.695
 30
0.0
  0
VERTEX
  5
504
100
AcDbEntity
  8
1
  6
CONTINUOUS
 62
     7
100
AcDbVertex
100
AcDb2dVertex
 10
474.009
 20
273.555
 30
0.0
  0
VERTEX
  5
505
100
AcDbEntity
  8
1
  6
CONTINUOUS
 62
     7
100
AcDbVertex
100
AcDb2dVertex
 10
474.031
 20
273.414
 30
0.0
  0
VERTEX
  5
506
100
AcDbEntity
  8
1
  6
CONTINUOUS
 62
     7
100
AcDbVertex
100
AcDb2dVertex
 10
474.052
 20
273.274
 30
0.0
  0
VERTEX
  5
507
100
AcDbEntity
  8
1
  6
CONTINUOUS
 62
     7
100
AcDbVertex
100
AcDb2dVertex
 10
474.072
 20
273.132
 30
0.0
  0
VERTEX
  5
508
100
AcDbEntity
  8
1
  6
CONTINUOUS
 62
     7
100
AcDbVertex
100
AcDb2dVertex
 10
474.091
 20
272.991
 30
0.0
  0
VERTEX
  5
509
100
AcDbEntity
  8
1
  6
CONTINUOUS
 62
     7
100
AcDbVertex
100
AcDb2dVertex
 10
474.109
 20
272.849
 30
0.0
  0
VERTEX
  5
50A
100
AcDbEntity
  8
1
  6
CONTINUOUS
 62
     7
100
AcDbVertex
100
AcDb2dVertex
 10
474.125
 20
272.706
 30
0.0
  0
VERTEX
  5
50B
100
AcDbEntity
  8
1
  6
CONTINUOUS
 62
     7
100
AcDbVertex
100
AcDb2dVertex
 10
474.141
 20
272.564
 30
0.0
  0
VERTEX
  5
50C
100
AcDbEntity
  8
1
  6
CONTINUOUS
 62
     7
100
AcDbVertex
100
AcDb2dVertex
 10
474.155
 20
272.421
 30
0.0
  0
VERTEX
  5
50D
100
AcDbEntity
  8
1
  6
CONTINUOUS
 62
     7
100
AcDbVertex
100
AcDb2dVertex
 10
474.168
 20
272.278
 30
0.0
  0
VERTEX
  5
50E
100
AcDbEntity
  8
1
  6
CONTINUOUS
 62
     7
100
AcDbVertex
100
AcDb2dVertex
 10
474.181
 20
272.134
 30
0.0
  0
VERTEX
  5
50F
100
AcDbEntity
  8
1
  6
CONTINUOUS
 62
     7
100
AcDbVertex
100
AcDb2dVertex
 10
474.191
 20
271.991
 30
0.0
  0
VERTEX
  5
510
100
AcDbEntity
  8
1
  6
CONTINUOUS
 62
     7
100
AcDbVertex
100
AcDb2dVertex
 10
474.201
 20
271.847
 30
0.0
  0
VERTEX
  5
511
100
AcDbEntity
  8
1
  6
CONTINUOUS
 62
     7
100
AcDbVertex
100
AcDb2dVertex
 10
474.21
 20
271.703
 30
0.0
  0
VERTEX
  5
512
100
AcDbEntity
  8
1
  6
CONTINUOUS
 62
     7
100
AcDbVertex
100
AcDb2dVertex
 10
474.217
 20
271.559
 30
0.0
  0
VERTEX
  5
513
100
AcDbEntity
  8
1
  6
CONTINUOUS
 62
     7
100
AcDbVertex
100
AcDb2dVertex
 10
474.224
 20
271.415
 30
0.0
  0
VERTEX
  5
514
100
AcDbEntity
  8
1
  6
CONTINUOUS
 62
     7
100
AcDbVertex
100
AcDb2dVertex
 10
474.229
 20
271.27
 30
0.0
  0
VERTEX
  5
515
100
AcDbEntity
  8
1
  6
CONTINUOUS
 62
     7
100
AcDbVertex
100
AcDb2dVertex
 10
474.233
 20
271.126
 30
0.0
  0
VERTEX
  5
516
100
AcDbEntity
  8
1
  6
CONTINUOUS
 62
     7
100
AcDbVertex
100
AcDb2dVertex
 10
474.236
 20
270.981
 30
0.0
  0
VERTEX
  5
517
100
AcDbEntity
  8
1
  6
CONTINUOUS
 62
     7
100
AcDbVertex
100
AcDb2dVertex
 10
474.238
 20
270.837
 30
0.0
  0
VERTEX
  5
518
100
AcDbEntity
  8
1
  6
CONTINUOUS
 62
     7
100
AcDbVertex
100
AcDb2dVertex
 10
474.238
 20
270.692
 30
0.0
  0
SEQEND
  5
519
100
AcDbEntity
  8
1
  6
CONTINUOUS
 62
     7
  0
LINE
  5
51A
100
AcDbEntity
  8
1
  6
CONTINUOUS
 62
     7
100
AcDbLine
 10
466.579984
 20
318.488856
 30
0.0
 11
466.579984
 21
282.473643
 31
0.0
  0
LINE
  5
51B
100
AcDbEntity
  8
1
  6
CONTINUOUS
 62
     7
100
AcDbLine
 10
481.592555
 20
349.192176
 30
0.0
 11
481.592555
 21
337.192176
 31
0.0
  0
ARC
  5
51C
100
AcDbEntity
  8
1
  6
CONTINUOUS
 62
     7
100
AcDbCircle
 10
456.592555
 20
320.969554
 30
0.0
 40
3.0
100
AcDbArc
 50
-86.999998
 51
0.0
  0
ARC
  5
51D
100
AcDbEntity
  8
1
  6
CONTINUOUS
 62
     7
100
AcDbCircle
 10
462.592555
 20
346.192176
 30
0.0
 40
3.0
100
AcDbArc
 50
90.0
 51
180.0
  0
LINE
  5
51E
100
AcDbEntity
  8
1
  6
CONTINUOUS
 62
     7
100
AcDbLine
 10
459.592555
 20
346.192176
 30
0.0
 11
459.592555
 21
320.969554
 31
0.0
  0
LINE
  5
51F
100
AcDbEntity
  8
1
  6
CONTINUOUS
 62
     7
100
AcDbLine
 10
457.592555
 20
246.910708
 30
0.0
 11
451.092555
 21
246.910708
 31
0.0
  0
LINE
  5
520
100
AcDbEntity
  8
1
  6
CONTINUOUS
 62
     7
100
AcDbLine
 10
474.238096
 20
270.692176
 30
0.0
 11
479.592555
 21
270.692176
 31
0.0
  0
LINE
  5
521
100
AcDbEntity
  8
1
  6
CONTINUOUS
 62
     7
100
AcDbLine
 10
499.592555
 20
270.692176
 30
0.0
 11
483.592555
 21
270.692176
 31
0.0
  0
LINE
  5
522
100
AcDbEntity
  8
1
  6
CONTINUOUS
 62
     7
100
AcDbLine
 10
505.592555
 20
264.692176
 30
0.0
 11
499.592555
 21
270.692176
 31
0.0
  0
ARC
  5
523
100
AcDbEntity
  8
1
  6
CONTINUOUS
 62
     7
100
AcDbCircle
 10
498.563118
 20
256.90386
 30
0.0
 40
22.211684
100
AcDbArc
 50
-108.449866
 51
-71.550134
  0
ARC
  5
524
100
AcDbEntity
  8
1
  6
CONTINUOUS
 62
     7
100
AcDbCircle
 10
481.592555
 20
278.544715
 30
0.0
 40
43.852539
100
AcDbArc
 50
-103.102536
 51
-76.897464
  0
ARC
  5
525
100
AcDbEntity
  8
1
  6
CONTINUOUS
 62
     7
100
AcDbCircle
 10
464.621992
 20
256.90386
 30
0.0
 40
22.211684
100
AcDbArc
 50
-90.0
 51
-71.550134
  0
ARC
  5
526
100
AcDbEntity
  8
1
  6
CONTINUOUS
 62
     7
100
AcDbCircle
 10
499.592555
 20
352.192176
 30
0.0
 40
3.0
100
AcDbArc
 50
-90.0
 51
0.0
  0
LINE
  5
527
100
AcDbEntity
  8
1
  6
CONTINUOUS
 62
     7
100
AcDbLine
 10
502.592555
 20
351.192176
 30
0.0
 11
502.592555
 21
395.23272
 31
0.0
  0
LINE
  5
528
100
AcDbEntity
  8
1
  6
CONTINUOUS
 62
     7
100
AcDbLine
 10
502.592555
 20
395.23272
 30
0.0
 11
502.749565
 21
395.240948
 31
0.0
  0
ARC
  5
529
100
AcDbEntity
  8
1
  6
CONTINUOUS
 62
     7
100
AcDbCircle
 10
485.592555
 20
266.692176
 30
0.0
 40
2.0
100
AcDbArc
 50
180.0
 51
-90.0
  0
LINE
  5
52A
100
AcDbEntity
  8
1
  6
CONTINUOUS
 62
     7
100
AcDbLine
 10
485.592555
 20
264.692176
 30
0.0
 11
505.592555
 21
264.692176
 31
0.0
  0
LINE
  5
52B
100
AcDbEntity
  8
1
  6
CONTINUOUS
 62
     7
100
AcDbLine
 10
451.092555
 20
282.473643
 30
0.0
 11
466.579984
 21
282.473643
 31
0.0
  0
LINE
  5
52C
100
AcDbEntity
  8
1
  6
CONTINUOUS
 62
     7
100
AcDbLine
 10
505.592555
 20
323.192176
 30
0.0
 11
499.592555
 21
323.192176
 31
0.0
  0
LINE
  5
52D
100
AcDbEntity
  8
1
  6
CONTINUOUS
 62
     7
100
AcDbLine
 10
483.592555
 20
266.692176
 30
0.0
 11
483.592555
 21
309.335769
 31
0.0
  0
ARC
  5
52E
100
AcDbEntity
  8
1
  6
CONTINUOUS
 62
     7
100
AcDbCircle
 10
477.592555
 20
266.692176
 30
0.0
 40
2.0
100
AcDbArc
 50
-90.0
 51
0.0
  0
LINE
  5
52F
100
AcDbEntity
  8
1
  6
CONTINUOUS
 62
     7
100
AcDbLine
 10
479.592555
 20
266.692176
 30
0.0
 11
479.592555
 21
309.335769
 31
0.0
  0
LINE
  5
530
100
AcDbEntity
  8
1
  6
CONTINUOUS
 62
     7
100
AcDbLine
 10
465.151429
 20
264.692176
 30
0.0
 11
477.592555
 21
264.692176
 31
0.0
  0
LINE
  5
531
100
AcDbEntity
  8
1
  6
CONTINUOUS
 62
     7
100
AcDbLine
 10
444.43555
 20
317.328315
 30
0.0
 11
468.373102
 21
318.582829
 31
0.0
  0
ARC
  5
532
100
AcDbEntity
  8
1
  6
CONTINUOUS
 62
     7
100
AcDbCircle
 10
444.592555
 20
314.332427
 30
0.0
 40
3.0
100
AcDbArc
 50
93.0
 51
-179.999997
  0
LINE
  5
533
100
AcDbEntity
  8
1
  6
CONTINUOUS
 62
     7
100
AcDbLine
 10
499.592555
 20
349.192176
 30
0.0
 11
462.592555
 21
349.192176
 31
0.0
  0
ARC
  5
534
100
AcDbEntity
  8
1
  6
CONTINUOUS
 62
     7
100
AcDbCircle
 10
440.457465
 20
264.692176
 30
0.0
 40
24.693965
100
AcDbArc
 50
-46.060541
 51
0.0
  0
LINE
  5
535
100
AcDbEntity
  8
1
  6
CONTINUOUS
 62
     7
100
AcDbLine
 10
491.53368
 20
235.833835
 30
0.0
 11
491.53368
 21
264.692176
 31
0.0
  0
LINE
  5
536
100
AcDbEntity
  8
1
  6
CONTINUOUS
 62
     7
100
AcDbLine
 10
471.651429
 20
235.833835
 30
0.0
 11
471.651429
 21
264.692176
 31
0.0
  0
ARC
  5
537
100
AcDbEntity
  8
1
  6
CONTINUOUS
 62
     7
100
AcDbCircle
 10
458.592555
 20
443.692176
 30
0.0
 40
1.0
100
AcDbArc
 50
90.0
 51
180.0
  0
LINE
  5
538
100
AcDbEntity
  8
1
  6
CONTINUOUS
 62
     7
100
AcDbLine
 10
458.592555
 20
444.692176
 30
0.0
 11
504.592555
 21
444.692176
 31
0.0
  0
ARC
  5
539
100
AcDbEntity
  8
1
  6
CONTINUOUS
 62
     7
100
AcDbCircle
 10
454.592555
 20
426.527847
 30
0.0
 40
3.0
100
AcDbArc
 50
-93.000002
 51
0.0
  0
LINE
  5
53A
100
AcDbEntity
  8
1
  6
CONTINUOUS
 62
     7
100
AcDbLine
 10
444.43555
 20
424.056037
 30
0.0
 11
454.435547
 21
423.531959
 31
0.0
  0
ARC
  5
53B
100
AcDbEntity
  8
1
  6
CONTINUOUS
 62
     7
100
AcDbCircle
 10
444.592555
 20
427.051924
 30
0.0
 40
3.0
100
AcDbArc
 50
179.999997
 51
-93.0
  0
LINE
  5
53C
100
AcDbEntity
  8
1
  6
CONTINUOUS
 62
     7
100
AcDbLine
 10
457.592555
 20
234.692176
 30
0.0
 11
457.592555
 21
246.910708
 31
0.0
  0
LINE
  5
53D
100
AcDbEntity
  8
1
  6
CONTINUOUS
 62
     7
100
AcDbLine
 10
499.592555
 20
270.692176
 30
0.0
 11
499.592555
 21
323.192176
 31
0.0
  0
ARC
  5
53E
100
AcDbEntity
  8
1
  6
CONTINUOUS
 62
     7
100
AcDbCircle
 10
452.092555
 20
235.692178
 30
0.0
 40
1.0
100
AcDbArc
 50
180.0
 51
-90.0
  0
LINE
  5
53F
100
AcDbEntity
  8
1
  6
CONTINUOUS
 62
     7
100
AcDbLine
 10
451.092555
 20
235.692178
 30
0.0
 11
451.092555
 21
295.692176
 31
0.0
  0
ARC
  5
540
100
AcDbEntity
  8
1
  6
CONTINUOUS
 62
     7
100
AcDbCircle
 10
502.592555
 20
348.192176
 30
0.0
 40
3.0
100
AcDbArc
 50
0.0
 51
90.0
  0
ARC
  5
541
100
AcDbEntity
  8
1
  6
CONTINUOUS
 62
     7
100
AcDbCircle
 10
504.592555
 20
235.692178
 30
0.0
 40
1.0
100
AcDbArc
 50
-90.0
 51
0.0
  0
LINE
  5
542
100
AcDbEntity
  8
1
  6
CONTINUOUS
 62
     7
100
AcDbLine
 10
505.592555
 20
235.692178
 30
0.0
 11
505.592555
 21
370.692176
 31
0.0
  0
LINE
  5
543
100
AcDbEntity
  8
1
  6
CONTINUOUS
 62
     7
100
AcDbLine
 10
446.592555
 20
269.192176
 30
0.0
 11
447.092555
 21
269.692176
 31
0.0
  0
LINE
  5
544
100
AcDbEntity
  8
1
  6
CONTINUOUS
 62
     7
100
AcDbLine
 10
447.092555
 20
269.692176
 30
0.0
 11
449.592555
 21
269.692176
 31
0.0
  0
LINE
  5
545
100
AcDbEntity
  8
1
  6
CONTINUOUS
 62
     7
100
AcDbLine
 10
447.092555
 20
259.692176
 30
0.0
 11
446.592555
 21
260.192176
 31
0.0
  0
LINE
  5
546
100
AcDbEntity
  8
1
  6
CONTINUOUS
 62
     7
100
AcDbLine
 10
449.592555
 20
259.692176
 30
0.0
 11
447.092555
 21
259.692176
 31
0.0
  0
LINE
  5
547
100
AcDbEntity
  8
1
  6
CONTINUOUS
 62
     7
100
AcDbLine
 10
446.592555
 20
260.192176
 30
0.0
 11
446.592555
 21
269.192176
 31
0.0
  0
LINE
  5
548
100
AcDbEntity
  8
1
  6
CONTINUOUS
 62
     7
100
AcDbLine
 10
449.592555
 20
257.192176
 30
0.0
 11
449.592555
 21
272.192176
 31
0.0
  0
LINE
  5
549
100
AcDbEntity
  8
1
  6
CONTINUOUS
 62
     7
100
AcDbLine
 10
447.092555
 20
259.692176
 30
0.0
 11
447.092555
 21
269.692176
 31
0.0
  0
LINE
  5
54A
100
AcDbEntity
  8
1
  6
CONTINUOUS
 62
     7
100
AcDbLine
 10
451.092555
 20
257.192176
 30
0.0
 11
449.592555
 21
257.192176
 31
0.0
  0
LINE
  5
54B
100
AcDbEntity
  8
1
  6
CONTINUOUS
 62
     7
100
AcDbLine
 10
449.592555
 20
272.192176
 30
0.0
 11
451.092555
 21
272.192176
 31
0.0
  0
CIRCLE
  5
54C
100
AcDbEntity
  8
1
  6
CONTINUOUS
 62
     7
100
AcDbCircle
 10
481.592555
 20
323.192176
 30
0.0
 40
14.0
  0
LINE
  5
54D
100
AcDbEntity
  8
1
  6
CONTINUOUS
 62
     7
100
AcDbLine
 10
457.592555
 20
443.692176
 30
0.0
 11
457.592555
 21
426.527847
 31
0.0
  0
ARC
  5
54E
100
AcDbEntity
  8
1
  6
CONTINUOUS
 62
     7
100
AcDbCircle
 10
438.592555
 20
441.692176
 30
0.0
 40
3.0
100
AcDbArc
 50
0.0
 51
90.0
  0
LINE
  5
54F
100
AcDbEntity
  8
1
  6
CONTINUOUS
 62
     7
100
AcDbLine
 10
431.592555
 20
444.692176
 30
0.0
 11
438.592555
 21
444.692176
 31
0.0
  0
ARC
  5
550
100
AcDbEntity
  8
1
  6
CONTINUOUS
 62
     7
100
AcDbCircle
 10
438.592555
 20
299.692176
 30
0.0
 40
3.0
100
AcDbArc
 50
-90.0
 51
0.0
  0
LINE
  5
551
100
AcDbEntity
  8
1
  6
CONTINUOUS
 62
     7
100
AcDbLine
 10
441.592555
 20
370.692176
 30
0.0
 11
441.592555
 21
299.692176
 31
0.0
  0
LINE
  5
552
100
AcDbEntity
  8
1
  6
CONTINUOUS
 62
     7
100
AcDbLine
 10
431.592555
 20
370.692176
 30
0.0
 11
431.592555
 21
296.692176
 31
0.0
  0
LINE
  5
553
100
AcDbEntity
  8
1
  6
CONTINUOUS
 62
     7
100
AcDbLine
 10
431.592555
 20
296.692176
 30
0.0
 11
431.592555
 21
370.692176
 31
0.0
  0
ARC
  5
554
100
AcDbEntity
  8
1
  6
CONTINUOUS
 62
     7
100
AcDbCircle
 10
450.092555
 20
295.692176
 30
0.0
 40
1.0
100
AcDbArc
 50
0.0
 51
90.0
  0
LINE
  5
555
100
AcDbEntity
  8
1
  6
CONTINUOUS
 62
     7
100
AcDbLine
 10
431.592555
 20
296.692176
 30
0.0
 11
450.092555
 21
296.692176
 31
0.0
  0
POLYLINE
  5
556
100
AcDbEntity
  8
1
  6
CONTINUOUS
 62
     7
100
AcDb2dPolyline
 66
     1
 10
0.0
 20
0.0
 30
0.0
  0
VERTEX
  5
557
100
AcDbEntity
  8
1
  6
CONTINUOUS
 62
     7
100
AcDbVertex
100
AcDb2dVertex
 10
505.593
 20
420.476
 30
0.0
  0
VERTEX
  5
558
100
AcDbEntity
  8
1
  6
CONTINUOUS
 62
     7
100
AcDbVertex
100
AcDb2dVertex
 10
505.347
 20
420.385
 30
0.0
  0
VERTEX
  5
559
100
AcDbEntity
  8
1
  6
CONTINUOUS
 62
     7
100
AcDbVertex
100
AcDb2dVertex
 10
505.101
 20
420.295
 30
0.0
  0
VERTEX
  5
55A
100
AcDbEntity
  8
1
  6
CONTINUOUS
 62
     7
100
AcDbVertex
100
AcDb2dVertex
 10
504.855
 20
420.204
 30
0.0
  0
VERTEX
  5
55B
100
AcDbEntity
  8
1
  6
CONTINUOUS
 62
     7
100
AcDbVertex
100
AcDb2dVertex
 10
504.61
 20
420.113
 30
0.0
  0
VERTEX
  5
55C
100
AcDbEntity
  8
1
  6
CONTINUOUS
 62
     7
100
AcDbVertex
100
AcDb2dVertex
 10
504.364
 20
420.023
 30
0.0
  0
VERTEX
  5
55D
100
AcDbEntity
  8
1
  6
CONTINUOUS
 62
     7
100
AcDbVertex
100
AcDb2dVertex
 10
504.118
 20
419.933
 30
0.0
  0
VERTEX
  5
55E
100
AcDbEntity
  8
1
  6
CONTINUOUS
 62
     7
100
AcDbVertex
100
AcDb2dVertex
 10
503.872
 20
419.843
 30
0.0
  0
VERTEX
  5
55F
100
AcDbEntity
  8
1
  6
CONTINUOUS
 62
     7
100
AcDbVertex
100
AcDb2dVertex
 10
503.627
 20
419.753
 30
0.0
  0
VERTEX
  5
560
100
AcDbEntity
  8
1
  6
CONTINUOUS
 62
     7
100
AcDbVertex
100
AcDb2dVertex
 10
503.381
 20
419.663
 30
0.0
  0
VERTEX
  5
561
100
AcDbEntity
  8
1
  6
CONTINUOUS
 62
     7
100
AcDbVertex
100
AcDb2dVertex
 10
503.135
 20
419.574
 30
0.0
  0
VERTEX
  5
562
100
AcDbEntity
  8
1
  6
CONTINUOUS
 62
     7
100
AcDbVertex
100
AcDb2dVertex
 10
502.889
 20
419.485
 30
0.0
  0
VERTEX
  5
563
100
AcDbEntity
  8
1
  6
CONTINUOUS
 62
     7
100
AcDbVertex
100
AcDb2dVertex
 10
502.642
 20
419.396
 30
0.0
  0
VERTEX
  5
564
100
AcDbEntity
  8
1
  6
CONTINUOUS
 62
     7
100
AcDbVertex
100
AcDb2dVertex
 10
502.396
 20
419.308
 30
0.0
  0
VERTEX
  5
565
100
AcDbEntity
  8
1
  6
CONTINUOUS
 62
     7
100
AcDbVertex
100
AcDb2dVertex
 10
502.15
 20
419.22
 30
0.0
  0
VERTEX
  5
566
100
AcDbEntity
  8
1
  6
CONTINUOUS
 62
     7
100
AcDbVertex
100
AcDb2dVertex
 10
501.904
 20
419.132
 30
0.0
  0
VERTEX
  5
567
100
AcDbEntity
  8
1
  6
CONTINUOUS
 62
     7
100
AcDbVertex
100
AcDb2dVertex
 10
501.657
 20
419.045
 30
0.0
  0
VERTEX
  5
568
100
AcDbEntity
  8
1
  6
CONTINUOUS
 62
     7
100
AcDbVertex
100
AcDb2dVertex
 10
501.411
 20
418.958
 30
0.0
  0
VERTEX
  5
569
100
AcDbEntity
  8
1
  6
CONTINUOUS
 62
     7
100
AcDbVertex
100
AcDb2dVertex
 10
501.164
 20
418.872
 30
0.0
  0
VERTEX
  5
56A
100
AcDbEntity
  8
1
  6
CONTINUOUS
 62
     7
100
AcDbVertex
100
AcDb2dVertex
 10
500.917
 20
418.787
 30
0.0
  0
VERTEX
  5
56B
100
AcDbEntity
  8
1
  6
CONTINUOUS
 62
     7
100
AcDbVertex
100
AcDb2dVertex
 10
500.67
 20
418.702
 30
0.0
  0
VERTEX
  5
56C
100
AcDbEntity
  8
1
  6
CONTINUOUS
 62
     7
100
AcDbVertex
100
AcDb2dVertex
 10
500.423
 20
418.617
 30
0.0
  0
VERTEX
  5
56D
100
AcDbEntity
  8
1
  6
CONTINUOUS
 62
     7
100
AcDbVertex
100
AcDb2dVertex
 10
500.176
 20
418.534
 30
0.0
  0
VERTEX
  5
56E
100
AcDbEntity
  8
1
  6
CONTINUOUS
 62
     7
100
AcDbVertex
100
AcDb2dVertex
 10
499.928
 20
418.451
 30
0.0
  0
VERTEX
  5
56F
100
AcDbEntity
  8
1
  6
CONTINUOUS
 62
     7
100
AcDbVertex
100
AcDb2dVertex
 10
499.681
 20
418.368
 30
0.0
  0
VERTEX
  5
570
100
AcDbEntity
  8
1
  6
CONTINUOUS
 62
     7
100
AcDbVertex
100
AcDb2dVertex
 10
499.433
 20
418.287
 30
0.0
  0
VERTEX
  5
571
100
AcDbEntity
  8
1
  6
CONTINUOUS
 62
     7
100
AcDbVertex
100
AcDb2dVertex
 10
499.185
 20
418.206
 30
0.0
  0
VERTEX
  5
572
100
AcDbEntity
  8
1
  6
CONTINUOUS
 62
     7
100
AcDbVertex
100
AcDb2dVertex
 10
498.937
 20
418.126
 30
0.0
  0
VERTEX
  5
573
100
AcDbEntity
  8
1
  6
CONTINUOUS
 62
     7
100
AcDbVertex
100
AcDb2dVertex
 10
498.689
 20
418.046
 30
0.0
  0
VERTEX
  5
574
100
AcDbEntity
  8
1
  6
CONTINUOUS
 62
     7
100
AcDbVertex
100
AcDb2dVertex
 10
498.441
 20
417.968
 30
0.0
  0
VERTEX
  5
575
100
AcDbEntity
  8
1
  6
CONTINUOUS
 62
     7
100
AcDbVertex
100
AcDb2dVertex
 10
498.192
 20
417.89
 30
0.0
  0
VERTEX
  5
576
100
AcDbEntity
  8
1
  6
CONTINUOUS
 62
     7
100
AcDbVertex
100
AcDb2dVertex
 10
497.943
 20
417.814
 30
0.0
  0
VERTEX
  5
577
100
AcDbEntity
  8
1
  6
CONTINUOUS
 62
     7
100
AcDbVertex
100
AcDb2dVertex
 10
497.694
 20
417.738
 30
0.0
  0
VERTEX
  5
578
100
AcDbEntity
  8
1
  6
CONTINUOUS
 62
     7
100
AcDbVertex
100
AcDb2dVertex
 10
497.445
 20
417.663
 30
0.0
  0
VERTEX
  5
579
100
AcDbEntity
  8
1
  6
CONTINUOUS
 62
     7
100
AcDbVertex
100
AcDb2dVertex
 10
497.196
 20
417.589
 30
0.0
  0
VERTEX
  5
57A
100
AcDbEntity
  8
1
  6
CONTINUOUS
 62
     7
100
AcDbVertex
100
AcDb2dVertex
 10
496.946
 20
417.517
 30
0.0
  0
VERTEX
  5
57B
100
AcDbEntity
  8
1
  6
CONTINUOUS
 62
     7
100
AcDbVertex
100
AcDb2dVertex
 10
496.696
 20
417.445
 30
0.0
  0
VERTEX
  5
57C
100
AcDbEntity
  8
1
  6
CONTINUOUS
 62
     7
100
AcDbVertex
100
AcDb2dVertex
 10
496.446
 20
417.374
 30
0.0
  0
VERTEX
  5
57D
100
AcDbEntity
  8
1
  6
CONTINUOUS
 62
     7
100
AcDbVertex
100
AcDb2dVertex
 10
496.196
 20
417.305
 30
0.0
  0
VERTEX
  5
57E
100
AcDbEntity
  8
1
  6
CONTINUOUS
 62
     7
100
AcDbVertex
100
AcDb2dVertex
 10
495.945
 20
417.236
 30
0.0
  0
VERTEX
  5
57F
100
AcDbEntity
  8
1
  6
CONTINUOUS
 62
     7
100
AcDbVertex
100
AcDb2dVertex
 10
495.694
 20
417.169
 30
0.0
  0
VERTEX
  5
580
100
AcDbEntity
  8
1
  6
CONTINUOUS
 62
     7
100
AcDbVertex
100
AcDb2dVertex
 10
495.443
 20
417.103
 30
0.0
  0
VERTEX
  5
581
100
AcDbEntity
  8
1
  6
CONTINUOUS
 62
     7
100
AcDbVertex
100
AcDb2dVertex
 10
495.192
 20
417.039
 30
0.0
  0
VERTEX
  5
582
100
AcDbEntity
  8
1
  6
CONTINUOUS
 62
     7
100
AcDbVertex
100
AcDb2dVertex
 10
494.94
 20
416.975
 30
0.0
  0
VERTEX
  5
583
100
AcDbEntity
  8
1
  6
CONTINUOUS
 62
     7
100
AcDbVertex
100
AcDb2dVertex
 10
494.688
 20
416.913
 30
0.0
  0
VERTEX
  5
584
100
AcDbEntity
  8
1
  6
CONTINUOUS
 62
     7
100
AcDbVertex
100
AcDb2dVertex
 10
494.436
 20
416.852
 30
0.0
  0
VERTEX
  5
585
100
AcDbEntity
  8
1
  6
CONTINUOUS
 62
     7
100
AcDbVertex
100
AcDb2dVertex
 10
494.183
 20
416.793
 30
0.0
  0
VERTEX
  5
586
100
AcDbEntity
  8
1
  6
CONTINUOUS
 62
     7
100
AcDbVertex
100
AcDb2dVertex
 10
493.93
 20
416.735
 30
0.0
  0
VERTEX
  5
587
100
AcDbEntity
  8
1
  6
CONTINUOUS
 62
     7
100
AcDbVertex
100
AcDb2dVertex
 10
493.677
 20
416.678
 30
0.0
  0
VERTEX
  5
588
100
AcDbEntity
  8
1
  6
CONTINUOUS
 62
     7
100
AcDbVertex
100
AcDb2dVertex
 10
493.423
 20
416.623
 30
0.0
  0
VERTEX
  5
589
100
AcDbEntity
  8
1
  6
CONTINUOUS
 62
     7
100
AcDbVertex
100
AcDb2dVertex
 10
493.169
 20
416.569
 30
0.0
  0
VERTEX
  5
58A
100
AcDbEntity
  8
1
  6
CONTINUOUS
 62
     7
100
AcDbVertex
100
AcDb2dVertex
 10
492.915
 20
416.517
 30
0.0
  0
VERTEX
  5
58B
100
AcDbEntity
  8
1
  6
CONTINUOUS
 62
     7
100
AcDbVertex
100
AcDb2dVertex
 10
492.661
 20
416.466
 30
0.0
  0
VERTEX
  5
58C
100
AcDbEntity
  8
1
  6
CONTINUOUS
 62
     7
100
AcDbVertex
100
AcDb2dVertex
 10
492.406
 20
416.417
 30
0.0
  0
VERTEX
  5
58D
100
AcDbEntity
  8
1
  6
CONTINUOUS
 62
     7
100
AcDbVertex
100
AcDb2dVertex
 10
492.151
 20
416.37
 30
0.0
  0
VERTEX
  5
58E
100
AcDbEntity
  8
1
  6
CONTINUOUS
 62
     7
100
AcDbVertex
100
AcDb2dVertex
 10
491.895
 20
416.324
 30
0.0
  0
VERTEX
  5
58F
100
AcDbEntity
  8
1
  6
CONTINUOUS
 62
     7
100
AcDbVertex
100
AcDb2dVertex
 10
491.639
 20
416.28
 30
0.0
  0
VERTEX
  5
590
100
AcDbEntity
  8
1
  6
CONTINUOUS
 62
     7
100
AcDbVertex
100
AcDb2dVertex
 10
491.383
 20
416.237
 30
0.0
  0
VERTEX
  5
591
100
AcDbEntity
  8
1
  6
CONTINUOUS
 62
     7
100
AcDbVertex
100
AcDb2dVertex
 10
491.126
 20
416.196
 30
0.0
  0
VERTEX
  5
592
100
AcDbEntity
  8
1
  6
CONTINUOUS
 62
     7
100
AcDbVertex
100
AcDb2dVertex
 10
490.869
 20
416.157
 30
0.0
  0
VERTEX
  5
593
100
AcDbEntity
  8
1
  6
CONTINUOUS
 62
     7
100
AcDbVertex
100
AcDb2dVertex
 10
490.612
 20
416.12
 30
0.0
  0
VERTEX
  5
594
100
AcDbEntity
  8
1
  6
CONTINUOUS
 62
     7
100
AcDbVertex
100
AcDb2dVertex
 10
490.354
 20
416.084
 30
0.0
  0
VERTEX
  5
595
100
AcDbEntity
  8
1
  6
CONTINUOUS
 62
     7
100
AcDbVertex
100
AcDb2dVertex
 10
490.096
 20
416.05
 30
0.0
  0
VERTEX
  5
596
100
AcDbEntity
  8
1
  6
CONTINUOUS
 62
     7
100
AcDbVertex
100
AcDb2dVertex
 10
489.837
 20
416.018
 30
0.0
  0
VERTEX
  5
597
100
AcDbEntity
  8
1
  6
CONTINUOUS
 62
     7
100
AcDbVertex
100
AcDb2dVertex
 10
489.579
 20
415.987
 30
0.0
  0
VERTEX
  5
598
100
AcDbEntity
  8
1
  6
CONTINUOUS
 62
     7
100
AcDbVertex
100
AcDb2dVertex
 10
489.32
 20
415.958
 30
0.0
  0
VERTEX
  5
599
100
AcDbEntity
  8
1
  6
CONTINUOUS
 62
     7
100
AcDbVertex
100
AcDb2dVertex
 10
489.06
 20
415.93
 30
0.0
  0
VERTEX
  5
59A
100
AcDbEntity
  8
1
  6
CONTINUOUS
 62
     7
100
AcDbVertex
100
AcDb2dVertex
 10
488.801
 20
415.905
 30
0.0
  0
VERTEX
  5
59B
100
AcDbEntity
  8
1
  6
CONTINUOUS
 62
     7
100
AcDbVertex
100
AcDb2dVertex
 10
488.541
 20
415.881
 30
0.0
  0
VERTEX
  5
59C
100
AcDbEntity
  8
1
  6
CONTINUOUS
 62
     7
100
AcDbVertex
100
AcDb2dVertex
 10
488.281
 20
415.858
 30
0.0
  0
VERTEX
  5
59D
100
AcDbEntity
  8
1
  6
CONTINUOUS
 62
     7
100
AcDbVertex
100
AcDb2dVertex
 10
488.021
 20
415.837
 30
0.0
  0
VERTEX
  5
59E
100
AcDbEntity
  8
1
  6
CONTINUOUS
 62
     7
100
AcDbVertex
100
AcDb2dVertex
 10
487.76
 20
415.818
 30
0.0
  0
VERTEX
  5
59F
100
AcDbEntity
  8
1
  6
CONTINUOUS
 62
     7
100
AcDbVertex
100
AcDb2dVertex
 10
487.5
 20
415.8
 30
0.0
  0
VERTEX
  5
5A0
100
AcDbEntity
  8
1
  6
CONTINUOUS
 62
     7
100
AcDbVertex
100
AcDb2dVertex
 10
487.239
 20
415.784
 30
0.0
  0
VERTEX
  5
5A1
100
AcDbEntity
  8
1
  6
CONTINUOUS
 62
     7
100
AcDbVertex
100
AcDb2dVertex
 10
486.978
 20
415.77
 30
0.0
  0
VERTEX
  5
5A2
100
AcDbEntity
  8
1
  6
CONTINUOUS
 62
     7
100
AcDbVertex
100
AcDb2dVertex
 10
486.716
 20
415.757
 30
0.0
  0
VERTEX
  5
5A3
100
AcDbEntity
  8
1
  6
CONTINUOUS
 62
     7
100
AcDbVertex
100
AcDb2dVertex
 10
486.455
 20
415.746
 30
0.0
  0
VERTEX
  5
5A4
100
AcDbEntity
  8
1
  6
CONTINUOUS
 62
     7
100
AcDbVertex
100
AcDb2dVertex
 10
486.193
 20
415.736
 30
0.0
  0
VERTEX
  5
5A5
100
AcDbEntity
  8
1
  6
CONTINUOUS
 62
     7
100
AcDbVertex
100
AcDb2dVertex
 10
485.932
 20
415.728
 30
0.0
  0
VERTEX
  5
5A6
100
AcDbEntity
  8
1
  6
CONTINUOUS
 62
     7
100
AcDbVertex
100
AcDb2dVertex
 10
485.67
 20
415.722
 30
0.0
  0
VERTEX
  5
5A7
100
AcDbEntity
  8
1
  6
CONTINUOUS
 62
     7
100
AcDbVertex
100
AcDb2dVertex
 10
485.408
 20
415.717
 30
0.0
  0
VERTEX
  5
5A8
100
AcDbEntity
  8
1
  6
CONTINUOUS
 62
     7
100
AcDbVertex
100
AcDb2dVertex
 10
485.146
 20
415.714
 30
0.0
  0
VERTEX
  5
5A9
100
AcDbEntity
  8
1
  6
CONTINUOUS
 62
     7
100
AcDbVertex
100
AcDb2dVertex
 10
484.884
 20
415.712
 30
0.0
  0
VERTEX
  5
5AA
100
AcDbEntity
  8
1
  6
CONTINUOUS
 62
     7
100
AcDbVertex
100
AcDb2dVertex
 10
484.621
 20
415.712
 30
0.0
  0
VERTEX
  5
5AB
100
AcDbEntity
  8
1
  6
CONTINUOUS
 62
     7
100
AcDbVertex
100
AcDb2dVertex
 10
484.359
 20
415.713
 30
0.0
  0
VERTEX
  5
5AC
100
AcDbEntity
  8
1
  6
CONTINUOUS
 62
     7
100
AcDbVertex
100
AcDb2dVertex
 10
484.097
 20
415.716
 30
0.0
  0
VERTEX
  5
5AD
100
AcDbEntity
  8
1
  6
CONTINUOUS
 62
     7
100
AcDbVertex
100
AcDb2dVertex
 10
483.834
 20
415.72
 30
0.0
  0
VERTEX
  5
5AE
100
AcDbEntity
  8
1
  6
CONTINUOUS
 62
     7
100
AcDbVertex
100
AcDb2dVertex
 10
483.572
 20
415.726
 30
0.0
  0
VERTEX
  5
5AF
100
AcDbEntity
  8
1
  6
CONTINUOUS
 62
     7
100
AcDbVertex
100
AcDb2dVertex
 10
483.309
 20
415.734
 30
0.0
  0
VERTEX
  5
5B0
100
AcDbEntity
  8
1
  6
CONTINUOUS
 62
     7
100
AcDbVertex
100
AcDb2dVertex
 10
483.047
 20
415.743
 30
0.0
  0
VERTEX
  5
5B1
100
AcDbEntity
  8
1
  6
CONTINUOUS
 62
     7
100
AcDbVertex
100
AcDb2dVertex
 10
482.784
 20
415.753
 30
0.0
  0
VERTEX
  5
5B2
100
AcDbEntity
  8
1
  6
CONTINUOUS
 62
     7
100
AcDbVertex
100
AcDb2dVertex
 10
482.522
 20
415.765
 30
0.0
  0
VERTEX
  5
5B3
100
AcDbEntity
  8
1
  6
CONTINUOUS
 62
     7
100
AcDbVertex
100
AcDb2dVertex
 10
482.259
 20
415.779
 30
0.0
  0
VERTEX
  5
5B4
100
AcDbEntity
  8
1
  6
CONTINUOUS
 62
     7
100
AcDbVertex
100
AcDb2dVertex
 10
481.996
 20
415.794
 30
0.0
  0
VERTEX
  5
5B5
100
AcDbEntity
  8
1
  6
CONTINUOUS
 62
     7
100
AcDbVertex
100
AcDb2dVertex
 10
481.734
 20
415.81
 30
0.0
  0
VERTEX
  5
5B6
100
AcDbEntity
  8
1
  6
CONTINUOUS
 62
     7
100
AcDbVertex
100
AcDb2dVertex
 10
481.472
 20
415.828
 30
0.0
  0
VERTEX
  5
5B7
100
AcDbEntity
  8
1
  6
CONTINUOUS
 62
     7
100
AcDbVertex
100
AcDb2dVertex
 10
481.209
 20
415.848
 30
0.0
  0
VERTEX
  5
5B8
100
AcDbEntity
  8
1
  6
CONTINUOUS
 62
     7
100
AcDbVertex
100
AcDb2dVertex
 10
480.947
 20
415.868
 30
0.0
  0
VERTEX
  5
5B9
100
AcDbEntity
  8
1
  6
CONTINUOUS
 62
     7
100
AcDbVertex
100
AcDb2dVertex
 10
480.685
 20
415.891
 30
0.0
  0
VERTEX
  5
5BA
100
AcDbEntity
  8
1
  6
CONTINUOUS
 62
     7
100
AcDbVertex
100
AcDb2dVertex
 10
480.423
 20
415.915
 30
0.0
  0
VERTEX
  5
5BB
100
AcDbEntity
  8
1
  6
CONTINUOUS
 62
     7
100
AcDbVertex
100
AcDb2dVertex
 10
480.161
 20
415.94
 30
0.0
  0
VERTEX
  5
5BC
100
AcDbEntity
  8
1
  6
CONTINUOUS
 62
     7
100
AcDbVertex
100
AcDb2dVertex
 10
479.899
 20
415.967
 30
0.0
  0
VERTEX
  5
5BD
100
AcDbEntity
  8
1
  6
CONTINUOUS
 62
     7
100
AcDbVertex
100
AcDb2dVertex
 10
479.637
 20
415.995
 30
0.0
  0
VERTEX
  5
5BE
100
AcDbEntity
  8
1
  6
CONTINUOUS
 62
     7
100
AcDbVertex
100
AcDb2dVertex
 10
479.375
 20
416.024
 30
0.0
  0
VERTEX
  5
5BF
100
AcDbEntity
  8
1
  6
CONTINUOUS
 62
     7
100
AcDbVertex
100
AcDb2dVertex
 10
479.114
 20
416.055
 30
0.0
  0
VERTEX
  5
5C0
100
AcDbEntity
  8
1
  6
CONTINUOUS
 62
     7
100
AcDbVertex
100
AcDb2dVertex
 10
478.853
 20
416.088
 30
0.0
  0
VERTEX
  5
5C1
100
AcDbEntity
  8
1
  6
CONTINUOUS
 62
     7
100
AcDbVertex
100
AcDb2dVertex
 10
478.592
 20
416.122
 30
0.0
  0
VERTEX
  5
5C2
100
AcDbEntity
  8
1
  6
CONTINUOUS
 62
     7
100
AcDbVertex
100
AcDb2dVertex
 10
478.331
 20
416.157
 30
0.0
  0
VERTEX
  5
5C3
100
AcDbEntity
  8
1
  6
CONTINUOUS
 62
     7
100
AcDbVertex
100
AcDb2dVertex
 10
478.07
 20
416.194
 30
0.0
  0
VERTEX
  5
5C4
100
AcDbEntity
  8
1
  6
CONTINUOUS
 62
     7
100
AcDbVertex
100
AcDb2dVertex
 10
477.809
 20
416.232
 30
0.0
  0
VERTEX
  5
5C5
100
AcDbEntity
  8
1
  6
CONTINUOUS
 62
     7
100
AcDbVertex
100
AcDb2dVertex
 10
477.549
 20
416.271
 30
0.0
  0
VERTEX
  5
5C6
100
AcDbEntity
  8
1
  6
CONTINUOUS
 62
     7
100
AcDbVertex
100
AcDb2dVertex
 10
477.289
 20
416.312
 30
0.0
  0
VERTEX
  5
5C7
100
AcDbEntity
  8
1
  6
CONTINUOUS
 62
     7
100
AcDbVertex
100
AcDb2dVertex
 10
477.029
 20
416.354
 30
0.0
  0
VERTEX
  5
5C8
100
AcDbEntity
  8
1
  6
CONTINUOUS
 62
     7
100
AcDbVertex
100
AcDb2dVertex
 10
476.77
 20
416.398
 30
0.0
  0
VERTEX
  5
5C9
100
AcDbEntity
  8
1
  6
CONTINUOUS
 62
     7
100
AcDbVertex
100
AcDb2dVertex
 10
476.51
 20
416.443
 30
0.0
  0
VERTEX
  5
5CA
100
AcDbEntity
  8
1
  6
CONTINUOUS
 62
     7
100
AcDbVertex
100
AcDb2dVertex
 10
476.251
 20
416.489
 30
0.0
  0
VERTEX
  5
5CB
100
AcDbEntity
  8
1
  6
CONTINUOUS
 62
     7
100
AcDbVertex
100
AcDb2dVertex
 10
475.992
 20
416.537
 30
0.0
  0
VERTEX
  5
5CC
100
AcDbEntity
  8
1
  6
CONTINUOUS
 62
     7
100
AcDbVertex
100
AcDb2dVertex
 10
475.734
 20
416.586
 30
0.0
  0
VERTEX
  5
5CD
100
AcDbEntity
  8
1
  6
CONTINUOUS
 62
     7
100
AcDbVertex
100
AcDb2dVertex
 10
475.476
 20
416.636
 30
0.0
  0
VERTEX
  5
5CE
100
AcDbEntity
  8
1
  6
CONTINUOUS
 62
     7
100
AcDbVertex
100
AcDb2dVertex
 10
475.218
 20
416.688
 30
0.0
  0
VERTEX
  5
5CF
100
AcDbEntity
  8
1
  6
CONTINUOUS
 62
     7
100
AcDbVertex
100
AcDb2dVertex
 10
474.961
 20
416.741
 30
0.0
  0
VERTEX
  5
5D0
100
AcDbEntity
  8
1
  6
CONTINUOUS
 62
     7
100
AcDbVertex
100
AcDb2dVertex
 10
474.703
 20
416.795
 30
0.0
  0
VERTEX
  5
5D1
100
AcDbEntity
  8
1
  6
CONTINUOUS
 62
     7
100
AcDbVertex
100
AcDb2dVertex
 10
474.447
 20
416.851
 30
0.0
  0
VERTEX
  5
5D2
100
AcDbEntity
  8
1
  6
CONTINUOUS
 62
     7
100
AcDbVertex
100
AcDb2dVertex
 10
474.19
 20
416.908
 30
0.0
  0
VERTEX
  5
5D3
100
AcDbEntity
  8
1
  6
CONTINUOUS
 62
     7
100
AcDbVertex
100
AcDb2dVertex
 10
473.934
 20
416.967
 30
0.0
  0
VERTEX
  5
5D4
100
AcDbEntity
  8
1
  6
CONTINUOUS
 62
     7
100
AcDbVertex
100
AcDb2dVertex
 10
473.679
 20
417.026
 30
0.0
  0
VERTEX
  5
5D5
100
AcDbEntity
  8
1
  6
CONTINUOUS
 62
     7
100
AcDbVertex
100
AcDb2dVertex
 10
473.423
 20
417.087
 30
0.0
  0
VERTEX
  5
5D6
100
AcDbEntity
  8
1
  6
CONTINUOUS
 62
     7
100
AcDbVertex
100
AcDb2dVertex
 10
473.169
 20
417.149
 30
0.0
  0
VERTEX
  5
5D7
100
AcDbEntity
  8
1
  6
CONTINUOUS
 62
     7
100
AcDbVertex
100
AcDb2dVertex
 10
472.914
 20
417.213
 30
0.0
  0
VERTEX
  5
5D8
100
AcDbEntity
  8
1
  6
CONTINUOUS
 62
     7
100
AcDbVertex
100
AcDb2dVertex
 10
472.66
 20
417.278
 30
0.0
  0
VERTEX
  5
5D9
100
AcDbEntity
  8
1
  6
CONTINUOUS
 62
     7
100
AcDbVertex
100
AcDb2dVertex
 10
472.407
 20
417.344
 30
0.0
  0
VERTEX
  5
5DA
100
AcDbEntity
  8
1
  6
CONTINUOUS
 62
     7
100
AcDbVertex
100
AcDb2dVertex
 10
472.154
 20
417.411
 30
0.0
  0
VERTEX
  5
5DB
100
AcDbEntity
  8
1
  6
CONTINUOUS
 62
     7
100
AcDbVertex
100
AcDb2dVertex
 10
471.901
 20
417.48
 30
0.0
  0
VERTEX
  5
5DC
100
AcDbEntity
  8
1
  6
CONTINUOUS
 62
     7
100
AcDbVertex
100
AcDb2dVertex
 10
471.649
 20
417.55
 30
0.0
  0
VERTEX
  5
5DD
100
AcDbEntity
  8
1
  6
CONTINUOUS
 62
     7
100
AcDbVertex
100
AcDb2dVertex
 10
471.397
 20
417.621
 30
0.0
  0
VERTEX
  5
5DE
100
AcDbEntity
  8
1
  6
CONTINUOUS
 62
     7
100
AcDbVertex
100
AcDb2dVertex
 10
471.146
 20
417.693
 30
0.0
  0
VERTEX
  5
5DF
100
AcDbEntity
  8
1
  6
CONTINUOUS
 62
     7
100
AcDbVertex
100
AcDb2dVertex
 10
470.895
 20
417.766
 30
0.0
  0
VERTEX
  5
5E0
100
AcDbEntity
  8
1
  6
CONTINUOUS
 62
     7
100
AcDbVertex
100
AcDb2dVertex
 10
470.645
 20
417.841
 30
0.0
  0
VERTEX
  5
5E1
100
AcDbEntity
  8
1
  6
CONTINUOUS
 62
     7
100
AcDbVertex
100
AcDb2dVertex
 10
470.396
 20
417.917
 30
0.0
  0
VERTEX
  5
5E2
100
AcDbEntity
  8
1
  6
CONTINUOUS
 62
     7
100
AcDbVertex
100
AcDb2dVertex
 10
470.146
 20
417.994
 30
0.0
  0
VERTEX
  5
5E3
100
AcDbEntity
  8
1
  6
CONTINUOUS
 62
     7
100
AcDbVertex
100
AcDb2dVertex
 10
469.897
 20
418.072
 30
0.0
  0
VERTEX
  5
5E4
100
AcDbEntity
  8
1
  6
CONTINUOUS
 62
     7
100
AcDbVertex
100
AcDb2dVertex
 10
469.649
 20
418.152
 30
0.0
  0
VERTEX
  5
5E5
100
AcDbEntity
  8
1
  6
CONTINUOUS
 62
     7
100
AcDbVertex
100
AcDb2dVertex
 10
469.401
 20
418.232
 30
0.0
  0
VERTEX
  5
5E6
100
AcDbEntity
  8
1
  6
CONTINUOUS
 62
     7
100
AcDbVertex
100
AcDb2dVertex
 10
469.153
 20
418.313
 30
0.0
  0
VERTEX
  5
5E7
100
AcDbEntity
  8
1
  6
CONTINUOUS
 62
     7
100
AcDbVertex
100
AcDb2dVertex
 10
468.906
 20
418.396
 30
0.0
  0
VERTEX
  5
5E8
100
AcDbEntity
  8
1
  6
CONTINUOUS
 62
     7
100
AcDbVertex
100
AcDb2dVertex
 10
468.659
 20
418.479
 30
0.0
  0
VERTEX
  5
5E9
100
AcDbEntity
  8
1
  6
CONTINUOUS
 62
     7
100
AcDbVertex
100
AcDb2dVertex
 10
468.413
 20
418.563
 30
0.0
  0
VERTEX
  5
5EA
100
AcDbEntity
  8
1
  6
CONTINUOUS
 62
     7
100
AcDbVertex
100
AcDb2dVertex
 10
468.167
 20
418.649
 30
0.0
  0
VERTEX
  5
5EB
100
AcDbEntity
  8
1
  6
CONTINUOUS
 62
     7
100
AcDbVertex
100
AcDb2dVertex
 10
467.921
 20
418.735
 30
0.0
  0
VERTEX
  5
5EC
100
AcDbEntity
  8
1
  6
CONTINUOUS
 62
     7
100
AcDbVertex
100
AcDb2dVertex
 10
467.676
 20
418.822
 30
0.0
  0
VERTEX
  5
5ED
100
AcDbEntity
  8
1
  6
CONTINUOUS
 62
     7
100
AcDbVertex
100
AcDb2dVertex
 10
467.431
 20
418.911
 30
0.0
  0
VERTEX
  5
5EE
100
AcDbEntity
  8
1
  6
CONTINUOUS
 62
     7
100
AcDbVertex
100
AcDb2dVertex
 10
467.187
 20
419.0
 30
0.0
  0
VERTEX
  5
5EF
100
AcDbEntity
  8
1
  6
CONTINUOUS
 62
     7
100
AcDbVertex
100
AcDb2dVertex
 10
466.943
 20
419.09
 30
0.0
  0
VERTEX
  5
5F0
100
AcDbEntity
  8
1
  6
CONTINUOUS
 62
     7
100
AcDbVertex
100
AcDb2dVertex
 10
466.699
 20
419.18
 30
0.0
  0
VERTEX
  5
5F1
100
AcDbEntity
  8
1
  6
CONTINUOUS
 62
     7
100
AcDbVertex
100
AcDb2dVertex
 10
466.455
 20
419.272
 30
0.0
  0
VERTEX
  5
5F2
100
AcDbEntity
  8
1
  6
CONTINUOUS
 62
     7
100
AcDbVertex
100
AcDb2dVertex
 10
466.212
 20
419.364
 30
0.0
  0
VERTEX
  5
5F3
100
AcDbEntity
  8
1
  6
CONTINUOUS
 62
     7
100
AcDbVertex
100
AcDb2dVertex
 10
465.969
 20
419.457
 30
0.0
  0
VERTEX
  5
5F4
100
AcDbEntity
  8
1
  6
CONTINUOUS
 62
     7
100
AcDbVertex
100
AcDb2dVertex
 10
465.726
 20
419.551
 30
0.0
  0
VERTEX
  5
5F5
100
AcDbEntity
  8
1
  6
CONTINUOUS
 62
     7
100
AcDbVertex
100
AcDb2dVertex
 10
465.484
 20
419.646
 30
0.0
  0
VERTEX
  5
5F6
100
AcDbEntity
  8
1
  6
CONTINUOUS
 62
     7
100
AcDbVertex
100
AcDb2dVertex
 10
465.242
 20
419.741
 30
0.0
  0
VERTEX
  5
5F7
100
AcDbEntity
  8
1
  6
CONTINUOUS
 62
     7
100
AcDbVertex
100
AcDb2dVertex
 10
465.0
 20
419.837
 30
0.0
  0
VERTEX
  5
5F8
100
AcDbEntity
  8
1
  6
CONTINUOUS
 62
     7
100
AcDbVertex
100
AcDb2dVertex
 10
464.759
 20
419.934
 30
0.0
  0
VERTEX
  5
5F9
100
AcDbEntity
  8
1
  6
CONTINUOUS
 62
     7
100
AcDbVertex
100
AcDb2dVertex
 10
464.517
 20
420.031
 30
0.0
  0
VERTEX
  5
5FA
100
AcDbEntity
  8
1
  6
CONTINUOUS
 62
     7
100
AcDbVertex
100
AcDb2dVertex
 10
464.276
 20
420.129
 30
0.0
  0
VERTEX
  5
5FB
100
AcDbEntity
  8
1
  6
CONTINUOUS
 62
     7
100
AcDbVertex
100
AcDb2dVertex
 10
464.035
 20
420.228
 30
0.0
  0
VERTEX
  5
5FC
100
AcDbEntity
  8
1
  6
CONTINUOUS
 62
     7
100
AcDbVertex
100
AcDb2dVertex
 10
463.795
 20
420.327
 30
0.0
  0
VERTEX
  5
5FD
100
AcDbEntity
  8
1
  6
CONTINUOUS
 62
     7
100
AcDbVertex
100
AcDb2dVertex
 10
463.554
 20
420.427
 30
0.0
  0
VERTEX
  5
5FE
100
AcDbEntity
  8
1
  6
CONTINUOUS
 62
     7
100
AcDbVertex
100
AcDb2dVertex
 10
463.314
 20
420.527
 30
0.0
  0
VERTEX
  5
5FF
100
AcDbEntity
  8
1
  6
CONTINUOUS
 62
     7
100
AcDbVertex
100
AcDb2dVertex
 10
463.074
 20
420.628
 30
0.0
  0
VERTEX
  5
600
100
AcDbEntity
  8
1
  6
CONTINUOUS
 62
     7
100
AcDbVertex
100
AcDb2dVertex
 10
462.835
 20
420.729
 30
0.0
  0
VERTEX
  5
601
100
AcDbEntity
  8
1
  6
CONTINUOUS
 62
     7
100
AcDbVertex
100
AcDb2dVertex
 10
462.595
 20
420.831
 30
0.0
  0
VERTEX
  5
602
100
AcDbEntity
  8
1
  6
CONTINUOUS
 62
     7
100
AcDbVertex
100
AcDb2dVertex
 10
462.356
 20
420.933
 30
0.0
  0
VERTEX
  5
603
100
AcDbEntity
  8
1
  6
CONTINUOUS
 62
     7
100
AcDbVertex
100
AcDb2dVertex
 10
462.117
 20
421.036
 30
0.0
  0
VERTEX
  5
604
100
AcDbEntity
  8
1
  6
CONTINUOUS
 62
     7
100
AcDbVertex
100
AcDb2dVertex
 10
461.877
 20
421.139
 30
0.0
  0
VERTEX
  5
605
100
AcDbEntity
  8
1
  6
CONTINUOUS
 62
     7
100
AcDbVertex
100
AcDb2dVertex
 10
461.639
 20
421.242
 30
0.0
  0
VERTEX
  5
606
100
AcDbEntity
  8
1
  6
CONTINUOUS
 62
     7
100
AcDbVertex
100
AcDb2dVertex
 10
461.4
 20
421.346
 30
0.0
  0
VERTEX
  5
607
100
AcDbEntity
  8
1
  6
CONTINUOUS
 62
     7
100
AcDbVertex
100
AcDb2dVertex
 10
461.161
 20
421.45
 30
0.0
  0
VERTEX
  5
608
100
AcDbEntity
  8
1
  6
CONTINUOUS
 62
     7
100
AcDbVertex
100
AcDb2dVertex
 10
460.923
 20
421.555
 30
0.0
  0
VERTEX
  5
609
100
AcDbEntity
  8
1
  6
CONTINUOUS
 62
     7
100
AcDbVertex
100
AcDb2dVertex
 10
460.684
 20
421.659
 30
0.0
  0
VERTEX
  5
60A
100
AcDbEntity
  8
1
  6
CONTINUOUS
 62
     7
100
AcDbVertex
100
AcDb2dVertex
 10
460.446
 20
421.764
 30
0.0
  0
VERTEX
  5
60B
100
AcDbEntity
  8
1
  6
CONTINUOUS
 62
     7
100
AcDbVertex
100
AcDb2dVertex
 10
460.208
 20
421.87
 30
0.0
  0
VERTEX
  5
60C
100
AcDbEntity
  8
1
  6
CONTINUOUS
 62
     7
100
AcDbVertex
100
AcDb2dVertex
 10
459.97
 20
421.975
 30
0.0
  0
VERTEX
  5
60D
100
AcDbEntity
  8
1
  6
CONTINUOUS
 62
     7
100
AcDbVertex
100
AcDb2dVertex
 10
459.732
 20
422.081
 30
0.0
  0
VERTEX
  5
60E
100
AcDbEntity
  8
1
  6
CONTINUOUS
 62
     7
100
AcDbVertex
100
AcDb2dVertex
 10
459.494
 20
422.187
 30
0.0
  0
VERTEX
  5
60F
100
AcDbEntity
  8
1
  6
CONTINUOUS
 62
     7
100
AcDbVertex
100
AcDb2dVertex
 10
459.256
 20
422.293
 30
0.0
  0
VERTEX
  5
610
100
AcDbEntity
  8
1
  6
CONTINUOUS
 62
     7
100
AcDbVertex
100
AcDb2dVertex
 10
459.018
 20
422.399
 30
0.0
  0
VERTEX
  5
611
100
AcDbEntity
  8
1
  6
CONTINUOUS
 62
     7
100
AcDbVertex
100
AcDb2dVertex
 10
458.781
 20
422.506
 30
0.0
  0
VERTEX
  5
612
100
AcDbEntity
  8
1
  6
CONTINUOUS
 62
     7
100
AcDbVertex
100
AcDb2dVertex
 10
458.543
 20
422.612
 30
0.0
  0
VERTEX
  5
613
100
AcDbEntity
  8
1
  6
CONTINUOUS
 62
     7
100
AcDbVertex
100
AcDb2dVertex
 10
458.305
 20
422.719
 30
0.0
  0
VERTEX
  5
614
100
AcDbEntity
  8
1
  6
CONTINUOUS
 62
     7
100
AcDbVertex
100
AcDb2dVertex
 10
458.068
 20
422.825
 30
0.0
  0
VERTEX
  5
615
100
AcDbEntity
  8
1
  6
CONTINUOUS
 62
     7
100
AcDbVertex
100
AcDb2dVertex
 10
457.83
 20
422.932
 30
0.0
  0
VERTEX
  5
616
100
AcDbEntity
  8
1
  6
CONTINUOUS
 62
     7
100
AcDbVertex
100
AcDb2dVertex
 10
457.593
 20
423.039
 30
0.0
  0
SEQEND
  5
617
100
AcDbEntity
  8
1
  6
CONTINUOUS
 62
     7
  0
LINE
  5
618
100
AcDbEntity
  8
1
  6
CONTINUOUS
 62
     7
100
AcDbLine
 10
491.533681
 20
443.550513
 30
0.0
 11
491.533681
 21
416.262
 31
0.0
  0
LINE
  5
619
100
AcDbEntity
  8
1
  6
CONTINUOUS
 62
     7
100
AcDbLine
 10
471.651429
 20
443.550513
 30
0.0
 11
471.651429
 21
417.436438
 31
0.0
  0
LINE
  5
61A
100
AcDbEntity
  8
1
  6
CONTINUOUS
 62
     7
100
AcDbLine
 10
441.592555
 20
370.692176
 30
0.0
 11
441.592555
 21
441.692176
 31
0.0
  0
LINE
  5
61B
100
AcDbEntity
  8
1
  6
CONTINUOUS
 62
     7
100
AcDbLine
 10
431.592555
 20
444.692176
 30
0.0
 11
431.592555
 21
370.692176
 31
0.0
  0
LINE
  5
61C
100
AcDbEntity
  8
1
  6
CONTINUOUS
 62
     7
100
AcDbLine
 10
431.592555
 20
370.692176
 30
0.0
 11
431.592555
 21
444.692176
 31
0.0
  0
ARC
  5
61D
100
AcDbEntity
  8
1
  6
CONTINUOUS
 62
     7
100
AcDbCircle
 10
502.592555
 20
398.236837
 30
0.0
 40
3.0
100
AcDbArc
 50
-86.999962
 51
0.0
  0
ARC
  5
61E
100
AcDbEntity
  8
1
  6
CONTINUOUS
 62
     7
100
AcDbCircle
 10
504.592555
 20
443.692176
 30
0.0
 40
1.0
100
AcDbArc
 50
0.0
 51
90.0
  0
LINE
  5
61F
100
AcDbEntity
  8
1
  6
CONTINUOUS
 62
     7
100
AcDbLine
 10
505.592555
 20
370.692176
 30
0.0
 11
505.592555
 21
443.692176
 31
0.0
  0
LINE
  5
620
100
AcDbEntity
  8
1
  6
CONTINUOUS
 62
     7
100
AcDbLine
 10
229.023772
 20
303.692176
 30
0.0
 11
229.023772
 21
298.692176
 31
0.0
  0
LINE
  5
621
100
AcDbEntity
  8
1
  6
CONTINUOUS
 62
     7
100
AcDbLine
 10
209.023772
 20
303.692176
 30
0.0
 11
229.023772
 21
303.692176
 31
0.0
  0
LINE
  5
622
100
AcDbEntity
  8
1
  6
CONTINUOUS
 62
     7
100
AcDbLine
 10
209.023772
 20
298.692176
 30
0.0
 11
209.023772
 21
303.692176
 31
0.0
  0
LINE
  5
623
100
AcDbEntity
  8
1
  6
CONTINUOUS
 62
     7
100
AcDbLine
 10
206.023772
 20
298.692176
 30
0.0
 11
206.023772
 21
320.692176
 31
0.0
  0
LINE
  5
624
100
AcDbEntity
  8
1
  6
CONTINUOUS
 62
     7
100
AcDbLine
 10
232.023772
 20
298.692176
 30
0.0
 11
206.023772
 21
298.692176
 31
0.0
  0
LINE
  5
625
100
AcDbEntity
  8
1
  6
CONTINUOUS
 62
     7
100
AcDbLine
 10
232.023772
 20
320.692176
 30
0.0
 11
232.023772
 21
298.692176
 31
0.0
  0
LINE
  5
626
100
AcDbEntity
  8
1
  6
CONTINUOUS
 62
     7
100
AcDbLine
 10
206.023772
 20
320.692176
 30
0.0
 11
232.023772
 21
320.692176
 31
0.0
  0
LINE
  5
627
100
AcDbEntity
  8
1
  6
CONTINUOUS
 62
     7
100
AcDbLine
 10
236.023772
 20
202.692178
 30
0.0
 11
219.023772
 21
202.692178
 31
0.0
  0
LINE
  5
628
100
AcDbEntity
  8
1
  6
CONTINUOUS
 62
     7
100
AcDbLine
 10
236.023772
 20
202.692178
 30
0.0
 11
241.023772
 21
197.692178
 31
0.0
  0
LINE
  5
629
100
AcDbEntity
  8
1
  6
CONTINUOUS
 62
     7
100
AcDbLine
 10
219.023772
 20
197.692178
 30
0.0
 11
267.523772
 21
197.692178
 31
0.0
  0
ARC
  5
62A
100
AcDbEntity
  8
1
  6
CONTINUOUS
 62
     7
100
AcDbCircle
 10
248.523772
 20
182.192178
 30
0.0
 40
0.5
100
AcDbArc
 50
89.999997
 51
180.0
  0
LINE
  5
62B
100
AcDbEntity
  8
1
  6
CONTINUOUS
 62
     7
100
AcDbLine
 10
219.023772
 20
230.402184
 30
0.0
 11
235.848273
 21
230.402184
 31
0.0
  0
LINE
  5
62C
100
AcDbEntity
  8
1
  6
CONTINUOUS
 62
     7
100
AcDbLine
 10
236.023772
 20
227.887925
 30
0.0
 11
219.023772
 21
227.887925
 31
0.0
  0
LINE
  5
62D
100
AcDbEntity
  8
1
  6
CONTINUOUS
 62
     7
100
AcDbLine
 10
234.368549
 20
230.402184
 30
0.0
 11
235.926841
 21
227.887925
 31
0.0
  0
LINE
  5
62E
100
AcDbEntity
  8
1
  6
CONTINUOUS
 62
     7
100
AcDbLine
 10
235.714208
 20
234.692176
 30
0.0
 11
235.926841
 21
227.887925
 31
0.0
  0
LINE
  5
62F
100
AcDbEntity
  8
1
  6
CONTINUOUS
 62
     7
100
AcDbLine
 10
234.234487
 20
234.692176
 30
0.0
 11
234.368549
 21
230.402184
 31
0.0
  0
LINE
  5
630
100
AcDbEntity
  8
1
  6
CONTINUOUS
 62
     7
100
AcDbLine
 10
236.023772
 20
202.692178
 30
0.0
 11
236.023772
 21
227.887925
 31
0.0
  0
LINE
  5
631
100
AcDbEntity
  8
1
  6
CONTINUOUS
 62
     7
100
AcDbLine
 10
219.023772
 20
181.692178
 30
0.0
 11
248.023772
 21
181.692178
 31
0.0
  0
LINE
  5
632
100
AcDbEntity
  8
1
  6
CONTINUOUS
 62
     7
100
AcDbLine
 10
219.023772
 20
182.692178
 30
0.0
 11
267.523772
 21
182.692178
 31
0.0
  0
LINE
  5
633
100
AcDbEntity
  8
1
  6
CONTINUOUS
 62
     7
100
AcDbLine
 10
248.023772
 20
181.692178
 30
0.0
 11
248.023772
 21
182.192178
 31
0.0
  0
ARC
  5
634
100
AcDbEntity
  8
1
  6
CONTINUOUS
 62
     7
100
AcDbCircle
 10
267.523772
 20
184.192178
 30
0.0
 40
1.5
100
AcDbArc
 50
-90.0
 51
0.0
  0
ARC
  5
635
100
AcDbEntity
  8
1
  6
CONTINUOUS
 62
     7
100
AcDbCircle
 10
267.523772
 20
196.192178
 30
0.0
 40
1.5
100
AcDbArc
 50
0.0
 51
90.0
  0
LINE
  5
636
100
AcDbEntity
  8
1
  6
CONTINUOUS
 62
     7
100
AcDbLine
 10
269.023772
 20
196.192178
 30
0.0
 11
269.023772
 21
184.192178
 31
0.0
  0
LINE
  5
637
100
AcDbEntity
  8
1
  6
CONTINUOUS
 62
     7
100
AcDbLine
 10
202.023772
 20
202.692178
 30
0.0
 11
219.023772
 21
202.692178
 31
0.0
  0
LINE
  5
638
100
AcDbEntity
  8
1
  6
CONTINUOUS
 62
     7
100
AcDbLine
 10
202.023772
 20
202.692178
 30
0.0
 11
197.023772
 21
197.692178
 31
0.0
  0
LINE
  5
639
100
AcDbEntity
  8
1
  6
CONTINUOUS
 62
     7
100
AcDbLine
 10
219.023772
 20
197.692178
 30
0.0
 11
170.523772
 21
197.692178
 31
0.0
  0
ARC
  5
63A
100
AcDbEntity
  8
1
  6
CONTINUOUS
 62
     7
100
AcDbCircle
 10
189.523772
 20
182.192178
 30
0.0
 40
0.5
100
AcDbArc
 50
0.0
 51
90.000003
  0
LINE
  5
63B
100
AcDbEntity
  8
1
  6
CONTINUOUS
 62
     7
100
AcDbLine
 10
219.023772
 20
230.402184
 30
0.0
 11
202.199271
 21
230.402184
 31
0.0
  0
LINE
  5
63C
100
AcDbEntity
  8
1
  6
CONTINUOUS
 62
     7
100
AcDbLine
 10
202.023772
 20
227.887925
 30
0.0
 11
219.023772
 21
227.887925
 31
0.0
  0
LINE
  5
63D
100
AcDbEntity
  8
1
  6
CONTINUOUS
 62
     7
100
AcDbLine
 10
203.678996
 20
230.402184
 30
0.0
 11
202.120704
 21
227.887925
 31
0.0
  0
LINE
  5
63E
100
AcDbEntity
  8
1
  6
CONTINUOUS
 62
     7
100
AcDbLine
 10
202.333337
 20
234.692176
 30
0.0
 11
202.120704
 21
227.887925
 31
0.0
  0
LINE
  5
63F
100
AcDbEntity
  8
1
  6
CONTINUOUS
 62
     7
100
AcDbLine
 10
203.813058
 20
234.692176
 30
0.0
 11
203.678996
 21
230.402184
 31
0.0
  0
LINE
  5
640
100
AcDbEntity
  8
1
  6
CONTINUOUS
 62
     7
100
AcDbLine
 10
202.023772
 20
202.692178
 30
0.0
 11
202.023772
 21
227.887925
 31
0.0
  0
LINE
  5
641
100
AcDbEntity
  8
1
  6
CONTINUOUS
 62
     7
100
AcDbLine
 10
219.023772
 20
181.692178
 30
0.0
 11
190.023772
 21
181.692178
 31
0.0
  0
LINE
  5
642
100
AcDbEntity
  8
1
  6
CONTINUOUS
 62
     7
100
AcDbLine
 10
219.023772
 20
182.692178
 30
0.0
 11
170.523772
 21
182.692178
 31
0.0
  0
LINE
  5
643
100
AcDbEntity
  8
1
  6
CONTINUOUS
 62
     7
100
AcDbLine
 10
190.023772
 20
181.692178
 30
0.0
 11
190.023772
 21
182.192178
 31
0.0
  0
ARC
  5
644
100
AcDbEntity
  8
1
  6
CONTINUOUS
 62
     7
100
AcDbCircle
 10
170.523772
 20
184.192178
 30
0.0
 40
1.5
100
AcDbArc
 50
180.0
 51
-90.0
  0
ARC
  5
645
100
AcDbEntity
  8
1
  6
CONTINUOUS
 62
     7
100
AcDbCircle
 10
170.523772
 20
196.192178
 30
0.0
 40
1.5
100
AcDbArc
 50
90.0
 51
180.0
  0
LINE
  5
646
100
AcDbEntity
  8
1
  6
CONTINUOUS
 62
     7
100
AcDbLine
 10
169.023772
 20
196.192178
 30
0.0
 11
169.023772
 21
184.192178
 31
0.0
  0
ARC
  5
647
100
AcDbEntity
  8
1
  6
CONTINUOUS
 62
     7
100
AcDbCircle
 10
219.023772
 20
370.692176
 30
0.0
 40
36.009773
100
AcDbArc
 50
-173.086938
 51
-6.970106
  0
ARC
  5
648
100
AcDbEntity
  8
1
  6
CONTINUOUS
 62
     7
100
AcDbCircle
 10
251.440108
 20
364.513081
 30
0.0
 40
1.0
100
AcDbArc
 50
85.293583
 51
109.962636
  0
ARC
  5
649
100
AcDbEntity
  8
1
  6
CONTINUOUS
 62
     7
100
AcDbCircle
 10
251.440108
 20
376.87127
 30
0.0
 40
1.0
100
AcDbArc
 50
-109.962636
 51
-85.293583
  0
ARC
  5
64A
100
AcDbEntity
  8
1
  6
CONTINUOUS
 62
     7
100
AcDbCircle
 10
186.608174
 20
364.509216
 30
0.0
 40
1.0
100
AcDbArc
 50
70.044193
 51
94.248917
  0
ARC
  5
64B
100
AcDbEntity
  8
1
  6
CONTINUOUS
 62
     7
100
AcDbCircle
 10
186.608174
 20
376.875135
 30
0.0
 40
1.0
100
AcDbArc
 50
-94.248917
 51
-70.044193
  0
ARC
  5
64C
100
AcDbEntity
  8
1
  6
CONTINUOUS
 62
     7
100
AcDbCircle
 10
251.948818
 20
370.692176
 30
0.0
 40
5.2
100
AcDbArc
 50
-94.706417
 51
94.706417
  0
ARC
  5
64D
100
AcDbEntity
  8
1
  6
CONTINUOUS
 62
     7
100
AcDbCircle
 10
186.148818
 20
370.692176
 30
0.0
 40
5.2
100
AcDbArc
 50
85.751083
 51
-85.751083
  0
LINE
  5
64E
100
AcDbEntity
  8
1
  6
CONTINUOUS
 62
     7
100
AcDbLine
 10
233.023772
 20
317.503833
 30
0.0
 11
233.023772
 21
298.028571
 31
0.0
  0
LINE
  5
64F
100
AcDbEntity
  8
1
  6
CONTINUOUS
 62
     7
100
AcDbLine
 10
232.023772
 20
320.692176
 30
0.0
 11
232.023772
 21
298.692176
 31
0.0
  0
LINE
  5
650
100
AcDbEntity
  8
1
  6
CONTINUOUS
 62
     7
100
AcDbLine
 10
212.023772
 20
325.692176
 30
0.0
 11
226.023772
 21
325.692176
 31
0.0
  0
LINE
  5
651
100
AcDbEntity
  8
1
  6
CONTINUOUS
 62
     7
100
AcDbLine
 10
211.023772
 20
334.021437
 30
0.0
 11
211.023772
 21
326.692176
 31
0.0
  0
ARC
  5
652
100
AcDbEntity
  8
1
  6
CONTINUOUS
 62
     7
100
AcDbCircle
 10
212.023772
 20
326.692176
 30
0.0
 40
1.0
100
AcDbArc
 50
179.999998
 51
-90.0
  0
ARC
  5
653
100
AcDbEntity
  8
1
  6
CONTINUOUS
 62
     7
100
AcDbCircle
 10
209.023772
 20
334.021437
 30
0.0
 40
2.0
100
AcDbArc
 50
0.000003
 51
74.746499
  0
LINE
  5
654
100
AcDbEntity
  8
1
  6
CONTINUOUS
 62
     7
100
AcDbLine
 10
227.023772
 20
334.021437
 30
0.0
 11
227.023772
 21
326.692176
 31
0.0
  0
ARC
  5
655
100
AcDbEntity
  8
1
  6
CONTINUOUS
 62
     7
100
AcDbCircle
 10
226.023772
 20
326.692176
 30
0.0
 40
1.0
100
AcDbArc
 50
-90.0
 51
0.000003
  0
LINE
  5
656
100
AcDbEntity
  8
1
  6
CONTINUOUS
 62
     7
100
AcDbLine
 10
205.023772
 20
317.503833
 30
0.0
 11
205.023772
 21
298.028571
 31
0.0
  0
LINE
  5
657
100
AcDbEntity
  8
1
  6
CONTINUOUS
 62
     7
100
AcDbLine
 10
206.023772
 20
320.692176
 30
0.0
 11
206.023772
 21
298.692176
 31
0.0
  0
LINE
  5
658
100
AcDbEntity
  8
1
  6
CONTINUOUS
 62
     7
100
AcDbLine
 10
232.023772
 20
298.692176
 30
0.0
 11
206.023772
 21
298.692176
 31
0.0
  0
LINE
  5
659
100
AcDbEntity
  8
1
  6
CONTINUOUS
 62
     7
100
AcDbLine
 10
232.023772
 20
320.692176
 30
0.0
 11
206.023772
 21
320.692176
 31
0.0
  0
ARC
  5
65A
100
AcDbEntity
  8
1
  6
CONTINUOUS
 62
     7
100
AcDbCircle
 10
229.023772
 20
334.021437
 30
0.0
 40
2.0
100
AcDbArc
 50
105.253501
 51
179.999998
  0
ARC
  5
65B
100
AcDbEntity
  8
1
  6
CONTINUOUS
 62
     7
100
AcDbCircle
 10
219.023772
 20
370.692176
 30
0.0
 40
55.0
100
AcDbArc
 50
-75.253358
 51
-104.746653
  0
CIRCLE
  5
65C
100
AcDbEntity
  8
1
  6
CONTINUOUS
 62
     7
100
AcDbCircle
 10
219.023772
 20
370.692176
 30
0.0
 40
32.5
  0
ARC
  5
65D
100
AcDbEntity
  8
1
  6
CONTINUOUS
 62
     7
100
AcDbCircle
 10
219.023772
 20
370.692176
 30
0.0
 40
36.009773
100
AcDbArc
 50
6.970106
 51
173.086938
  0
CIRCLE
  5
65E
100
AcDbEntity
  8
1
  6
CONTINUOUS
 62
     7
100
AcDbCircle
 10
219.023772
 20
370.692176
 30
0.0
 40
31.5
  0
CIRCLE
  5
65F
100
AcDbEntity
  8
1
  6
CONTINUOUS
 62
     7
100
AcDbCircle
 10
219.023772
 20
370.692176
 30
0.0
 40
74.0
  0
ARC
  5
660
100
AcDbEntity
  8
1
  6
CONTINUOUS
 62
     7
100
AcDbCircle
 10
236.77729
 20
469.213314
 30
0.0
 40
10.478864
100
AcDbArc
 50
64.384045
 51
124.384265
  0
ARC
  5
661
100
AcDbEntity
  8
1
  6
CONTINUOUS
 62
     7
100
AcDbCircle
 10
219.023772
 20
440.523164
 30
0.0
 40
39.169014
100
AcDbArc
 50
72.412046
 51
90.0
  0
ARC
  5
662
100
AcDbEntity
  8
1
  6
CONTINUOUS
 62
     7
100
AcDbCircle
 10
236.77729
 20
455.17104
 30
0.0
 40
10.478864
100
AcDbArc
 50
-124.38427
 51
-64.38405
  0
ARC
  5
663
100
AcDbEntity
  8
1
  6
CONTINUOUS
 62
     7
100
AcDbCircle
 10
219.023772
 20
483.861191
 30
0.0
 40
39.169014
100
AcDbArc
 50
-90.000005
 51
-72.412049
  0
ARC
  5
664
100
AcDbEntity
  8
1
  6
CONTINUOUS
 62
     7
100
AcDbCircle
 10
201.270255
 20
469.213314
 30
0.0
 40
10.478864
100
AcDbArc
 50
55.615735
 51
115.615955
  0
ARC
  5
665
100
AcDbEntity
  8
1
  6
CONTINUOUS
 62
     7
100
AcDbCircle
 10
219.023772
 20
440.523164
 30
0.0
 40
39.169014
100
AcDbArc
 50
90.0
 51
107.587954
  0
ARC
  5
666
100
AcDbEntity
  8
1
  6
CONTINUOUS
 62
     7
100
AcDbCircle
 10
201.270255
 20
455.17104
 30
0.0
 40
10.478864
100
AcDbArc
 50
-115.61596
 51
-55.61574
  0
ARC
  5
667
100
AcDbEntity
  8
1
  6
CONTINUOUS
 62
     7
100
AcDbCircle
 10
219.023772
 20
483.861191
 30
0.0
 40
39.169014
100
AcDbArc
 50
-107.587947
 51
-90.000005
  0
LINE
  5
668
100
AcDbEntity
  8
1
  6
CONTINUOUS
 62
     7
100
AcDbLine
 10
239.523772
 20
479.692178
 30
0.0
 11
219.023772
 21
479.692178
 31
0.0
  0
LINE
  5
669
100
AcDbEntity
  8
1
  6
CONTINUOUS
 62
     7
100
AcDbLine
 10
230.859453
 20
477.861191
 30
0.0
 11
230.859453
 21
446.523164
 31
0.0
  0
LINE
  5
66A
100
AcDbEntity
  8
1
  6
CONTINUOUS
 62
     7
100
AcDbLine
 10
242.695134
 20
477.861191
 30
0.0
 11
242.695134
 21
446.523164
 31
0.0
  0
LINE
  5
66B
100
AcDbEntity
  8
1
  6
CONTINUOUS
 62
     7
100
AcDbLine
 10
239.523772
 20
479.692178
 30
0.0
 11
242.695134
 21
477.861191
 31
0.0
  0
LINE
  5
66C
100
AcDbEntity
  8
1
  6
CONTINUOUS
 62
     7
100
AcDbLine
 10
239.523772
 20
444.692178
 30
0.0
 11
219.023772
 21
444.692178
 31
0.0
  0
LINE
  5
66D
100
AcDbEntity
  8
1
  6
CONTINUOUS
 62
     7
100
AcDbLine
 10
239.523772
 20
444.692178
 30
0.0
 11
242.695134
 21
446.523164
 31
0.0
  0
LINE
  5
66E
100
AcDbEntity
  8
1
  6
CONTINUOUS
 62
     7
100
AcDbLine
 10
198.523772
 20
479.692178
 30
0.0
 11
219.023772
 21
479.692178
 31
0.0
  0
LINE
  5
66F
100
AcDbEntity
  8
1
  6
CONTINUOUS
 62
     7
100
AcDbLine
 10
207.188091
 20
477.861191
 30
0.0
 11
207.188091
 21
446.523164
 31
0.0
  0
LINE
  5
670
100
AcDbEntity
  8
1
  6
CONTINUOUS
 62
     7
100
AcDbLine
 10
195.35241
 20
477.861191
 30
0.0
 11
195.35241
 21
446.523164
 31
0.0
  0
LINE
  5
671
100
AcDbEntity
  8
1
  6
CONTINUOUS
 62
     7
100
AcDbLine
 10
198.523772
 20
479.692178
 30
0.0
 11
195.35241
 21
477.861191
 31
0.0
  0
LINE
  5
672
100
AcDbEntity
  8
1
  6
CONTINUOUS
 62
     7
100
AcDbLine
 10
198.523772
 20
444.692178
 30
0.0
 11
219.023772
 21
444.692178
 31
0.0
  0
LINE
  5
673
100
AcDbEntity
  8
1
  6
CONTINUOUS
 62
     7
100
AcDbLine
 10
198.523772
 20
444.692178
 30
0.0
 11
195.35241
 21
446.523164
 31
0.0
  0
LINE
  5
674
100
AcDbEntity
  8
1
  6
CONTINUOUS
 62
     7
100
AcDbLine
 10
209.023772
 20
246.994967
 30
0.0
 11
209.023772
 21
234.692176
 31
0.0
  0
LINE
  5
675
100
AcDbEntity
  8
1
  6
CONTINUOUS
 62
     7
100
AcDbLine
 10
229.023772
 20
247.0304
 30
0.0
 11
229.023772
 21
234.692176
 31
0.0
  0
LINE
  5
676
100
AcDbEntity
  8
1
  6
CONTINUOUS
 62
     7
100
AcDbLine
 10
229.023772
 20
297.37236
 30
0.0
 11
229.023772
 21
282.353951
 31
0.0
  0
LINE
  5
677
100
AcDbEntity
  8
1
  6
CONTINUOUS
 62
     7
100
AcDbLine
 10
209.023772
 20
282.389385
 30
0.0
 11
209.023772
 21
297.36957
 31
0.0
  0
CIRCLE
  5
678
100
AcDbEntity
  8
1
  6
CONTINUOUS
 62
     7
100
AcDbCircle
 10
219.013544
 20
264.692176
 30
0.0
 40
2.0
  0
CIRCLE
  5
679
100
AcDbEntity
  8
1
  6
CONTINUOUS
 62
     7
100
AcDbCircle
 10
219.013544
 20
239.692176
 30
0.0
 40
2.0
  0
CIRCLE
  5
67A
100
AcDbEntity
  8
1
  6
CONTINUOUS
 62
     7
100
AcDbCircle
 10
219.013544
 20
289.692176
 30
0.0
 40
2.0
  0
LINE
  5
67B
100
AcDbEntity
  8
1
  6
CONTINUOUS
 62
     7
100
AcDbLine
 10
235.452769
 20
270.692332
 30
0.0
 11
237.017137
 21
270.692176
 31
0.0
  0
LINE
  5
67C
100
AcDbEntity
  8
1
  6
CONTINUOUS
 62
     7
100
AcDbLine
 10
201.017137
 20
270.695768
 30
0.0
 11
202.575517
 21
270.695612
 31
0.0
  0
LINE
  5
67D
100
AcDbEntity
  8
1
  6
CONTINUOUS
 62
     7
100
AcDbLine
 10
243.013544
 20
264.692176
 30
0.0
 11
237.017136
 21
270.688584
 31
0.0
  0
LINE
  5
67E
100
AcDbEntity
  8
1
  6
CONTINUOUS
 62
     7
100
AcDbLine
 10
201.017137
 20
270.695768
 30
0.0
 11
195.013544
 21
264.692176
 31
0.0
  0
ARC
  5
67F
100
AcDbEntity
  8
1
  6
CONTINUOUS
 62
     7
100
AcDbCircle
 10
219.013544
 20
264.692176
 30
0.0
 40
17.5
100
AcDbArc
 50
179.999998
 51
-150.000002
  0
LINE
  5
680
100
AcDbEntity
  8
1
  6
CONTINUOUS
 62
     7
100
AcDbLine
 10
201.513544
 20
264.692176
 30
0.0
 11
195.013544
 21
264.692176
 31
0.0
  0
ARC
  5
681
100
AcDbEntity
  8
1
  6
CONTINUOUS
 62
     7
100
AcDbCircle
 10
202.042981
 20
256.90386
 30
0.0
 40
22.211684
100
AcDbArc
 50
-108.449866
 51
-89.999073
  0
ARC
  5
682
100
AcDbEntity
  8
1
  6
CONTINUOUS
 62
     7
100
AcDbCircle
 10
196.013544
 20
235.692176
 30
0.0
 40
1.0
100
AcDbArc
 50
180.0
 51
-90.0
  0
LINE
  5
683
100
AcDbEntity
  8
1
  6
CONTINUOUS
 62
     7
100
AcDbLine
 10
195.013544
 20
300.692176
 30
0.0
 11
195.013544
 21
235.692176
 31
0.0
  0
ARC
  5
684
100
AcDbEntity
  8
1
  6
CONTINUOUS
 62
     7
100
AcDbCircle
 10
219.013544
 20
264.692176
 30
0.0
 40
17.5
100
AcDbArc
 50
149.999997
 51
179.999998
  0
ARC
  5
685
100
AcDbEntity
  8
1
  6
CONTINUOUS
 62
     7
100
AcDbCircle
 10
202.042982
 20
422.480493
 30
0.0
 40
22.211685
100
AcDbArc
 50
74.378028
 51
108.449867
  0
LINE
  5
686
100
AcDbEntity
  8
1
  6
CONTINUOUS
 62
     7
100
AcDbLine
 10
195.013544
 20
443.692178
 30
0.0
 11
195.013544
 21
440.692176
 31
0.0
  0
ARC
  5
687
100
AcDbEntity
  8
1
  6
CONTINUOUS
 62
     7
100
AcDbCircle
 10
219.013544
 20
264.692176
 30
0.0
 40
17.5
100
AcDbArc
 50
-29.999998
 51
0.000003
  0
CIRCLE
  5
688
100
AcDbEntity
  8
1
  6
CONTINUOUS
 62
     7
100
AcDbCircle
 10
219.013544
 20
264.692176
 30
0.0
 40
4.5
  0
CIRCLE
  5
689
100
AcDbEntity
  8
1
  6
CONTINUOUS
 62
     7
100
AcDbCircle
 10
219.013544
 20
264.692176
 30
0.0
 40
5.0
  0
LINE
  5
68A
100
AcDbEntity
  8
1
  6
CONTINUOUS
 62
     7
100
AcDbLine
 10
234.168989
 20
255.942176
 30
0.0
 11
228.95467
 21
246.910711
 31
0.0
  0
LINE
  5
68B
100
AcDbEntity
  8
1
  6
CONTINUOUS
 62
     7
100
AcDbLine
 10
236.513544
 20
264.692176
 30
0.0
 11
243.013544
 21
264.692176
 31
0.0
  0
ARC
  5
68C
100
AcDbEntity
  8
1
  6
CONTINUOUS
 62
     7
100
AcDbCircle
 10
235.984107
 20
256.90386
 30
0.0
 40
22.211684
100
AcDbArc
 50
-90.000927
 51
-71.550134
  0
LINE
  5
68D
100
AcDbEntity
  8
1
  6
CONTINUOUS
 62
     7
100
AcDbLine
 10
234.168989
 20
273.442176
 30
0.0
 11
228.95467
 21
282.47364
 31
0.0
  0
ARC
  5
68E
100
AcDbEntity
  8
1
  6
CONTINUOUS
 62
     7
100
AcDbCircle
 10
242.013544
 20
235.692176
 30
0.0
 40
1.0
100
AcDbArc
 50
-90.0
 51
0.0
  0
LINE
  5
68F
100
AcDbEntity
  8
1
  6
CONTINUOUS
 62
     7
100
AcDbLine
 10
243.013544
 20
300.692176
 30
0.0
 11
243.013544
 21
235.692176
 31
0.0
  0
ARC
  5
690
100
AcDbEntity
  8
1
  6
CONTINUOUS
 62
     7
100
AcDbCircle
 10
219.013544
 20
264.692176
 30
0.0
 40
17.5
100
AcDbArc
 50
0.000003
 51
30.000003
  0
LINE
  5
691
100
AcDbEntity
  8
1
  6
CONTINUOUS
 62
     7
100
AcDbLine
 10
239.513544
 20
444.692176
 30
0.0
 11
219.013544
 21
444.692176
 31
0.0
  0
ARC
  5
692
100
AcDbEntity
  8
1
  6
CONTINUOUS
 62
     7
100
AcDbCircle
 10
242.013544
 20
443.692178
 30
0.0
 40
1.0
100
AcDbArc
 50
0.0
 51
90.0
  0
LINE
  5
693
100
AcDbEntity
  8
1
  6
CONTINUOUS
 62
     7
100
AcDbLine
 10
219.013544
 20
444.692178
 30
0.0
 11
242.013544
 21
444.692178
 31
0.0
  0
LINE
  5
694
100
AcDbEntity
  8
1
  6
CONTINUOUS
 62
     7
100
AcDbLine
 10
243.013544
 20
443.692178
 30
0.0
 11
243.013544
 21
440.692176
 31
0.0
  0
ARC
  5
695
100
AcDbEntity
  8
1
  6
CONTINUOUS
 62
     7
100
AcDbCircle
 10
235.984106
 20
422.480493
 30
0.0
 40
22.211685
100
AcDbArc
 50
71.550132
 51
105.621972
  0
LINE
  5
696
100
AcDbEntity
  8
1
  6
CONTINUOUS
 62
     7
100
AcDbLine
 10
201.017137
 20
270.695768
 30
0.0
 11
201.019953
 21
298.913135
 31
0.0
  0
LINE
  5
697
100
AcDbEntity
  8
1
  6
CONTINUOUS
 62
     7
100
AcDbLine
 10
237.017136
 20
270.688584
 30
0.0
 11
237.019953
 21
298.916349
 31
0.0
  0
LINE
  5
698
100
AcDbEntity
  8
1
  6
CONTINUOUS
 62
     7
100
AcDbLine
 10
198.513544
 20
444.692176
 30
0.0
 11
219.013544
 21
444.692176
 31
0.0
  0
LINE
  5
699
100
AcDbEntity
  8
1
  6
CONTINUOUS
 62
     7
100
AcDbLine
 10
203.858099
 20
273.442176
 30
0.0
 11
209.072419
 21
282.473643
 31
0.0
  0
CIRCLE
  5
69A
100
AcDbEntity
  8
1
  6
CONTINUOUS
 62
     7
100
AcDbCircle
 10
219.013544
 20
264.692176
 30
0.0
 40
7.5
  0
LINE
  5
69B
100
AcDbEntity
  8
1
  6
CONTINUOUS
 62
     7
100
AcDbLine
 10
203.858099
 20
255.942176
 30
0.0
 11
209.072419
 21
246.910708
 31
0.0
  0
LINE
  5
69C
100
AcDbEntity
  8
1
  6
CONTINUOUS
 62
     7
100
AcDbLine
 10
242.013544
 20
234.692176
 30
0.0
 11
196.013544
 21
234.692176
 31
0.0
  0
ARC
  5
69D
100
AcDbEntity
  8
1
  6
CONTINUOUS
 62
     7
100
AcDbCircle
 10
196.013544
 20
443.692178
 30
0.0
 40
1.0
100
AcDbArc
 50
90.0
 51
180.0
  0
LINE
  5
69E
100
AcDbEntity
  8
1
  6
CONTINUOUS
 62
     7
100
AcDbLine
 10
219.013544
 20
444.692178
 30
0.0
 11
196.013544
 21
444.692178
 31
0.0
  0
ENDSEC
  0
SECTION
  2
OBJECTS
  0
DICTIONARY
  5
19
100
AcDbDictionary
  3
ACAD_GROUP
350
1A
  3
ACAD_MLINESTYLE
350
1B
  0
DICTIONARY
  5
1A
102
{ACAD_REACTORS
330
19
102
}
100
AcDbDictionary
  0
DICTIONARY
  5
1B
102
{ACAD_REACTORS
330
19
102
}
100
AcDbDictionary
  3
STANDARD
350
1C
  0
MLINESTYLE
  5
1C
102
{ACAD_REACTORS
330
1B
102
}
100
AcDbMlineStyle
  2
STANDARD
 70
     0
  3

 62
     0
 51
90.0
 52
90.0
 71
     2
 49
0.5
 62
   256
  6
BYLAYER
 49
-0.5
 62
   256
  6
BYLAYER
  0
ENDSEC
  0
EOF
