  0
SECTION
  2
HEADER
  9
$ACADVER
  1
AC1004
  9
$INSBASE
 10
0.000000
 20
0.000000
  9
$EXTMIN
 10
0.000000
 20
0.000000
  9
$EXTMAX
 10
420.000000
 20
297.000000
  9
$LIMMIN
 10
0.000000
 20
0.000000
  9
$LIMMAX
 10
420.000000
 20
297.000000
  9
$VIEWCTR
 10
210.000000
 20
148.500000
  9
$VIEWSIZE
 40
297.000000
  9
$PEXTMIN
 10
0.000000
 20
0.000000
 30
0.000000
  9
$PEXTMAX
 10
420.000000
 20
297.000000
 30
0.000000
  9
$SNAPMODE
 70
     0
  9
$SNAPUNIT
 10
1.000000
 20
1.000000
  9
$SNAPBASE
 10
0.000000
 20
0.000000
  9
$SNAPANG
 50
0.000000
  9
$SNAPISOPAIR
 70
     0
  9
$SNAPSTYLE
 70
     0
  9
$GRIDMODE
 70
     0
  9
$GRIDUNIT
 10
0.000000
 20
0.000000
  9
$ORTHOMODE
 70
     0
  9
$REGENMODE
 70
     1
  9
$FILLMODE
 70
     1
  9
$QTEXTMODE
 70
     0
  9
$DRAGMODE
 70
     2
  9
$LTSCALE
 40
0.250000
  9
$OSMODE
 70
     0
  9
$ATTMODE
 70
     1
  9
$TEXTSIZE
 40
3.400000
  9
$TRACEWID
 40
0.050000
  9
$TEXTSTYLE
  7
STANDARD
  9
$CLAYER
  8
0
  9
$CELTYPE
  6
BYLAYER
  9
$CECOLOR
 62
   256
  9
$DIMSCALE
 40
1.000000
  9
$DIMASZ
 40
1.000000
  9
$DIMEXO
 40
0.000000
  9
$DIMDLI
 40
0.500000
  9
$DIMRND
 40
0.000000
  9
$DIMDLE
 40
0.000000
  9
$DIMEXE
 40
0.000000
  9
$DIMTP
 40
0.000000
  9
$DIMTM
 40
0.000000
  9
$DIMTXT
 40
4.000000
  9
$DIMCEN
 40
0.000000
  9
$DIMTSZ
 40
0.000000
  9
$DIMTOL
 70
     0
  9
$DIMLIM
 70
     0
  9
$DIMTIH
 70
     1
  9
$DIMTOH
 70
     1
  9
$DIMSE1
 70
     0
  9
$DIMSE2
 70
     0
  9
$DIMTAD
 70
     0
  9
$DIMZIN
 70
     0
  9
$DIMBLK
  1

  9
$DIMASO
 70
     0
  9
$DIMSHO
 70
     0
  9
$DIMPOST
  1

  9
$DIMAPOST
  1

  9
$DIMALT
 70
     0
  9
$DIMALTD
 70
     0
  9
$DIMALTF
 40
25.400000
  9
$DIMLFAC
 40
1.000000
  9
$DIMTOFL
 70
     0
  9
$DIMTVP
 40
0.000000
  9
$DIMTIX
 70
     0
  9
$DIMSOXD
 70
     0
  9
$DIMSAH
 70
     0
  9
$DIMBLKL
  1

  9
$DIMBLKR
  1

  9
$LUNITS
 70
     2
  9
$LUPREC
 70
     2
  9
$AXISMODE
 70
     0
  9
$AXISUNIT
 10
1.000000
 20
1.000000
  9
$SKETCHINC
 40
0.000000
  9
$FILLETRAD
 40
0.000000
  9
$AUNITS
 70
     1
  9
$AUPREC
 70
     2
  9
$MENU
  1
ACAD
  9
$ELEVATION
 40
0.000000
  9
$THICKNESS
 40
0.000000
  9
$VIEWDIR
 10
0.000000
 20
0.000000
 30
1.000000
  9
$LIMCHECK
 70
     1
  9
$BLIPMODE
 70
     1
  9
$CHAMFERA
 40
0.000000
  9
$CHAMFERB
 40
0.000000
  9
$FASTZOOM
 70
     1
  9
$SKPOLY
 70
     0
  9
$TDCREATE
 40
0.000000
  9
$TDUPDATE
 40
0.000000
  9
$TDINDWG
 40
0.000000
  9
$TDUSRTIMER
 40
0.000000
  9
$USRTIMER
 70
     1
  9
$ANGBASE
 50
0.000000
  9
$ANGDIR
 70
     0
  9
$PDMODE
 70
     0
  9
$PDSIZE
 40
0.000000
  9
$PLINEWID
 40
0.000000
  9
$COORDS
 70
     2
  9
$USERI1
 70
     0
  9
$USERI2
 70
     0
  9
$USERI3
 70
     0
  9
$USERI4
 70
     0
  9
$USERI5
 70
     0
  9
$USERR1
 40
0.000000
  9
$USERR2
 40
0.000000
  9
$USERR3
 40
0.000000
  9
$USERR4
 40
0.000000
  9
$USERR5
 40
0.000000
  0
ENDSEC
  0
SECTION
  2
TABLES
  0
TABLE
  2
LTYPE
 70
     5
  0
LTYPE
  2
CONTINUOUS
 70
    64
  3
Solid line
 72
    65
 73
     0
 40
0.0
  0
LTYPE
  2
HIDDEN
 70
    64
  3
------------------------
 72
    65
 73
     2
 40
12.6
 49
8.4
 49
-4.2
  0
LTYPE
  2
DOT
 70
    64
  3
¥¥¥¥¥¥¥¥¥¥¥¥¥¥¥¥¥¥¥¥¥¥¥¥
 72
    65
 73
     2
 40
8.0
 49
6.0
 49
-2.0
  0
LTYPE
  2
DASHDOT
 70
    64
  3
--¥--¥--¥--¥--¥--¥--¥--
 72
    65
 73
     4
 40
50.5
 49
30.0
 49
-9.0
 49
2.5
 49
-9.0
  0
LTYPE
  2
DIVIDE
 70
    64
  3
--¥¥--¥¥--¥¥--¥¥--¥¥--
 72
    65
 73
     6
 40
58.0
 49
30.0
 49
-9.0
 49
2.5
 49
-5.0
 49
2.5
 49
-9.0
  0
LTYPE
  2
ACAD_ISO06W100
 70
    64
  3
____ ... ____ ... ____
 72
    65
 73
     8
 40
37.5
 49
24.0
 49
-3.0
 49
0.5
 49
-3.0
 49
0.5
 49
-3.0
 49
0.5
 49
-3.0
  0
LTYPE
  2
ACAD_ISO14W100
 70
    64
  3
__ . . . __ . . . __ . . . 
 72
    65
 73
     8
 40
25.5
 49
12.0
 49
-3.0
 49
0.5
 49
-3.0
 49
0.5
 49
-3.0
 49
0.5
 49
-3.0
  0
ENDTAB
  0
TABLE
  2
LAYER
 70
1
  0
LAYER
  2
1
 70
64
 62
7
  6
CONTINUOUS
  0
ENDTAB
  0
TABLE
  2
STYLE
 70
     2
  0
STYLE
  2
STANDARD
 70
    64
 40
0.0
 41
1.0
 50
0.0
 71
     0
 42
0.2
  3
TXT
  4

  0
STYLE
  2
KANJI
 70
    64
 40
0.0
 41
1.0
 50
0.0
 71
     0
 42
0.2
  3
TXT
  4
BIGFONT
  0
ENDTAB
  0
TABLE
  2
VIEW
 70
     0
  0
ENDTAB
  0
ENDSEC
  0
SECTION
  2
BLOCKS
  0
ENDSEC
  0
SECTION
  2
ENTITIES
  0
ARC
  8
1
 62
7
  6
CONTINUOUS
 10
76.108106
 20
611.108696
 40
1.500000
 50
89.999997
 51
171.347430
  0
ARC
  8
1
 62
7
  6
CONTINUOUS
 10
76.108106
 20
611.108696
 40
1.500000
 50
171.347430
 51
-89.999998
  0
ARC
  8
1
 62
7
  6
CONTINUOUS
 10
131.965066
 20
602.608696
 40
70.000000
 50
44.239600
 51
-32.149495
  0
LINE
  8
1
 62
7
  6
CONTINUOUS
 10
226.965066
 20
636.149715
 11
236.965066
 21
636.149715
  0
LINE
  8
1
 62
7
  6
CONTINUOUS
 10
210.115068
 20
640.191047
 11
210.115068
 21
652.608696
  0
LINE
  8
1
 62
7
  6
CONTINUOUS
 10
223.265069
 20
640.208694
 11
211.115068
 21
640.208694
  0
LINE
  8
1
 62
7
  6
CONTINUOUS
 10
182.115068
 20
652.608696
 11
210.115068
 21
652.608696
  0
LINE
  8
1
 62
7
  6
CONTINUOUS
 10
223.265069
 20
626.117527
 11
217.265069
 21
626.117527
  0
LINE
  8
1
 62
7
  6
CONTINUOUS
 10
223.265069
 20
624.640520
 11
217.265069
 21
624.640520
  0
LINE
  8
1
 62
7
  6
CONTINUOUS
 10
223.265069
 20
624.608696
 11
223.765069
 21
624.608696
  0
LINE
  8
1
 62
7
  6
CONTINUOUS
 10
223.265069
 20
629.066209
 11
225.465066
 21
629.066209
  0
ARC
  8
1
 62
7
  6
CONTINUOUS
 10
265.891564
 20
633.108701
 40
49.126503
 50
180.000000
 51
-171.818484
  0
ARC
  8
1
 62
7
  6
CONTINUOUS
 10
223.765069
 20
622.108696
 40
1.500000
 50
-89.999998
 51
90.000001
  0
LINE
  8
1
 62
7
  6
CONTINUOUS
 10
182.115068
 20
639.696930
 11
182.115068
 21
652.608696
  0
LINE
  8
1
 62
7
  6
CONTINUOUS
 10
236.965066
 20
645.108696
 11
210.115068
 21
645.108696
  0
ARC
  8
1
 62
7
  6
CONTINUOUS
 10
225.465066
 20
630.566209
 40
1.500000
 50
-89.999998
 51
0.000005
  0
LINE
  8
1
 62
7
  6
CONTINUOUS
 10
226.965066
 20
569.067676
 11
236.965066
 21
569.067676
  0
LINE
  8
1
 62
7
  6
CONTINUOUS
 10
226.965066
 20
602.608696
 11
226.965066
 21
569.067676
  0
LINE
  8
1
 62
7
  6
CONTINUOUS
 10
236.965066
 20
602.608696
 11
236.965066
 21
560.108696
  0
LINE
  8
1
 62
7
  6
CONTINUOUS
 10
223.265069
 20
580.576872
 11
217.265069
 21
580.576872
  0
LINE
  8
1
 62
7
  6
CONTINUOUS
 10
223.265069
 20
580.608696
 11
223.765069
 21
580.608696
  0
LINE
  8
1
 62
7
  6
CONTINUOUS
 10
223.265069
 20
579.099865
 11
217.265069
 21
579.099865
  0
LINE
  8
1
 62
7
  6
CONTINUOUS
 10
223.265069
 20
576.151182
 11
225.465066
 21
576.151182
  0
ARC
  8
1
 62
7
  6
CONTINUOUS
 10
223.765069
 20
583.108696
 40
1.500000
 50
-89.999998
 51
90.000001
  0
LINE
  8
1
 62
7
  6
CONTINUOUS
 10
217.265069
 20
602.608696
 11
217.265069
 21
579.099865
  0
LINE
  8
1
 62
7
  6
CONTINUOUS
 10
223.265069
 20
565.008697
 11
211.115068
 21
565.008697
  0
LINE
  8
1
 62
7
  6
CONTINUOUS
 10
203.032395
 20
560.108696
 11
196.345567
 21
560.108696
  0
ARC
  8
1
 62
7
  6
CONTINUOUS
 10
203.032395
 20
550.108696
 40
10.000000
 50
89.999997
 51
119.999998
  0
ARC
  8
1
 62
7
  6
CONTINUOUS
 10
131.965066
 20
602.608696
 40
77.143364
 50
-33.430315
 51
-28.994995
  0
LINE
  8
1
 62
7
  6
CONTINUOUS
 10
216.765069
 20
602.608696
 11
216.765069
 21
572.108696
  0
ARC
  8
1
 62
7
  6
CONTINUOUS
 10
265.891564
 20
572.108690
 40
49.126503
 50
171.818484
 51
180.000000
  0
LINE
  8
1
 62
7
  6
CONTINUOUS
 10
236.965066
 20
560.108696
 11
203.032395
 21
560.108696
  0
ARC
  8
1
 62
7
  6
CONTINUOUS
 10
225.465066
 20
574.651182
 40
1.500000
 50
0.000005
 51
90.000001
  0
LINE
  8
1
 62
7
  6
CONTINUOUS
 10
223.765069
 20
624.608696
 11
223.765069
 21
580.608696
  0
LINE
  8
1
 62
7
  6
CONTINUOUS
 10
216.765069
 20
602.608696
 11
216.765069
 21
633.108696
  0
LINE
  8
1
 62
7
  6
CONTINUOUS
 10
217.265069
 20
602.608696
 11
217.265069
 21
626.117527
  0
LINE
  8
1
 62
7
  6
CONTINUOUS
 10
211.115068
 20
565.008697
 11
211.115068
 21
640.208694
  0
LINE
  8
1
 62
7
  6
CONTINUOUS
 10
223.265069
 20
640.208694
 11
223.265069
 21
565.008697
  0
LINE
  8
1
 62
7
  6
CONTINUOUS
 10
226.965066
 20
602.608696
 11
226.965066
 21
636.149715
  0
LINE
  8
1
 62
7
  6
CONTINUOUS
 10
236.965066
 20
602.608696
 11
236.965066
 21
645.108696
  0
LINE
  8
1
 62
7
  6
CONTINUOUS
 10
212.265069
 20
565.008697
 11
212.265069
 21
640.208694
  0
LINE
  8
1
 62
7
  6
CONTINUOUS
 10
158.298400
 20
648.219368
 11
159.631732
 21
645.909965
  0
LINE
  8
1
 62
7
  6
CONTINUOUS
 10
159.631732
 20
645.909965
 11
158.298400
 21
643.600567
  0
ARC
  8
1
 62
7
  6
CONTINUOUS
 10
167.254762
 20
646.732242
 40
1.500000
 50
51.347431
 51
149.999999
  0
ARC
  8
1
 62
7
  6
CONTINUOUS
 10
167.254762
 20
646.732242
 40
1.500000
 50
-30.000003
 51
51.347441
  0
LINE
  8
1
 62
7
  6
CONTINUOUS
 10
155.631732
 20
643.600567
 11
154.298400
 21
645.909965
  0
LINE
  8
1
 62
7
  6
CONTINUOUS
 10
155.631732
 20
648.219368
 11
154.298400
 21
645.909965
  0
LINE
  8
1
 62
7
  6
CONTINUOUS
 10
153.831369
 20
654.482242
 11
147.982291
 21
644.351341
  0
ARC
  8
1
 62
7
  6
CONTINUOUS
 10
149.281329
 20
643.601341
 40
1.500000
 50
149.999999
 51
-112.900338
  0
ARC
  8
1
 62
7
  6
CONTINUOUS
 10
143.499959
 20
645.587715
 40
1.500000
 50
-105.023265
 51
-30.000003
  0
LINE
  8
1
 62
7
  6
CONTINUOUS
 10
151.233293
 20
655.982242
 11
144.798997
 21
644.837715
  0
ARC
  8
1
 62
7
  6
CONTINUOUS
 10
152.532331
 20
655.232242
 40
1.500000
 50
-30.000003
 51
68.652572
  0
ARC
  8
1
 62
7
  6
CONTINUOUS
 10
152.532331
 20
655.232242
 40
1.500000
 50
68.652569
 51
149.999999
  0
LINE
  8
1
 62
7
  6
CONTINUOUS
 10
158.298400
 20
643.600567
 11
155.631732
 21
643.600567
  0
LINE
  8
1
 62
7
  6
CONTINUOUS
 10
158.298400
 20
648.219368
 11
155.631732
 21
648.219368
  0
CIRCLE
  8
1
 62
7
  6
CONTINUOUS
 10
156.965066
 20
645.909965
 40
2.309401
  0
CIRCLE
  8
1
 62
7
  6
CONTINUOUS
 10
156.965066
 20
645.909965
 40
4.250000
  0
LINE
  8
1
 62
7
  6
CONTINUOUS
 10
172.965066
 20
639.608696
 11
177.115068
 21
639.608696
  0
ARC
  8
1
 62
7
  6
CONTINUOUS
 10
158.807609
 20
638.101341
 40
1.500000
 50
-127.099662
 51
-30.000003
  0
ARC
  8
1
 62
7
  6
CONTINUOUS
 10
165.162705
 20
637.108696
 40
1.500000
 50
149.999999
 51
-89.999998
  0
LINE
  8
1
 62
7
  6
CONTINUOUS
 10
159.533164
 20
635.608696
 11
172.965066
 21
635.608696
  0
LINE
  8
1
 62
7
  6
CONTINUOUS
 10
172.965066
 20
615.570177
 11
172.965066
 21
639.608696
  0
LINE
  8
1
 62
7
  6
CONTINUOUS
 10
168.553800
 20
645.982242
 11
163.863668
 21
637.858696
  0
LINE
  8
1
 62
7
  6
CONTINUOUS
 10
165.955724
 20
647.482242
 11
160.106647
 21
637.351341
  0
LINE
  8
1
 62
7
  6
CONTINUOUS
 10
129.105066
 20
667.608696
 11
130.535066
 21
670.085525
  0
LINE
  8
1
 62
7
  6
CONTINUOUS
 10
130.535066
 20
670.085525
 11
133.395066
 21
670.085525
  0
LINE
  8
1
 62
7
  6
CONTINUOUS
 10
130.535066
 20
665.131862
 11
133.395066
 21
665.131862
  0
LINE
  8
1
 62
7
  6
CONTINUOUS
 10
129.105066
 20
667.608696
 11
130.535066
 21
665.131862
  0
LINE
  8
1
 62
7
  6
CONTINUOUS
 10
105.631732
 20
648.219368
 11
108.298400
 21
648.219368
  0
LINE
  8
1
 62
7
  6
CONTINUOUS
 10
108.298400
 20
648.219368
 11
109.631732
 21
645.909965
  0
LINE
  8
1
 62
7
  6
CONTINUOUS
 10
109.631732
 20
645.909965
 11
108.298400
 21
643.600567
  0
LINE
  8
1
 62
7
  6
CONTINUOUS
 10
108.298400
 20
643.600567
 11
105.631732
 21
643.600567
  0
LINE
  8
1
 62
7
  6
CONTINUOUS
 10
105.631732
 20
648.219368
 11
104.298400
 21
645.909965
  0
LINE
  8
1
 62
7
  6
CONTINUOUS
 10
104.298400
 20
645.909965
 11
105.631732
 21
643.600567
  0
CIRCLE
  8
1
 62
7
  6
CONTINUOUS
 10
106.965066
 20
645.909965
 40
2.309401
  0
CIRCLE
  8
1
 62
7
  6
CONTINUOUS
 10
106.965066
 20
645.909965
 40
4.250000
  0
ARC
  8
1
 62
7
  6
CONTINUOUS
 10
88.976697
 20
614.108696
 40
1.500000
 50
-89.999998
 51
-14.976742
  0
ARC
  8
1
 62
7
  6
CONTINUOUS
 10
87.806260
 20
608.108696
 40
1.500000
 50
-7.099662
 51
90.000001
  0
CIRCLE
  8
1
 62
7
  6
CONTINUOUS
 10
131.965066
 20
667.608696
 40
2.860000
  0
CIRCLE
  8
1
 62
7
  6
CONTINUOUS
 10
131.965066
 20
667.608696
 40
5.000000
  0
LINE
  8
1
 62
7
  6
CONTINUOUS
 10
133.395066
 20
670.085525
 11
134.825066
 21
667.608696
  0
LINE
  8
1
 62
7
  6
CONTINUOUS
 10
134.825066
 20
667.608696
 11
133.395066
 21
665.131862
  0
LINE
  8
1
 62
7
  6
CONTINUOUS
 10
132.095023
 20
608.322182
 11
144.357264
 21
612.785273
  0
LINE
  8
1
 62
7
  6
CONTINUOUS
 10
131.968774
 20
608.435858
 11
144.357264
 21
612.944899
  0
LINE
  8
1
 62
7
  6
CONTINUOUS
 10
132.600022
 20
607.867480
 11
144.357264
 21
612.146766
  0
LINE
  8
1
 62
7
  6
CONTINUOUS
 10
132.221273
 20
608.208507
 11
144.357264
 21
612.625646
  0
LINE
  8
1
 62
7
  6
CONTINUOUS
 10
133.483768
 20
607.071751
 11
144.357264
 21
611.029380
  0
LINE
  8
1
 62
7
  6
CONTINUOUS
 10
133.357519
 20
607.185426
 11
144.357264
 21
611.189006
  0
LINE
  8
1
 62
7
  6
CONTINUOUS
 10
133.231269
 20
607.299102
 11
144.357264
 21
611.348632
  0
LINE
  8
1
 62
7
  6
CONTINUOUS
 10
133.105020
 20
607.412778
 11
144.357264
 21
611.508259
  0
LINE
  8
1
 62
7
  6
CONTINUOUS
 10
132.978770
 20
607.526453
 11
144.357264
 21
611.667886
  0
LINE
  8
1
 62
7
  6
CONTINUOUS
 10
132.852521
 20
607.640129
 11
144.357264
 21
611.827513
  0
LINE
  8
1
 62
7
  6
CONTINUOUS
 10
132.726271
 20
607.753804
 11
144.357264
 21
611.987139
  0
LINE
  8
1
 62
7
  6
CONTINUOUS
 10
132.473772
 20
607.981156
 11
144.357264
 21
612.306393
  0
LINE
  8
1
 62
7
  6
CONTINUOUS
 10
132.347522
 20
608.094831
 11
144.357264
 21
612.466019
  0
CIRCLE
  8
1
 62
7
  6
CONTINUOUS
 10
131.965066
 20
667.608696
 40
5.500000
  0
LINE
  8
1
 62
7
  6
CONTINUOUS
 10
60.897737
 20
645.108696
 11
67.584565
 21
645.108696
  0
ARC
  8
1
 62
7
  6
CONTINUOUS
 10
60.897737
 20
655.108696
 40
10.000000
 50
-89.999998
 51
-59.999997
  0
LINE
  8
1
 62
7
  6
CONTINUOUS
 10
77.103414
 20
637.585529
 11
78.533414
 21
635.108696
  0
LINE
  8
1
 62
7
  6
CONTINUOUS
 10
78.533414
 20
635.108696
 11
77.103414
 21
632.631862
  0
LINE
  8
1
 62
7
  6
CONTINUOUS
 10
72.813417
 20
635.108696
 11
74.243413
 21
637.585529
  0
LINE
  8
1
 62
7
  6
CONTINUOUS
 10
72.813417
 20
635.108696
 11
74.243413
 21
632.631862
  0
CIRCLE
  8
1
 62
7
  6
CONTINUOUS
 10
75.673413
 20
635.108696
 40
2.860000
  0
LINE
  8
1
 62
7
  6
CONTINUOUS
 10
74.243413
 20
637.585529
 11
77.103414
 21
637.585529
  0
LINE
  8
1
 62
7
  6
CONTINUOUS
 10
74.243413
 20
632.631862
 11
77.103414
 21
632.631862
  0
CIRCLE
  8
1
 62
7
  6
CONTINUOUS
 10
75.673413
 20
635.108696
 40
5.500000
  0
CIRCLE
  8
1
 62
7
  6
CONTINUOUS
 10
75.673413
 20
635.108696
 40
5.000000
  0
ARC
  8
1
 62
7
  6
CONTINUOUS
 10
131.965066
 20
602.608696
 40
77.143364
 50
146.569690
 51
159.942349
  0
ARC
  8
1
 62
7
  6
CONTINUOUS
 10
38.465066
 20
630.566209
 40
1.500000
 50
180.000000
 51
-89.999998
  0
LINE
  8
1
 62
7
  6
CONTINUOUS
 10
36.965066
 20
636.149715
 11
26.965066
 21
636.149715
  0
LINE
  8
1
 62
7
  6
CONTINUOUS
 10
59.500604
 20
629.066209
 11
38.465066
 21
629.066209
  0
LINE
  8
1
 62
7
  6
CONTINUOUS
 10
26.965066
 20
645.108696
 11
60.897737
 21
645.108696
  0
LINE
  8
1
 62
7
  6
CONTINUOUS
 10
76.108106
 20
612.608696
 11
88.976697
 21
612.608696
  0
LINE
  8
1
 62
7
  6
CONTINUOUS
 10
76.108106
 20
609.608696
 11
87.806260
 21
609.608696
  0
LINE
  8
1
 62
7
  6
CONTINUOUS
 10
65.897737
 20
646.448440
 11
96.465066
 21
664.096500
  0
LINE
  8
1
 62
7
  6
CONTINUOUS
 10
144.357264
 20
593.087446
 11
144.357264
 21
595.552028
  0
LINE
  8
1
 62
7
  6
CONTINUOUS
 10
144.357264
 20
591.066909
 11
144.357264
 21
592.144528
  0
LINE
  8
1
 62
7
  6
CONTINUOUS
 10
144.341229
 20
597.295650
 11
144.357264
 21
597.301486
  0
LINE
  8
1
 62
7
  6
CONTINUOUS
 10
144.214979
 20
597.409325
 11
144.357264
 21
597.461113
  0
LINE
  8
1
 62
7
  6
CONTINUOUS
 10
144.088729
 20
597.523001
 11
144.357264
 21
597.620740
  0
LINE
  8
1
 62
7
  6
CONTINUOUS
 10
143.962480
 20
597.636676
 11
144.357264
 21
597.780366
  0
LINE
  8
1
 62
7
  6
CONTINUOUS
 10
143.836230
 20
597.750352
 11
144.357264
 21
597.939993
  0
LINE
  8
1
 62
7
  6
CONTINUOUS
 10
143.709981
 20
597.864028
 11
144.357264
 21
598.099620
  0
LINE
  8
1
 62
7
  6
CONTINUOUS
 10
143.583731
 20
597.977703
 11
144.357264
 21
598.259246
  0
LINE
  8
1
 62
7
  6
CONTINUOUS
 10
143.457481
 20
598.091379
 11
144.357264
 21
598.418873
  0
LINE
  8
1
 62
7
  6
CONTINUOUS
 10
143.331232
 20
598.205054
 11
144.357264
 21
598.578499
  0
LINE
  8
1
 62
7
  6
CONTINUOUS
 10
143.204983
 20
598.318730
 11
144.357264
 21
598.738126
  0
LINE
  8
1
 62
7
  6
CONTINUOUS
 10
143.078733
 20
598.432406
 11
144.357264
 21
598.897753
  0
LINE
  8
1
 62
7
  6
CONTINUOUS
 10
142.952483
 20
598.546081
 11
144.357264
 21
599.057380
  0
LINE
  8
1
 62
7
  6
CONTINUOUS
 10
142.826234
 20
598.659757
 11
144.357264
 21
599.217006
  0
LINE
  8
1
 62
7
  6
CONTINUOUS
 10
142.699985
 20
598.773432
 11
144.357264
 21
599.376633
  0
LINE
  8
1
 62
7
  6
CONTINUOUS
 10
142.573735
 20
598.887108
 11
144.357264
 21
599.536260
  0
LINE
  8
1
 62
7
  6
CONTINUOUS
 10
142.447485
 20
599.000784
 11
144.357264
 21
599.695886
  0
LINE
  8
1
 62
7
  6
CONTINUOUS
 10
142.321236
 20
599.114459
 11
144.357264
 21
599.855513
  0
LINE
  8
1
 62
7
  6
CONTINUOUS
 10
142.194986
 20
599.228135
 11
144.357264
 21
600.015140
  0
LINE
  8
1
 62
7
  6
CONTINUOUS
 10
142.068737
 20
599.341810
 11
144.357264
 21
600.174766
  0
LINE
  8
1
 62
7
  6
CONTINUOUS
 10
141.942487
 20
599.455486
 11
144.357264
 21
600.334393
  0
LINE
  8
1
 62
7
  6
CONTINUOUS
 10
141.816237
 20
599.569162
 11
144.357264
 21
600.494020
  0
LINE
  8
1
 62
7
  6
CONTINUOUS
 10
141.689988
 20
599.682837
 11
144.357264
 21
600.653646
  0
LINE
  8
1
 62
7
  6
CONTINUOUS
 10
141.563739
 20
599.796513
 11
144.357264
 21
600.813273
  0
LINE
  8
1
 62
7
  6
CONTINUOUS
 10
141.437489
 20
599.910188
 11
144.357264
 21
600.972900
  0
LINE
  8
1
 62
7
  6
CONTINUOUS
 10
141.311239
 20
600.023864
 11
144.357264
 21
601.132526
  0
LINE
  8
1
 62
7
  6
CONTINUOUS
 10
141.184990
 20
600.137540
 11
144.357264
 21
601.292153
  0
LINE
  8
1
 62
7
  6
CONTINUOUS
 10
141.058741
 20
600.251215
 11
144.357264
 21
601.451780
  0
LINE
  8
1
 62
7
  6
CONTINUOUS
 10
140.932491
 20
600.364891
 11
144.357264
 21
601.611406
  0
LINE
  8
1
 62
7
  6
CONTINUOUS
 10
140.806241
 20
600.478566
 11
144.357264
 21
601.771033
  0
LINE
  8
1
 62
7
  6
CONTINUOUS
 10
140.679992
 20
600.592242
 11
144.357264
 21
601.930660
  0
LINE
  8
1
 62
7
  6
CONTINUOUS
 10
140.553742
 20
600.705918
 11
144.357264
 21
602.090286
  0
LINE
  8
1
 62
7
  6
CONTINUOUS
 10
140.427493
 20
600.819593
 11
144.357264
 21
602.249913
  0
LINE
  8
1
 62
7
  6
CONTINUOUS
 10
140.301243
 20
600.933269
 11
144.357264
 21
602.409540
  0
LINE
  8
1
 62
7
  6
CONTINUOUS
 10
140.174994
 20
601.046944
 11
144.357264
 21
602.569166
  0
LINE
  8
1
 62
7
  6
CONTINUOUS
 10
140.048744
 20
601.160620
 11
144.357264
 21
602.728793
  0
LINE
  8
1
 62
7
  6
CONTINUOUS
 10
139.922494
 20
601.274296
 11
144.357264
 21
602.888420
  0
LINE
  8
1
 62
7
  6
CONTINUOUS
 10
139.796245
 20
601.387971
 11
144.357264
 21
603.048046
  0
LINE
  8
1
 62
7
  6
CONTINUOUS
 10
139.669995
 20
601.501647
 11
144.357264
 21
603.207673
  0
LINE
  8
1
 62
7
  6
CONTINUOUS
 10
139.543746
 20
601.615322
 11
144.357264
 21
603.367300
  0
LINE
  8
1
 62
7
  6
CONTINUOUS
 10
139.417496
 20
601.728998
 11
144.357264
 21
603.526926
  0
LINE
  8
1
 62
7
  6
CONTINUOUS
 10
139.291247
 20
601.842674
 11
144.357264
 21
603.686553
  0
LINE
  8
1
 62
7
  6
CONTINUOUS
 10
139.164997
 20
601.956349
 11
144.357264
 21
603.846180
  0
LINE
  8
1
 62
7
  6
CONTINUOUS
 10
139.038748
 20
602.070025
 11
144.357264
 21
604.005806
  0
LINE
  8
1
 62
7
  6
CONTINUOUS
 10
138.912499
 20
602.183700
 11
144.357264
 21
604.165433
  0
LINE
  8
1
 62
7
  6
CONTINUOUS
 10
138.786249
 20
602.297376
 11
144.357264
 21
604.325060
  0
LINE
  8
1
 62
7
  6
CONTINUOUS
 10
138.659999
 20
602.411051
 11
144.357264
 21
604.484686
  0
LINE
  8
1
 62
7
  6
CONTINUOUS
 10
138.533750
 20
602.524727
 11
144.357264
 21
604.644313
  0
LINE
  8
1
 62
7
  6
CONTINUOUS
 10
138.407500
 20
602.638403
 11
144.357264
 21
604.803939
  0
LINE
  8
1
 62
7
  6
CONTINUOUS
 10
138.281251
 20
602.752078
 11
144.357264
 21
604.963566
  0
LINE
  8
1
 62
7
  6
CONTINUOUS
 10
138.155001
 20
602.865754
 11
144.357264
 21
605.123193
  0
LINE
  8
1
 62
7
  6
CONTINUOUS
 10
138.028751
 20
602.979429
 11
144.357264
 21
605.282820
  0
LINE
  8
1
 62
7
  6
CONTINUOUS
 10
137.902502
 20
603.093105
 11
144.357264
 21
605.442446
  0
LINE
  8
1
 62
7
  6
CONTINUOUS
 10
137.776252
 20
603.206781
 11
144.357264
 21
605.602073
  0
LINE
  8
1
 62
7
  6
CONTINUOUS
 10
137.650003
 20
603.320456
 11
144.357264
 21
605.761700
  0
LINE
  8
1
 62
7
  6
CONTINUOUS
 10
137.523753
 20
603.434132
 11
144.357264
 21
605.921326
  0
LINE
  8
1
 62
7
  6
CONTINUOUS
 10
137.397504
 20
603.547807
 11
144.357264
 21
606.080953
  0
LINE
  8
1
 62
7
  6
CONTINUOUS
 10
137.271254
 20
603.661483
 11
144.357264
 21
606.240580
  0
LINE
  8
1
 62
7
  6
CONTINUOUS
 10
137.145005
 20
603.775159
 11
144.357264
 21
606.400206
  0
LINE
  8
1
 62
7
  6
CONTINUOUS
 10
137.018755
 20
603.888834
 11
144.357264
 21
606.559833
  0
LINE
  8
1
 62
7
  6
CONTINUOUS
 10
136.892506
 20
604.002510
 11
144.357264
 21
606.719460
  0
LINE
  8
1
 62
7
  6
CONTINUOUS
 10
136.766256
 20
604.116185
 11
144.357264
 21
606.879086
  0
LINE
  8
1
 62
7
  6
CONTINUOUS
 10
144.357264
 20
586.987350
 11
144.357264
 21
588.064970
  0
LINE
  8
1
 62
7
  6
CONTINUOUS
 10
144.357264
 20
589.065616
 11
144.357264
 21
590.143236
  0
LINE
  8
1
 62
7
  6
CONTINUOUS
 10
172.965066
 20
565.608696
 11
177.115068
 21
565.608696
  0
LINE
  8
1
 62
7
  6
CONTINUOUS
 10
168.553800
 20
559.235149
 11
163.863668
 21
567.358696
  0
LINE
  8
1
 62
7
  6
CONTINUOUS
 10
159.631732
 20
559.307426
 11
158.298400
 21
561.616825
  0
ARC
  8
1
 62
7
  6
CONTINUOUS
 10
158.807609
 20
567.116050
 40
1.500000
 50
30.000003
 51
127.099656
  0
ARC
  8
1
 62
7
  6
CONTINUOUS
 10
165.162705
 20
568.108696
 40
1.500000
 50
89.999997
 51
-149.999999
  0
LINE
  8
1
 62
7
  6
CONTINUOUS
 10
159.533164
 20
569.608696
 11
172.965066
 21
569.608696
  0
ARC
  8
1
 62
7
  6
CONTINUOUS
 10
167.254762
 20
558.485149
 40
1.500000
 50
-149.999999
 51
-51.347431
  0
LINE
  8
1
 62
7
  6
CONTINUOUS
 10
158.298400
 20
556.998024
 11
159.631732
 21
559.307426
  0
LINE
  8
1
 62
7
  6
CONTINUOUS
 10
165.955724
 20
557.735149
 11
160.106647
 21
567.866050
  0
ARC
  8
1
 62
7
  6
CONTINUOUS
 10
167.254762
 20
558.485149
 40
1.500000
 50
-51.347431
 51
29.999999
  0
LINE
  8
1
 62
7
  6
CONTINUOUS
 10
154.298400
 20
559.307426
 11
155.631732
 21
561.616825
  0
ARC
  8
1
 62
7
  6
CONTINUOUS
 10
149.281329
 20
561.616050
 40
1.500000
 50
89.999997
 51
-149.999999
  0
ARC
  8
1
 62
7
  6
CONTINUOUS
 10
143.499959
 20
559.629676
 40
1.500000
 50
30.000003
 51
89.999997
  0
ARC
  8
1
 62
7
  6
CONTINUOUS
 10
152.532331
 20
549.985149
 40
1.500000
 50
-149.999999
 51
-68.652569
  0
ARC
  8
1
 62
7
  6
CONTINUOUS
 10
152.532331
 20
549.985149
 40
1.500000
 50
-68.652569
 51
29.999999
  0
LINE
  8
1
 62
7
  6
CONTINUOUS
 10
155.631732
 20
556.998024
 11
154.298400
 21
559.307426
  0
LINE
  8
1
 62
7
  6
CONTINUOUS
 10
151.233293
 20
549.235149
 11
144.798997
 21
560.379676
  0
LINE
  8
1
 62
7
  6
CONTINUOUS
 10
153.831368
 20
550.735149
 11
147.982291
 21
560.866050
  0
LINE
  8
1
 62
7
  6
CONTINUOUS
 10
158.298400
 20
556.998024
 11
155.631732
 21
556.998024
  0
LINE
  8
1
 62
7
  6
CONTINUOUS
 10
155.631732
 20
561.616825
 11
158.298400
 21
561.616825
  0
CIRCLE
  8
1
 62
7
  6
CONTINUOUS
 10
156.965066
 20
559.307426
 40
2.309401
  0
CIRCLE
  8
1
 62
7
  6
CONTINUOUS
 10
156.965066
 20
559.307426
 40
4.250000
  0
LINE
  8
1
 62
7
  6
CONTINUOUS
 10
172.965066
 20
565.608696
 11
172.965066
 21
589.647215
  0
LINE
  8
1
 62
7
  6
CONTINUOUS
 10
118.912259
 20
592.861792
 11
118.912259
 21
593.939412
  0
LINE
  8
1
 62
7
  6
CONTINUOUS
 10
118.912259
 20
594.940058
 11
118.912259
 21
596.017678
  0
LINE
  8
1
 62
7
  6
CONTINUOUS
 10
118.912259
 20
596.941352
 11
118.912259
 21
598.018971
  0
LINE
  8
1
 62
7
  6
CONTINUOUS
 10
118.912259
 20
598.961888
 11
118.912259
 21
601.944584
  0
LINE
  8
1
 62
7
  6
CONTINUOUS
 10
125.000203
 20
600.442856
 11
118.912259
 21
605.924464
  0
LINE
  8
1
 62
7
  6
CONTINUOUS
 10
129.930441
 20
596.418140
 11
118.912259
 21
606.338955
  0
LINE
  8
1
 62
7
  6
CONTINUOUS
 10
130.549513
 20
596.275216
 11
118.912259
 21
606.753446
  0
LINE
  8
1
 62
7
  6
CONTINUOUS
 10
124.546961
 20
600.643711
 11
118.912259
 21
601.944584
  0
LINE
  8
1
 62
7
  6
CONTINUOUS
 10
124.546961
 20
600.643711
 11
118.912259
 21
605.717219
  0
LINE
  8
1
 62
7
  6
CONTINUOUS
 10
130.239977
 20
596.346678
 11
118.912259
 21
606.546201
  0
LINE
  8
1
 62
7
  6
CONTINUOUS
 10
129.620905
 20
596.489602
 11
118.912259
 21
606.131710
  0
LINE
  8
1
 62
7
  6
CONTINUOUS
 10
130.859049
 20
596.203754
 11
118.912259
 21
606.960692
  0
LINE
  8
1
 62
7
  6
CONTINUOUS
 10
130.704281
 20
596.239485
 11
118.912259
 21
606.857069
  0
LINE
  8
1
 62
7
  6
CONTINUOUS
 10
130.394745
 20
596.310947
 11
118.912259
 21
606.649823
  0
LINE
  8
1
 62
7
  6
CONTINUOUS
 10
130.085209
 20
596.382409
 11
118.912259
 21
606.442578
  0
LINE
  8
1
 62
7
  6
CONTINUOUS
 10
129.775673
 20
596.453871
 11
118.912259
 21
606.235333
  0
LINE
  8
1
 62
7
  6
CONTINUOUS
 10
124.845435
 20
600.478586
 11
118.912259
 21
605.820842
  0
LINE
  8
1
 62
7
  6
CONTINUOUS
 10
125.154971
 20
600.407124
 11
118.912259
 21
606.028087
  0
ARC
  8
1
 62
7
  6
CONTINUOUS
 10
88.976697
 20
591.108696
 40
1.500000
 50
14.976742
 51
89.999997
  0
ARC
  8
1
 62
7
  6
CONTINUOUS
 10
87.806260
 20
597.108696
 40
1.500000
 50
-89.999998
 51
7.099672
  0
LINE
  8
1
 62
7
  6
CONTINUOUS
 10
104.298400
 20
559.307426
 11
105.631732
 21
561.616825
  0
LINE
  8
1
 62
7
  6
CONTINUOUS
 10
105.631732
 20
561.616825
 11
108.298400
 21
561.616825
  0
LINE
  8
1
 62
7
  6
CONTINUOUS
 10
108.298400
 20
561.616825
 11
109.631732
 21
559.307426
  0
LINE
  8
1
 62
7
  6
CONTINUOUS
 10
105.631732
 20
556.998024
 11
108.298400
 21
556.998024
  0
LINE
  8
1
 62
7
  6
CONTINUOUS
 10
105.631732
 20
556.998024
 11
104.298400
 21
559.307426
  0
LINE
  8
1
 62
7
  6
CONTINUOUS
 10
108.298400
 20
556.998024
 11
109.631732
 21
559.307426
  0
CIRCLE
  8
1
 62
7
  6
CONTINUOUS
 10
106.965066
 20
559.307426
 40
2.309401
  0
CIRCLE
  8
1
 62
7
  6
CONTINUOUS
 10
106.965066
 20
559.307426
 40
4.250000
  0
LINE
  8
1
 62
7
  6
CONTINUOUS
 10
144.357264
 20
594.626902
 11
118.912259
 21
600.501344
  0
LINE
  8
1
 62
7
  6
CONTINUOUS
 10
144.357264
 20
594.819334
 11
118.912259
 21
600.693776
  0
LINE
  8
1
 62
7
  6
CONTINUOUS
 10
144.357264
 20
595.011766
 11
118.912259
 21
600.886208
  0
LINE
  8
1
 62
7
  6
CONTINUOUS
 10
144.357264
 20
595.204198
 11
118.912259
 21
601.078640
  0
LINE
  8
1
 62
7
  6
CONTINUOUS
 10
144.357264
 20
595.396629
 11
118.912259
 21
601.271072
  0
LINE
  8
1
 62
7
  6
CONTINUOUS
 10
144.301951
 20
595.601832
 11
118.912259
 21
601.463504
  0
LINE
  8
1
 62
7
  6
CONTINUOUS
 10
144.014541
 20
595.860618
 11
118.912259
 21
601.655936
  0
LINE
  8
1
 62
7
  6
CONTINUOUS
 10
143.727130
 20
596.119404
 11
118.912259
 21
601.848368
  0
LINE
  8
1
 62
7
  6
CONTINUOUS
 10
144.357264
 20
589.604426
 11
118.912259
 21
595.478868
  0
LINE
  8
1
 62
7
  6
CONTINUOUS
 10
144.357264
 20
589.296534
 11
118.912259
 21
595.170977
  0
LINE
  8
1
 62
7
  6
CONTINUOUS
 10
144.357264
 20
591.605719
 11
118.912259
 21
597.480161
  0
LINE
  8
1
 62
7
  6
CONTINUOUS
 10
144.357264
 20
595.300414
 11
118.912259
 21
601.174856
  0
LINE
  8
1
 62
7
  6
CONTINUOUS
 10
144.357264
 20
587.603133
 11
118.912259
 21
593.477575
  0
LINE
  8
1
 62
7
  6
CONTINUOUS
 10
144.357264
 20
586.987350
 11
118.912259
 21
592.861792
  0
LINE
  8
1
 62
7
  6
CONTINUOUS
 10
144.357264
 20
587.911024
 11
118.912259
 21
593.785466
  0
LINE
  8
1
 62
7
  6
CONTINUOUS
 10
144.357264
 20
587.295242
 11
118.912259
 21
593.169684
  0
LINE
  8
1
 62
7
  6
CONTINUOUS
 10
144.357264
 20
587.141296
 11
118.912259
 21
593.015738
  0
LINE
  8
1
 62
7
  6
CONTINUOUS
 10
144.357264
 20
587.449187
 11
118.912259
 21
593.323629
  0
LINE
  8
1
 62
7
  6
CONTINUOUS
 10
144.357264
 20
587.757079
 11
118.912259
 21
593.631521
  0
LINE
  8
1
 62
7
  6
CONTINUOUS
 10
144.357264
 20
588.064970
 11
118.912259
 21
593.939412
  0
LINE
  8
1
 62
7
  6
CONTINUOUS
 10
144.357264
 20
587.987997
 11
118.912259
 21
593.862439
  0
LINE
  8
1
 62
7
  6
CONTINUOUS
 10
144.357264
 20
587.834051
 11
118.912259
 21
593.708494
  0
LINE
  8
1
 62
7
  6
CONTINUOUS
 10
144.357264
 20
587.680106
 11
118.912259
 21
593.554548
  0
LINE
  8
1
 62
7
  6
CONTINUOUS
 10
144.357264
 20
587.526160
 11
118.912259
 21
593.400602
  0
LINE
  8
1
 62
7
  6
CONTINUOUS
 10
144.357264
 20
587.372214
 11
118.912259
 21
593.246657
  0
LINE
  8
1
 62
7
  6
CONTINUOUS
 10
144.357264
 20
587.218269
 11
118.912259
 21
593.092711
  0
LINE
  8
1
 62
7
  6
CONTINUOUS
 10
144.357264
 20
587.064323
 11
118.912259
 21
592.938765
  0
LINE
  8
1
 62
7
  6
CONTINUOUS
 10
144.357264
 20
589.912317
 11
118.912259
 21
595.786760
  0
LINE
  8
1
 62
7
  6
CONTINUOUS
 10
144.357264
 20
590.066263
 11
118.912259
 21
595.940705
  0
LINE
  8
1
 62
7
  6
CONTINUOUS
 10
144.357264
 20
589.758371
 11
118.912259
 21
595.632814
  0
LINE
  8
1
 62
7
  6
CONTINUOUS
 10
144.357264
 20
589.450480
 11
118.912259
 21
595.324923
  0
LINE
  8
1
 62
7
  6
CONTINUOUS
 10
144.357264
 20
589.142589
 11
118.912259
 21
595.017031
  0
LINE
  8
1
 62
7
  6
CONTINUOUS
 10
144.357264
 20
589.065616
 11
118.912259
 21
594.940058
  0
LINE
  8
1
 62
7
  6
CONTINUOUS
 10
144.357264
 20
589.219562
 11
118.912259
 21
595.094004
  0
LINE
  8
1
 62
7
  6
CONTINUOUS
 10
144.357264
 20
589.373507
 11
118.912259
 21
595.247950
  0
LINE
  8
1
 62
7
  6
CONTINUOUS
 10
144.357264
 20
589.527453
 11
118.912259
 21
595.401895
  0
LINE
  8
1
 62
7
  6
CONTINUOUS
 10
144.357264
 20
589.681399
 11
118.912259
 21
595.555841
  0
LINE
  8
1
 62
7
  6
CONTINUOUS
 10
144.357264
 20
589.835344
 11
118.912259
 21
595.709787
  0
LINE
  8
1
 62
7
  6
CONTINUOUS
 10
144.357264
 20
589.989290
 11
118.912259
 21
595.863732
  0
LINE
  8
1
 62
7
  6
CONTINUOUS
 10
144.357264
 20
590.143236
 11
118.912259
 21
596.017678
  0
LINE
  8
1
 62
7
  6
CONTINUOUS
 10
144.357264
 20
591.913610
 11
118.912259
 21
597.788052
  0
LINE
  8
1
 62
7
  6
CONTINUOUS
 10
144.357264
 20
591.297827
 11
118.912259
 21
597.172270
  0
LINE
  8
1
 62
7
  6
CONTINUOUS
 10
144.357264
 20
591.143882
 11
118.912259
 21
597.018324
  0
LINE
  8
1
 62
7
  6
CONTINUOUS
 10
144.357264
 20
591.451773
 11
118.912259
 21
597.326215
  0
LINE
  8
1
 62
7
  6
CONTINUOUS
 10
144.357264
 20
591.759664
 11
118.912259
 21
597.634107
  0
LINE
  8
1
 62
7
  6
CONTINUOUS
 10
144.357264
 20
592.067556
 11
118.912259
 21
597.941998
  0
LINE
  8
1
 62
7
  6
CONTINUOUS
 10
144.357264
 20
592.144528
 11
118.912259
 21
598.018971
  0
LINE
  8
1
 62
7
  6
CONTINUOUS
 10
144.357264
 20
591.990583
 11
118.912259
 21
597.865025
  0
LINE
  8
1
 62
7
  6
CONTINUOUS
 10
144.357264
 20
591.836637
 11
118.912259
 21
597.711080
  0
LINE
  8
1
 62
7
  6
CONTINUOUS
 10
144.357264
 20
591.605719
 11
118.912259
 21
597.480161
  0
LINE
  8
1
 62
7
  6
CONTINUOUS
 10
144.357264
 20
591.528746
 11
118.912259
 21
597.403188
  0
LINE
  8
1
 62
7
  6
CONTINUOUS
 10
144.357264
 20
591.374800
 11
118.912259
 21
597.249242
  0
LINE
  8
1
 62
7
  6
CONTINUOUS
 10
144.357264
 20
591.220854
 11
118.912259
 21
597.095297
  0
LINE
  8
1
 62
7
  6
CONTINUOUS
 10
144.357264
 20
591.066909
 11
118.912259
 21
596.941352
  0
LINE
  8
1
 62
7
  6
CONTINUOUS
 10
144.357264
 20
591.682691
 11
118.912259
 21
597.557134
  0
LINE
  8
1
 62
7
  6
CONTINUOUS
 10
144.357264
 20
594.145821
 11
118.912259
 21
600.020264
  0
LINE
  8
1
 62
7
  6
CONTINUOUS
 10
144.357264
 20
593.376094
 11
118.912259
 21
599.250536
  0
LINE
  8
1
 62
7
  6
CONTINUOUS
 10
144.357264
 20
593.760957
 11
118.912259
 21
599.635400
  0
LINE
  8
1
 62
7
  6
CONTINUOUS
 10
144.357264
 20
594.530685
 11
118.912259
 21
600.405128
  0
LINE
  8
1
 62
7
  6
CONTINUOUS
 10
144.357264
 20
594.915549
 11
118.912259
 21
600.789992
  0
LINE
  8
1
 62
7
  6
CONTINUOUS
 10
144.158246
 20
595.731225
 11
118.912259
 21
601.559720
  0
LINE
  8
1
 62
7
  6
CONTINUOUS
 10
143.870835
 20
595.990011
 11
118.912259
 21
601.752152
  0
LINE
  8
1
 62
7
  6
CONTINUOUS
 10
144.357264
 20
595.492846
 11
118.912259
 21
601.367288
  0
LINE
  8
1
 62
7
  6
CONTINUOUS
 10
144.357264
 20
595.107982
 11
118.912259
 21
600.982424
  0
LINE
  8
1
 62
7
  6
CONTINUOUS
 10
144.357264
 20
594.723117
 11
118.912259
 21
600.597560
  0
LINE
  8
1
 62
7
  6
CONTINUOUS
 10
144.357264
 20
594.338254
 11
118.912259
 21
600.212696
  0
LINE
  8
1
 62
7
  6
CONTINUOUS
 10
144.357264
 20
593.953390
 11
118.912259
 21
599.827832
  0
LINE
  8
1
 62
7
  6
CONTINUOUS
 10
144.357264
 20
593.568525
 11
118.912259
 21
599.442968
  0
LINE
  8
1
 62
7
  6
CONTINUOUS
 10
144.357264
 20
593.183661
 11
118.912259
 21
599.058104
  0
LINE
  8
1
 62
7
  6
CONTINUOUS
 10
144.357264
 20
593.087446
 11
118.912259
 21
598.961888
  0
LINE
  8
1
 62
7
  6
CONTINUOUS
 10
144.357264
 20
593.279877
 11
118.912259
 21
599.154320
  0
LINE
  8
1
 62
7
  6
CONTINUOUS
 10
144.357264
 20
593.472310
 11
118.912259
 21
599.346752
  0
LINE
  8
1
 62
7
  6
CONTINUOUS
 10
144.357264
 20
593.664741
 11
118.912259
 21
599.539184
  0
LINE
  8
1
 62
7
  6
CONTINUOUS
 10
144.357264
 20
593.857174
 11
118.912259
 21
599.731616
  0
LINE
  8
1
 62
7
  6
CONTINUOUS
 10
144.357264
 20
594.049605
 11
118.912259
 21
599.924048
  0
LINE
  8
1
 62
7
  6
CONTINUOUS
 10
144.357264
 20
594.242037
 11
118.912259
 21
600.116480
  0
LINE
  8
1
 62
7
  6
CONTINUOUS
 10
144.357264
 20
594.434470
 11
118.912259
 21
600.308912
  0
LINE
  8
1
 62
7
  6
CONTINUOUS
 10
129.105066
 20
537.608696
 11
130.535066
 21
540.085529
  0
LINE
  8
1
 62
7
  6
CONTINUOUS
 10
130.535066
 20
540.085529
 11
133.395066
 21
540.085529
  0
LINE
  8
1
 62
7
  6
CONTINUOUS
 10
130.535066
 20
535.131866
 11
133.395066
 21
535.131866
  0
LINE
  8
1
 62
7
  6
CONTINUOUS
 10
129.105066
 20
537.608696
 11
130.535066
 21
535.131866
  0
CIRCLE
  8
1
 62
7
  6
CONTINUOUS
 10
131.965066
 20
537.608696
 40
2.860000
  0
LINE
  8
1
 62
7
  6
CONTINUOUS
 10
133.395066
 20
540.085529
 11
134.825066
 21
537.608696
  0
LINE
  8
1
 62
7
  6
CONTINUOUS
 10
134.825066
 20
537.608696
 11
133.395066
 21
535.131866
  0
CIRCLE
  8
1
 62
7
  6
CONTINUOUS
 10
131.965066
 20
537.608696
 40
5.500000
  0
CIRCLE
  8
1
 62
7
  6
CONTINUOUS
 10
131.965066
 20
537.608696
 40
5.000000
  0
LINE
  8
1
 62
7
  6
CONTINUOUS
 10
79.298398
 20
602.608696
 11
80.631734
 21
604.918097
  0
LINE
  8
1
 62
7
  6
CONTINUOUS
 10
80.631734
 20
604.918097
 11
83.298398
 21
604.918097
  0
LINE
  8
1
 62
7
  6
CONTINUOUS
 10
83.298398
 20
604.918097
 11
84.631734
 21
602.608696
  0
LINE
  8
1
 62
7
  6
CONTINUOUS
 10
84.631734
 20
602.608696
 11
83.298398
 21
600.299295
  0
LINE
  8
1
 62
7
  6
CONTINUOUS
 10
79.298398
 20
602.608696
 11
80.631734
 21
600.299295
  0
LINE
  8
1
 62
7
  6
CONTINUOUS
 10
80.631734
 20
600.299295
 11
83.298398
 21
600.299295
  0
CIRCLE
  8
1
 62
7
  6
CONTINUOUS
 10
81.965066
 20
602.608696
 40
2.309401
  0
CIRCLE
  8
1
 62
7
  6
CONTINUOUS
 10
81.965066
 20
602.608696
 40
4.250000
  0
ARC
  8
1
 62
7
  6
CONTINUOUS
 10
76.108106
 20
594.108696
 40
1.500000
 50
-171.347430
 51
-89.999998
  0
ARC
  8
1
 62
7
  6
CONTINUOUS
 10
76.108106
 20
594.108696
 40
1.500000
 50
89.999997
 51
-171.347430
  0
LINE
  8
1
 62
7
  6
CONTINUOUS
 10
77.103414
 20
572.585529
 11
78.533414
 21
570.108696
  0
LINE
  8
1
 62
7
  6
CONTINUOUS
 10
78.533414
 20
570.108696
 11
77.103414
 21
567.631862
  0
LINE
  8
1
 62
7
  6
CONTINUOUS
 10
72.813417
 20
570.108696
 11
74.243413
 21
572.585529
  0
LINE
  8
1
 62
7
  6
CONTINUOUS
 10
72.813417
 20
570.108696
 11
74.243413
 21
567.631862
  0
CIRCLE
  8
1
 62
7
  6
CONTINUOUS
 10
75.673413
 20
570.108696
 40
2.860000
  0
LINE
  8
1
 62
7
  6
CONTINUOUS
 10
74.243413
 20
572.585529
 11
77.103414
 21
572.585529
  0
LINE
  8
1
 62
7
  6
CONTINUOUS
 10
74.243413
 20
567.631862
 11
77.103414
 21
567.631862
  0
LINE
  8
1
 62
7
  6
CONTINUOUS
 10
60.897737
 20
560.108696
 11
67.584565
 21
560.108696
  0
ARC
  8
1
 62
7
  6
CONTINUOUS
 10
60.897737
 20
550.108696
 40
10.000000
 50
59.999997
 51
89.999997
  0
CIRCLE
  8
1
 62
7
  6
CONTINUOUS
 10
75.673413
 20
570.108696
 40
5.500000
  0
CIRCLE
  8
1
 62
7
  6
CONTINUOUS
 10
75.673413
 20
570.108696
 40
5.000000
  0
ARC
  8
1
 62
7
  6
CONTINUOUS
 10
131.965066
 20
602.608696
 40
77.143364
 50
-159.942349
 51
-146.569690
  0
ARC
  8
1
 62
7
  6
CONTINUOUS
 10
38.465066
 20
574.651182
 40
1.500000
 50
89.999997
 51
180.000000
  0
LINE
  8
1
 62
7
  6
CONTINUOUS
 10
36.965066
 20
569.067676
 11
26.965066
 21
569.067676
  0
LINE
  8
1
 62
7
  6
CONTINUOUS
 10
36.965066
 20
602.608696
 11
36.965066
 21
569.067676
  0
LINE
  8
1
 62
7
  6
CONTINUOUS
 10
26.965066
 20
602.608696
 11
26.965066
 21
560.108696
  0
LINE
  8
1
 62
7
  6
CONTINUOUS
 10
59.500604
 20
576.151182
 11
38.465066
 21
576.151182
  0
LINE
  8
1
 62
7
  6
CONTINUOUS
 10
26.965066
 20
560.108696
 11
60.897737
 21
560.108696
  0
LINE
  8
1
 62
7
  6
CONTINUOUS
 10
76.108106
 20
592.608696
 11
88.976697
 21
592.608696
  0
LINE
  8
1
 62
7
  6
CONTINUOUS
 10
76.108106
 20
595.608696
 11
87.806260
 21
595.608696
  0
LINE
  8
1
 62
7
  6
CONTINUOUS
 10
65.897737
 20
558.768951
 11
96.465066
 21
541.120891
  0
LINE
  8
1
 62
7
  6
DASHDOT
 10
21.933503
 20
602.608696
 11
131.965066
 21
602.608696
  0
LINE
  8
1
 62
7
  6
CONTINUOUS
 10
175.965066
 20
565.608696
 11
175.965066
 21
639.608696
  0
LINE
  8
1
 62
7
  6
CONTINUOUS
 10
36.965066
 20
602.608696
 11
36.965066
 21
636.149715
  0
LINE
  8
1
 62
7
  6
CONTINUOUS
 10
26.965066
 20
602.608696
 11
26.965066
 21
645.108696
  0
CIRCLE
  8
1
 62
7
  6
CONTINUOUS
 10
131.965066
 20
602.608696
 40
40.281776
  0
CIRCLE
  8
1
 62
7
  6
CONTINUOUS
 10
131.965066
 20
602.608696
 40
42.510498
  0
CIRCLE
  8
1
 62
7
  6
CONTINUOUS
 10
131.965066
 20
602.608696
 40
43.000000
  0
CIRCLE
  8
1
 62
7
  6
CONTINUOUS
 10
131.965066
 20
602.608696
 40
38.615726
  0
LINE
  8
1
 62
7
  6
CONTINUOUS
 10
177.115068
 20
565.608696
 11
177.115068
 21
639.608696
  0
LINE
  8
1
 62
7
  6
DASHDOT
 10
131.965066
 20
528.149810
 11
131.965066
 21
679.702949
  0
LINE
  8
1
 62
7
  6
CONTINUOUS
 10
131.168585
 20
596.132292
 11
118.912259
 21
607.167937
  0
LINE
  8
1
 62
7
  6
CONTINUOUS
 10
131.787657
 20
595.989368
 11
118.912259
 21
607.582428
  0
LINE
  8
1
 62
7
  6
CONTINUOUS
 10
132.406729
 20
595.846444
 11
118.912259
 21
607.996919
  0
LINE
  8
1
 62
7
  6
CONTINUOUS
 10
133.025801
 20
595.703520
 11
118.912259
 21
608.411410
  0
LINE
  8
1
 62
7
  6
CONTINUOUS
 10
133.644873
 20
595.560596
 11
118.912259
 21
608.825901
  0
LINE
  8
1
 62
7
  6
CONTINUOUS
 10
134.263945
 20
595.417672
 11
118.912259
 21
609.240391
  0
LINE
  8
1
 62
7
  6
CONTINUOUS
 10
134.883017
 20
595.274748
 11
118.912259
 21
609.654883
  0
LINE
  8
1
 62
7
  6
CONTINUOUS
 10
135.502089
 20
595.131824
 11
118.912259
 21
610.069373
  0
LINE
  8
1
 62
7
  6
CONTINUOUS
 10
136.121161
 20
594.988900
 11
118.912259
 21
610.483864
  0
LINE
  8
1
 62
7
  6
CONTINUOUS
 10
136.740233
 20
594.845976
 11
118.912259
 21
610.898355
  0
LINE
  8
1
 62
7
  6
CONTINUOUS
 10
137.359304
 20
594.703052
 11
118.912259
 21
611.312846
  0
LINE
  8
1
 62
7
  6
CONTINUOUS
 10
137.978376
 20
594.560128
 11
118.912259
 21
611.727337
  0
LINE
  8
1
 62
7
  6
CONTINUOUS
 10
138.597448
 20
594.417204
 11
118.912259
 21
612.141827
  0
LINE
  8
1
 62
7
  6
CONTINUOUS
 10
139.216520
 20
594.274279
 11
118.912259
 21
612.556319
  0
LINE
  8
1
 62
7
  6
CONTINUOUS
 10
139.835592
 20
594.131356
 11
118.912259
 21
612.970810
  0
LINE
  8
1
 62
7
  6
CONTINUOUS
 10
140.454664
 20
593.988432
 11
118.912259
 21
613.385300
  0
LINE
  8
1
 62
7
  6
CONTINUOUS
 10
141.073736
 20
593.845507
 11
118.912259
 21
613.799791
  0
LINE
  8
1
 62
7
  6
CONTINUOUS
 10
141.692808
 20
593.702584
 11
118.912259
 21
614.214282
  0
LINE
  8
1
 62
7
  6
CONTINUOUS
 10
142.311880
 20
593.559660
 11
118.912259
 21
614.628772
  0
LINE
  8
1
 62
7
  6
CONTINUOUS
 10
142.930952
 20
593.416735
 11
118.912259
 21
615.043264
  0
LINE
  8
1
 62
7
  6
CONTINUOUS
 10
143.550024
 20
593.273811
 11
118.912259
 21
615.457755
  0
LINE
  8
1
 62
7
  6
CONTINUOUS
 10
144.169096
 20
593.130888
 11
118.912259
 21
615.872245
  0
LINE
  8
1
 62
7
  6
CONTINUOUS
 10
144.357264
 20
593.375951
 11
118.912259
 21
616.286736
  0
LINE
  8
1
 62
7
  6
CONTINUOUS
 10
144.357264
 20
593.790442
 11
118.912259
 21
616.701227
  0
LINE
  8
1
 62
7
  6
CONTINUOUS
 10
144.357264
 20
594.204933
 11
118.912259
 21
617.115719
  0
LINE
  8
1
 62
7
  6
CONTINUOUS
 10
144.357264
 20
594.619424
 11
118.912259
 21
617.530209
  0
LINE
  8
1
 62
7
  6
CONTINUOUS
 10
144.357264
 20
595.033915
 11
118.912259
 21
617.944700
  0
LINE
  8
1
 62
7
  6
CONTINUOUS
 10
144.357264
 20
595.448405
 11
118.912259
 21
618.359191
  0
LINE
  8
1
 62
7
  6
CONTINUOUS
 10
144.357264
 20
597.281211
 11
144.357264
 21
612.944899
  0
LINE
  8
1
 62
7
  6
CONTINUOUS
 10
118.912259
 20
605.717219
 11
118.912259
 21
618.462813
  0
LINE
  8
1
 62
7
  6
CONTINUOUS
 10
144.357264
 20
597.281211
 11
131.968774
 21
608.435858
  0
LINE
  8
1
 62
7
  6
CONTINUOUS
 10
138.906984
 20
594.345742
 11
118.912259
 21
612.349073
  0
LINE
  8
1
 62
7
  6
CONTINUOUS
 10
144.357264
 20
594.412179
 11
118.912259
 21
617.322963
  0
LINE
  8
1
 62
7
  6
CONTINUOUS
 10
141.383272
 20
593.774046
 11
118.912259
 21
614.007037
  0
LINE
  8
1
 62
7
  6
CONTINUOUS
 10
136.430697
 20
594.917438
 11
118.912259
 21
610.691109
  0
LINE
  8
1
 62
7
  6
CONTINUOUS
 10
131.478121
 20
596.060830
 11
118.912259
 21
607.375183
  0
LINE
  8
1
 62
7
  6
CONTINUOUS
 10
133.954409
 20
595.489134
 11
118.912259
 21
609.033146
  0
LINE
  8
1
 62
7
  6
CONTINUOUS
 10
143.859560
 20
593.202349
 11
118.912259
 21
615.665000
  0
LINE
  8
1
 62
7
  6
CONTINUOUS
 10
144.357264
 20
595.241160
 11
118.912259
 21
618.151946
  0
LINE
  8
1
 62
7
  6
CONTINUOUS
 10
144.357264
 20
593.583196
 11
118.912259
 21
616.493982
  0
LINE
  8
1
 62
7
  6
CONTINUOUS
 10
142.621416
 20
593.488198
 11
118.912259
 21
614.836018
  0
LINE
  8
1
 62
7
  6
CONTINUOUS
 10
140.145128
 20
594.059893
 11
118.912259
 21
613.178054
  0
LINE
  8
1
 62
7
  6
CONTINUOUS
 10
137.668840
 20
594.631590
 11
118.912259
 21
611.520092
  0
LINE
  8
1
 62
7
  6
CONTINUOUS
 10
135.192553
 20
595.203286
 11
118.912259
 21
609.862128
  0
LINE
  8
1
 62
7
  6
CONTINUOUS
 10
132.716265
 20
595.774982
 11
118.912259
 21
608.204164
  0
LINE
  8
1
 62
7
  6
CONTINUOUS
 10
132.097193
 20
595.917906
 11
118.912259
 21
607.789673
  0
LINE
  8
1
 62
7
  6
CONTINUOUS
 10
133.335337
 20
595.632058
 11
118.912259
 21
608.618655
  0
LINE
  8
1
 62
7
  6
CONTINUOUS
 10
134.573481
 20
595.346210
 11
118.912259
 21
609.447637
  0
LINE
  8
1
 62
7
  6
CONTINUOUS
 10
135.811625
 20
595.060362
 11
118.912259
 21
610.276619
  0
LINE
  8
1
 62
7
  6
CONTINUOUS
 10
137.049768
 20
594.774514
 11
118.912259
 21
611.105600
  0
LINE
  8
1
 62
7
  6
CONTINUOUS
 10
138.287912
 20
594.488665
 11
118.912259
 21
611.934582
  0
LINE
  8
1
 62
7
  6
CONTINUOUS
 10
139.526056
 20
594.202818
 11
118.912259
 21
612.763564
  0
LINE
  8
1
 62
7
  6
CONTINUOUS
 10
140.764200
 20
593.916970
 11
118.912259
 21
613.592546
  0
LINE
  8
1
 62
7
  6
CONTINUOUS
 10
142.002344
 20
593.631121
 11
118.912259
 21
614.421528
  0
LINE
  8
1
 62
7
  6
CONTINUOUS
 10
143.240488
 20
593.345274
 11
118.912259
 21
615.250509
  0
LINE
  8
1
 62
7
  6
CONTINUOUS
 10
144.357264
 20
593.168706
 11
118.912259
 21
616.079491
  0
LINE
  8
1
 62
7
  6
CONTINUOUS
 10
144.357264
 20
593.997687
 11
118.912259
 21
616.908473
  0
LINE
  8
1
 62
7
  6
CONTINUOUS
 10
144.357264
 20
594.826669
 11
118.912259
 21
617.737454
  0
LINE
  8
1
 62
7
  6
CONTINUOUS
 10
144.357264
 20
595.552028
 11
118.912259
 21
618.462813
  0
LINE
  8
1
 62
7
  6
CONTINUOUS
 10
144.357264
 20
595.344782
 11
118.912259
 21
618.255568
  0
LINE
  8
1
 62
7
  6
CONTINUOUS
 10
144.357264
 20
595.137537
 11
118.912259
 21
618.048322
  0
LINE
  8
1
 62
7
  6
CONTINUOUS
 10
144.357264
 20
594.930292
 11
118.912259
 21
617.841077
  0
LINE
  8
1
 62
7
  6
CONTINUOUS
 10
144.357264
 20
594.723046
 11
118.912259
 21
617.633832
  0
LINE
  8
1
 62
7
  6
CONTINUOUS
 10
144.357264
 20
594.515801
 11
118.912259
 21
617.426586
  0
LINE
  8
1
 62
7
  6
CONTINUOUS
 10
144.357264
 20
594.308555
 11
118.912259
 21
617.219341
  0
LINE
  8
1
 62
7
  6
CONTINUOUS
 10
144.357264
 20
594.101310
 11
118.912259
 21
617.012095
  0
LINE
  8
1
 62
7
  6
CONTINUOUS
 10
144.357264
 20
593.894065
 11
118.912259
 21
616.804850
  0
LINE
  8
1
 62
7
  6
CONTINUOUS
 10
144.357264
 20
593.686819
 11
118.912259
 21
616.597604
  0
LINE
  8
1
 62
7
  6
CONTINUOUS
 10
144.357264
 20
593.479574
 11
118.912259
 21
616.390360
  0
LINE
  8
1
 62
7
  6
CONTINUOUS
 10
144.357264
 20
593.272328
 11
118.912259
 21
616.183114
  0
LINE
  8
1
 62
7
  6
CONTINUOUS
 10
144.323864
 20
593.095156
 11
118.912259
 21
615.975868
  0
LINE
  8
1
 62
7
  6
CONTINUOUS
 10
144.014328
 20
593.166618
 11
118.912259
 21
615.768623
  0
LINE
  8
1
 62
7
  6
CONTINUOUS
 10
143.538776
 20
593.387561
 11
118.912259
 21
615.561377
  0
LINE
  8
1
 62
7
  6
CONTINUOUS
 10
143.395256
 20
593.309542
 11
118.912259
 21
615.354132
  0
LINE
  8
1
 62
7
  6
CONTINUOUS
 10
143.085720
 20
593.381004
 11
118.912259
 21
615.146886
  0
LINE
  8
1
 62
7
  6
CONTINUOUS
 10
142.776184
 20
593.452467
 11
118.912259
 21
614.939641
  0
LINE
  8
1
 62
7
  6
CONTINUOUS
 10
142.466648
 20
593.523928
 11
118.912259
 21
614.732396
  0
LINE
  8
1
 62
7
  6
CONTINUOUS
 10
142.157112
 20
593.595391
 11
118.912259
 21
614.525150
  0
LINE
  8
1
 62
7
  6
CONTINUOUS
 10
141.847576
 20
593.666853
 11
118.912259
 21
614.317905
  0
LINE
  8
1
 62
7
  6
CONTINUOUS
 10
141.538040
 20
593.738314
 11
118.912259
 21
614.110659
  0
LINE
  8
1
 62
7
  6
CONTINUOUS
 10
141.228504
 20
593.809777
 11
118.912259
 21
613.903413
  0
LINE
  8
1
 62
7
  6
CONTINUOUS
 10
140.918968
 20
593.881239
 11
118.912259
 21
613.696169
  0
LINE
  8
1
 62
7
  6
CONTINUOUS
 10
140.609432
 20
593.952700
 11
118.912259
 21
613.488923
  0
LINE
  8
1
 62
7
  6
CONTINUOUS
 10
140.299896
 20
594.024163
 11
118.912259
 21
613.281678
  0
LINE
  8
1
 62
7
  6
CONTINUOUS
 10
139.990360
 20
594.095625
 11
118.912259
 21
613.074432
  0
LINE
  8
1
 62
7
  6
CONTINUOUS
 10
139.680824
 20
594.167086
 11
118.912259
 21
612.867186
  0
LINE
  8
1
 62
7
  6
CONTINUOUS
 10
139.371288
 20
594.238549
 11
118.912259
 21
612.659941
  0
LINE
  8
1
 62
7
  6
CONTINUOUS
 10
139.061752
 20
594.310011
 11
118.912259
 21
612.452696
  0
LINE
  8
1
 62
7
  6
CONTINUOUS
 10
138.752216
 20
594.381472
 11
118.912259
 21
612.245451
  0
LINE
  8
1
 62
7
  6
CONTINUOUS
 10
138.442680
 20
594.452935
 11
118.912259
 21
612.038205
  0
LINE
  8
1
 62
7
  6
CONTINUOUS
 10
138.133144
 20
594.524397
 11
118.912259
 21
611.830959
  0
LINE
  8
1
 62
7
  6
CONTINUOUS
 10
137.823608
 20
594.595858
 11
118.912259
 21
611.623714
  0
LINE
  8
1
 62
7
  6
CONTINUOUS
 10
137.514072
 20
594.667321
 11
118.912259
 21
611.416468
  0
LINE
  8
1
 62
7
  6
CONTINUOUS
 10
137.204536
 20
594.738783
 11
118.912259
 21
611.209223
  0
LINE
  8
1
 62
7
  6
CONTINUOUS
 10
136.895000
 20
594.810245
 11
118.912259
 21
611.001978
  0
LINE
  8
1
 62
7
  6
CONTINUOUS
 10
136.585465
 20
594.881707
 11
118.912259
 21
610.794733
  0
LINE
  8
1
 62
7
  6
CONTINUOUS
 10
136.275929
 20
594.953169
 11
118.912259
 21
610.587487
  0
LINE
  8
1
 62
7
  6
CONTINUOUS
 10
135.966393
 20
595.024631
 11
118.912259
 21
610.380242
  0
LINE
  8
1
 62
7
  6
CONTINUOUS
 10
135.656857
 20
595.096093
 11
118.912259
 21
610.172996
  0
LINE
  8
1
 62
7
  6
CONTINUOUS
 10
135.347321
 20
595.167555
 11
118.912259
 21
609.965750
  0
LINE
  8
1
 62
7
  6
CONTINUOUS
 10
135.037785
 20
595.239017
 11
118.912259
 21
609.758505
  0
LINE
  8
1
 62
7
  6
CONTINUOUS
 10
134.728249
 20
595.310479
 11
118.912259
 21
609.551260
  0
LINE
  8
1
 62
7
  6
CONTINUOUS
 10
134.418713
 20
595.381941
 11
118.912259
 21
609.344014
  0
LINE
  8
1
 62
7
  6
CONTINUOUS
 10
134.109177
 20
595.453403
 11
118.912259
 21
609.136769
  0
LINE
  8
1
 62
7
  6
CONTINUOUS
 10
133.799641
 20
595.524865
 11
118.912259
 21
608.929523
  0
LINE
  8
1
 62
7
  6
CONTINUOUS
 10
133.490105
 20
595.596327
 11
118.912259
 21
608.722278
  0
LINE
  8
1
 62
7
  6
CONTINUOUS
 10
133.180569
 20
595.667789
 11
118.912259
 21
608.515032
  0
LINE
  8
1
 62
7
  6
CONTINUOUS
 10
132.871033
 20
595.739251
 11
118.912259
 21
608.307787
  0
LINE
  8
1
 62
7
  6
CONTINUOUS
 10
132.561497
 20
595.810713
 11
118.912259
 21
608.100542
  0
LINE
  8
1
 62
7
  6
CONTINUOUS
 10
132.251961
 20
595.882175
 11
118.912259
 21
607.893296
  0
LINE
  8
1
 62
7
  6
CONTINUOUS
 10
131.942425
 20
595.953637
 11
118.912259
 21
607.686051
  0
LINE
  8
1
 62
7
  6
CONTINUOUS
 10
131.632889
 20
596.025099
 11
118.912259
 21
607.478805
  0
LINE
  8
1
 62
7
  6
CONTINUOUS
 10
131.323353
 20
596.096561
 11
118.963787
 21
607.225164
  0
LINE
  8
1
 62
7
  6
CONTINUOUS
 10
131.013817
 20
596.168023
 11
118.912259
 21
607.064315
  0
LINE
  8
1
 62
7
  6
CONTINUOUS
 10
136.640007
 20
604.229861
 11
144.357264
 21
607.038713
  0
LINE
  8
1
 62
7
  6
CONTINUOUS
 10
136.513757
 20
604.343537
 11
144.357264
 21
607.198340
  0
LINE
  8
1
 62
7
  6
CONTINUOUS
 10
136.387507
 20
604.457212
 11
144.357264
 21
607.357966
  0
LINE
  8
1
 62
7
  6
CONTINUOUS
 10
136.261258
 20
604.570888
 11
144.357264
 21
607.517593
  0
LINE
  8
1
 62
7
  6
CONTINUOUS
 10
136.135008
 20
604.684563
 11
144.357264
 21
607.677220
  0
LINE
  8
1
 62
7
  6
CONTINUOUS
 10
136.008759
 20
604.798239
 11
144.357264
 21
607.836846
  0
LINE
  8
1
 62
7
  6
CONTINUOUS
 10
135.882510
 20
604.911914
 11
144.357264
 21
607.996473
  0
LINE
  8
1
 62
7
  6
CONTINUOUS
 10
135.756260
 20
605.025590
 11
144.357264
 21
608.156099
  0
LINE
  8
1
 62
7
  6
CONTINUOUS
 10
135.630010
 20
605.139266
 11
144.357264
 21
608.315726
  0
LINE
  8
1
 62
7
  6
CONTINUOUS
 10
135.503761
 20
605.252941
 11
144.357264
 21
608.475353
  0
LINE
  8
1
 62
7
  6
CONTINUOUS
 10
135.377511
 20
605.366617
 11
144.357264
 21
608.634979
  0
LINE
  8
1
 62
7
  6
CONTINUOUS
 10
135.251262
 20
605.480292
 11
144.357264
 21
608.794606
  0
LINE
  8
1
 62
7
  6
CONTINUOUS
 10
135.125012
 20
605.593968
 11
144.357264
 21
608.954233
  0
LINE
  8
1
 62
7
  6
CONTINUOUS
 10
134.998763
 20
605.707644
 11
144.357264
 21
609.113860
  0
LINE
  8
1
 62
7
  6
CONTINUOUS
 10
134.872513
 20
605.821319
 11
144.357264
 21
609.273486
  0
LINE
  8
1
 62
7
  6
CONTINUOUS
 10
134.746264
 20
605.934995
 11
144.357264
 21
609.433113
  0
LINE
  8
1
 62
7
  6
CONTINUOUS
 10
134.620014
 20
606.048670
 11
144.357264
 21
609.592740
  0
LINE
  8
1
 62
7
  6
CONTINUOUS
 10
134.493764
 20
606.162346
 11
144.357264
 21
609.752366
  0
LINE
  8
1
 62
7
  6
CONTINUOUS
 10
134.367515
 20
606.276022
 11
144.357264
 21
609.911993
  0
LINE
  8
1
 62
7
  6
CONTINUOUS
 10
134.241266
 20
606.389697
 11
144.357264
 21
610.071620
  0
LINE
  8
1
 62
7
  6
CONTINUOUS
 10
134.115016
 20
606.503373
 11
144.357264
 21
610.231246
  0
LINE
  8
1
 62
7
  6
CONTINUOUS
 10
133.988766
 20
606.617048
 11
144.357264
 21
610.390873
  0
LINE
  8
1
 62
7
  6
CONTINUOUS
 10
133.862517
 20
606.730724
 11
144.357264
 21
610.550500
  0
LINE
  8
1
 62
7
  6
CONTINUOUS
 10
133.736267
 20
606.844400
 11
144.357264
 21
610.710127
  0
LINE
  8
1
 62
7
  6
CONTINUOUS
 10
133.610018
 20
606.958075
 11
144.357264
 21
610.869753
  0
LINE
  8
1
 62
7
  6
CONTINUOUS
 10
177.115068
 20
639.608696
 11
211.115068
 21
640.208694
  0
LINE
  8
1
 62
7
  6
CONTINUOUS
 10
177.115068
 20
565.608696
 11
211.115068
 21
565.008697
  0
LINE
  8
1
 62
7
  6
CONTINUOUS
 10
198.032395
 20
558.768951
 11
167.465066
 21
541.120891
  0
LINE
  8
1
 62
7
  6
CONTINUOUS
 10
187.362527
 20
652.608696
 11
167.465066
 21
664.096500
  0
ARC
  8
1
 62
7
  6
CONTINUOUS
 10
131.965066
 20
602.608696
 40
58.000000
 50
39.652563
 51
-39.652563
  0
ARC
  8
1
 62
7
  6
CONTINUOUS
 10
131.965066
 20
602.608696
 40
58.799999
 50
39.006918
 51
-39.006918
  0
ARC
  8
1
 62
7
  6
CONTINUOUS
 10
131.965066
 20
602.608696
 40
71.000000
 50
44.766995
 51
-31.663195
  0
LINE
  8
1
 62
7
  6
DASHDOT
 10
242.625497
 20
602.608696
 11
131.965066
 21
602.608696
  0
LINE
  8
1
 62
7
  6
CONTINUOUS
 10
223.765066
 20
270.000000
 11
223.765066
 21
220.000000
  0
LINE
  8
1
 62
7
  6
CONTINUOUS
 10
223.265066
 20
220.000000
 11
223.765066
 21
220.000000
  0
LINE
  8
1
 62
7
  6
CONTINUOUS
 10
223.265066
 20
270.000000
 11
223.765066
 21
270.000000
  0
LINE
  8
1
 62
7
  6
CONTINUOUS
 10
211.115066
 20
291.600000
 11
211.115066
 21
198.400000
  0
LINE
  8
1
 62
7
  6
CONTINUOUS
 10
223.265066
 20
291.100000
 11
223.265066
 21
198.900000
  0
LINE
  8
1
 62
7
  6
CONTINUOUS
 10
212.265066
 20
291.600000
 11
212.265066
 21
198.400000
  0
LINE
  8
1
 62
7
  6
CONTINUOUS
 10
202.965066
 20
175.000000
 11
202.965066
 21
145.000000
  0
LINE
  8
1
 62
7
  6
CONTINUOUS
 10
236.965066
 20
145.000000
 11
236.965066
 21
100.000000
  0
LINE
  8
1
 62
7
  6
CONTINUOUS
 10
193.661288
 20
55.000000
 11
131.965066
 21
55.000000
  0
LINE
  8
1
 62
7
  6
CONTINUOUS
 10
225.465066
 20
60.000000
 11
206.608621
 21
60.000000
  0
LINE
  8
1
 62
7
  6
CONTINUOUS
 10
226.965066
 20
55.000000
 11
226.965066
 21
58.500000
  0
LINE
  8
1
 62
7
  6
CONTINUOUS
 10
236.965066
 20
55.000000
 11
236.965066
 21
100.000000
  0
LINE
  8
1
 62
7
  6
CONTINUOUS
 10
236.965066
 20
145.000000
 11
226.965066
 21
145.000000
  0
LINE
  8
1
 62
7
  6
CONTINUOUS
 10
70.268843
 20
55.000000
 11
131.965066
 21
55.000000
  0
LINE
  8
1
 62
7
  6
CONTINUOUS
 10
225.465066
 20
140.000000
 11
207.965066
 21
140.000000
  0
LINE
  8
1
 62
7
  6
CONTINUOUS
 10
226.965066
 20
145.000000
 11
226.965066
 21
141.500000
  0
LINE
  8
1
 62
7
  6
CONTINUOUS
 10
36.965066
 20
55.000000
 11
36.965066
 21
58.500000
  0
LINE
  8
1
 62
7
  6
CONTINUOUS
 10
38.465066
 20
60.000000
 11
57.321510
 21
60.000000
  0
LINE
  8
1
 62
7
  6
CONTINUOUS
 10
26.965066
 20
55.000000
 11
26.965066
 21
100.000000
  0
LINE
  8
1
 62
7
  6
CONTINUOUS
 10
61.321510
 20
58.928222
 11
66.268843
 21
56.071778
  0
LINE
  8
1
 62
7
  6
CONTINUOUS
 10
26.965066
 20
55.000000
 11
36.965066
 21
55.000000
  0
LINE
  8
1
 62
7
  6
CONTINUOUS
 10
202.608621
 20
58.928222
 11
197.661288
 21
56.071778
  0
LINE
  8
1
 62
7
  6
CONTINUOUS
 10
36.965066
 20
145.000000
 11
36.965066
 21
141.500000
  0
LINE
  8
1
 62
7
  6
CONTINUOUS
 10
236.965066
 20
55.000000
 11
226.965066
 21
55.000000
  0
LINE
  8
1
 62
7
  6
CONTINUOUS
 10
38.465066
 20
140.000000
 11
55.965066
 21
140.000000
  0
LINE
  8
1
 62
7
  6
CONTINUOUS
 10
60.965066
 20
175.000000
 11
60.965066
 21
145.000000
  0
LINE
  8
1
 62
7
  6
CONTINUOUS
 10
26.965066
 20
145.000000
 11
36.965066
 21
145.000000
  0
LINE
  8
1
 62
7
  6
CONTINUOUS
 10
26.965066
 20
145.000000
 11
26.965066
 21
100.000000
  0
LINE
  8
1
 62
7
  6
CONTINUOUS
 10
71.965066
 20
185.000000
 11
71.965066
 21
190.000000
  0
LINE
  8
1
 62
7
  6
CONTINUOUS
 10
60.965066
 20
175.000000
 11
60.965066
 21
184.000000
  0
LINE
  8
1
 62
7
  6
CONTINUOUS
 10
60.965066
 20
184.000000
 11
61.965066
 21
185.000000
  0
LINE
  8
1
 62
7
  6
CONTINUOUS
 10
202.965066
 20
175.000000
 11
202.965066
 21
184.000000
  0
LINE
  8
1
 62
7
  6
CONTINUOUS
 10
202.965066
 20
184.000000
 11
201.965066
 21
185.000000
  0
LINE
  8
1
 62
7
  6
CONTINUOUS
 10
61.965066
 20
185.000000
 11
61.965066
 21
190.000000
  0
LINE
  8
1
 62
7
  6
CONTINUOUS
 10
62.965066
 20
191.000000
 11
70.965066
 21
191.000000
  0
LINE
  8
1
 62
7
  6
CONTINUOUS
 10
211.115066
 20
291.600000
 11
222.765066
 21
291.600000
  0
LINE
  8
1
 62
7
  6
CONTINUOUS
 10
211.115066
 20
198.400000
 11
222.765066
 21
198.400000
  0
LINE
  8
1
 62
7
  6
CONTINUOUS
 10
74.389066
 20
197.500000
 11
74.389066
 21
190.000000
  0
LINE
  8
1
 62
7
  6
CONTINUOUS
 10
74.889066
 20
198.000000
 11
88.965066
 21
198.000000
  0
LINE
  8
1
 62
7
  6
CONTINUOUS
 10
189.965066
 20
189.500000
 11
189.965066
 21
185.000000
  0
LINE
  8
1
 62
7
  6
CONTINUOUS
 10
73.965066
 20
189.500000
 11
73.965066
 21
185.000000
  0
LINE
  8
1
 62
7
  6
CONTINUOUS
 10
174.965066
 20
293.000000
 11
174.965066
 21
291.000000
  0
LINE
  8
1
 62
7
  6
CONTINUOUS
 10
88.965066
 20
293.000000
 11
88.965066
 21
190.500000
  0
LINE
  8
1
 62
7
  6
CONTINUOUS
 10
177.715066
 20
194.500000
 11
177.715066
 21
190.000000
  0
LINE
  8
1
 62
7
  6
CONTINUOUS
 10
93.349288
 20
356.174444
 11
91.683288
 21
308.465111
  0
LINE
  8
1
 62
7
  6
CONTINUOUS
 10
185.715066
 20
195.000000
 11
178.215066
 21
195.000000
  0
LINE
  8
1
 62
7
  6
CONTINUOUS
 10
186.215066
 20
194.500000
 11
186.215066
 21
190.000000
  0
LINE
  8
1
 62
7
  6
CONTINUOUS
 10
174.965066
 20
291.000000
 11
175.965066
 21
291.000000
  0
LINE
  8
1
 62
7
  6
CONTINUOUS
 10
211.115066
 20
291.600000
 11
177.115066
 21
291.000000
  0
LINE
  8
1
 62
7
  6
CONTINUOUS
 10
175.965066
 20
199.000000
 11
177.115066
 21
199.000000
  0
LINE
  8
1
 62
7
  6
CONTINUOUS
 10
211.115066
 20
198.400000
 11
177.115066
 21
199.000000
  0
LINE
  8
1
 62
7
  6
CONTINUOUS
 10
173.475510
 20
307.500000
 11
173.246177
 21
307.500000
  0
LINE
  8
1
 62
7
  6
CONTINUOUS
 10
170.580843
 20
356.174444
 11
172.246843
 21
308.465111
  0
LINE
  8
1
 62
7
  6
CONTINUOUS
 10
89.455288
 20
306.534889
 11
88.982621
 21
293.000000
  0
LINE
  8
1
 62
7
  6
CONTINUOUS
 10
90.454621
 20
307.500000
 11
90.683954
 21
307.500000
  0
LINE
  8
1
 62
7
  6
CONTINUOUS
 10
174.475066
 20
306.534889
 11
174.947510
 21
293.000000
  0
LINE
  8
1
 62
7
  6
CONTINUOUS
 10
98.346399
 20
361.000000
 11
165.583954
 21
361.000000
  0
LINE
  8
1
 62
7
  6
CONTINUOUS
 10
172.965066
 20
197.500000
 11
172.965066
 21
191.500000
  0
LINE
  8
1
 62
7
  6
CONTINUOUS
 10
174.465066
 20
199.000000
 11
175.965066
 21
199.000000
  0
LINE
  8
1
 62
7
  6
CONTINUOUS
 10
175.965066
 20
291.000000
 11
177.115066
 21
291.000000
  0
LINE
  8
1
 62
7
  6
CONTINUOUS
 10
211.115066
 20
281.600000
 11
212.265066
 21
281.600000
  0
LINE
  8
1
 62
7
  6
CONTINUOUS
 10
211.115066
 20
208.400000
 11
212.265066
 21
208.400000
  0
ARC
  8
1
 62
7
  6
CONTINUOUS
 10
223.765066
 20
225.500000
 40
1.500000
 50
-90.000000
 51
90.000000
  0
ARC
  8
1
 62
7
  6
CONTINUOUS
 10
223.765066
 20
264.500000
 40
1.500000
 50
-90.000000
 51
90.000000
  0
ARC
  8
1
 62
7
  6
CONTINUOUS
 10
225.465066
 20
141.500000
 40
1.500000
 50
-90.000000
 51
0.000000
  0
ARC
  8
1
 62
7
  6
CONTINUOUS
 10
193.661288
 20
63.000000
 40
8.000000
 50
-90.000000
 51
-60.000000
  0
ARC
  8
1
 62
7
  6
CONTINUOUS
 10
206.608621
 20
52.000000
 40
8.000000
 50
90.000000
 51
120.000000
  0
ARC
  8
1
 62
7
  6
CONTINUOUS
 10
225.465066
 20
58.500000
 40
1.500000
 50
0.000000
 51
90.000000
  0
ARC
  8
1
 62
7
  6
CONTINUOUS
 10
70.268843
 20
63.000000
 40
8.000000
 50
-120.000000
 51
-90.000000
  0
ARC
  8
1
 62
7
  6
CONTINUOUS
 10
57.321510
 20
52.000000
 40
8.000000
 50
60.000000
 51
90.000000
  0
ARC
  8
1
 62
7
  6
CONTINUOUS
 10
38.465066
 20
58.500000
 40
1.500000
 50
90.000000
 51
-180.000000
  0
ARC
  8
1
 62
7
  6
CONTINUOUS
 10
207.965066
 20
145.000000
 40
5.000000
 50
-180.000000
 51
-90.000000
  0
ARC
  8
1
 62
7
  6
CONTINUOUS
 10
38.465066
 20
141.500000
 40
1.500000
 50
180.000000
 51
-90.000000
  0
ARC
  8
1
 62
7
  6
CONTINUOUS
 10
55.965066
 20
145.000000
 40
5.000000
 50
-90.000000
 51
0.000000
  0
ARC
  8
1
 62
7
  6
CONTINUOUS
 10
62.965066
 20
190.000000
 40
1.000000
 50
90.000000
 51
180.000000
  0
ARC
  8
1
 62
7
  6
CONTINUOUS
 10
70.965066
 20
190.000000
 40
1.000000
 50
0.000000
 51
90.000000
  0
ARC
  8
1
 62
7
  6
CONTINUOUS
 10
222.765066
 20
198.900000
 40
0.500000
 50
-90.000000
 51
0.000000
  0
ARC
  8
1
 62
7
  6
CONTINUOUS
 10
222.765066
 20
291.100000
 40
0.500000
 50
0.000000
 51
90.000000
  0
ARC
  8
1
 62
7
  6
CONTINUOUS
 10
74.889066
 20
197.500000
 40
0.500000
 50
90.000000
 51
180.000000
  0
ARC
  8
1
 62
7
  6
CONTINUOUS
 10
174.465066
 20
197.500000
 40
1.500000
 50
90.000000
 51
180.000000
  0
ARC
  8
1
 62
7
  6
CONTINUOUS
 10
74.465066
 20
189.500000
 40
0.500000
 50
90.000000
 51
180.000000
  0
ARC
  8
1
 62
7
  6
CONTINUOUS
 10
88.465066
 20
190.500000
 40
0.500000
 50
-90.000000
 51
0.000000
  0
ARC
  8
1
 62
7
  6
CONTINUOUS
 10
178.215066
 20
194.500000
 40
0.500000
 50
90.000000
 51
180.000000
  0
ARC
  8
1
 62
7
  6
CONTINUOUS
 10
185.715066
 20
194.500000
 40
0.500000
 50
0.000000
 51
90.000000
  0
ARC
  8
1
 62
7
  6
CONTINUOUS
 10
98.346399
 20
356.000000
 40
5.000000
 50
90.000000
 51
178.000000
  0
ARC
  8
1
 62
7
  6
CONTINUOUS
 10
165.583954
 20
356.000000
 40
5.000000
 50
2.000000
 51
90.000000
  0
ARC
  8
1
 62
7
  6
CONTINUOUS
 10
90.683954
 20
308.500000
 40
1.000000
 50
-90.000000
 51
-2.000000
  0
ARC
  8
1
 62
7
  6
CONTINUOUS
 10
173.246177
 20
308.500000
 40
1.000000
 50
-178.000000
 51
-90.000000
  0
ARC
  8
1
 62
7
  6
CONTINUOUS
 10
173.475510
 20
306.500000
 40
1.000000
 50
2.000000
 51
90.000000
  0
ARC
  8
1
 62
7
  6
CONTINUOUS
 10
90.454621
 20
306.500000
 40
1.000000
 50
90.000000
 51
178.000000
  0
ARC
  8
1
 62
7
  6
CONTINUOUS
 10
174.465066
 20
191.500000
 40
1.500000
 50
180.000000
 51
-90.000000
  0
ARC
  8
1
 62
7
  6
CONTINUOUS
 10
189.465066
 20
189.500000
 40
0.500000
 50
0.000000
 51
90.000000
  0
ARC
  8
1
 62
7
  6
CONTINUOUS
 10
176.465066
 20
190.500000
 40
0.500000
 50
180.000000
 51
-90.000000
  0
LINE
  8
1
 62
7
  6
CONTINUOUS
 10
61.965066
 20
185.000000
 11
131.965066
 21
185.000000
  0
LINE
  8
1
 62
7
  6
CONTINUOUS
 10
201.965066
 20
185.000000
 11
131.965066
 21
185.000000
  0
LINE
  8
1
 62
7
  6
CONTINUOUS
 10
131.965066
 20
185.000000
 11
189.965066
 21
185.000000
  0
LINE
  8
1
 62
7
  6
CONTINUOUS
 10
73.965066
 20
185.000000
 11
131.965066
 21
185.000000
  0
LINE
  8
1
 62
7
  6
CONTINUOUS
 10
202.965066
 20
175.000000
 11
131.965066
 21
175.000000
  0
LINE
  8
1
 62
7
  6
CONTINUOUS
 10
60.965066
 20
175.000000
 11
131.965066
 21
175.000000
  0
LINE
  8
1
 62
7
  6
CONTINUOUS
 10
131.965066
 20
190.000000
 11
189.465066
 21
190.000000
  0
LINE
  8
1
 62
7
  6
CONTINUOUS
 10
131.965066
 20
190.000000
 11
74.389066
 21
190.000000
  0
LINE
  8
1
 62
7
  6
CONTINUOUS
 10
88.965066
 20
293.000000
 11
131.965066
 21
293.000000
  0
LINE
  8
1
 62
7
  6
CONTINUOUS
 10
88.965066
 20
293.000000
 11
131.965066
 21
293.000000
  0
LINE
  8
1
 62
7
  6
CONTINUOUS
 10
174.965066
 20
293.000000
 11
131.965066
 21
293.000000
  0
LINE
  8
1
 62
7
  6
CONTINUOUS
 10
174.965066
 20
293.000000
 11
131.965066
 21
293.000000
  0
LINE
  8
1
 62
7
  6
CONTINUOUS
 10
90.454621
 20
307.500000
 11
131.965066
 21
307.500000
  0
LINE
  8
1
 62
7
  6
CONTINUOUS
 10
173.475732
 20
307.500000
 11
131.965066
 21
307.500000
  0
LINE
  8
1
 62
7
  6
CONTINUOUS
 10
177.115066
 20
291.000000
 11
177.115066
 21
199.000000
  0
LINE
  8
1
 62
7
  6
CONTINUOUS
 10
175.965066
 20
290.979706
 11
175.965066
 21
190.500000
  0
LINE
  8
1
 62
7
  6
CONTINUOUS
 10
482.030621
 20
191.500000
 11
482.030621
 21
202.643333
  0
LINE
  8
1
 62
7
  6
CONTINUOUS
 10
397.479510
 20
190.000000
 11
397.479510
 21
195.000000
  0
LINE
  8
1
 62
7
  6
CONTINUOUS
 10
492.581954
 20
190.000000
 11
492.581954
 21
195.000000
  0
LINE
  8
1
 62
7
  6
CONTINUOUS
 10
398.668399
 20
195.000000
 11
397.479510
 21
195.000000
  0
LINE
  8
1
 62
7
  6
CONTINUOUS
 10
491.393066
 20
195.000000
 11
492.581954
 21
195.000000
  0
LINE
  8
1
 62
7
  6
CONTINUOUS
 10
414.530621
 20
282.768000
 11
416.030621
 21
283.634000
  0
LINE
  8
1
 62
7
  6
CONTINUOUS
 10
414.530621
 20
198.400000
 11
475.530621
 21
198.400000
  0
LINE
  8
1
 62
7
  6
CONTINUOUS
 10
407.430621
 20
205.500000
 11
407.430621
 21
245.000000
  0
LINE
  8
1
 62
7
  6
CONTINUOUS
 10
475.530621
 20
276.031778
 11
475.530621
 21
213.358222
  0
LINE
  8
1
 62
7
  6
CONTINUOUS
 10
422.998843
 20
284.500000
 11
467.062621
 21
284.500000
  0
LINE
  8
1
 62
7
  6
CONTINUOUS
 10
488.030621
 20
231.000000
 11
488.030621
 21
198.000000
  0
LINE
  8
1
 62
7
  6
CONTINUOUS
 10
414.530621
 20
276.031778
 11
414.530621
 21
213.358222
  0
LINE
  8
1
 62
7
  6
CONTINUOUS
 10
422.998843
 20
205.500000
 11
467.062621
 21
205.500000
  0
LINE
  8
1
 62
7
  6
CONTINUOUS
 10
408.030621
 20
191.500000
 11
408.030621
 21
202.643333
  0
LINE
  8
1
 62
7
  6
CONTINUOUS
 10
414.530621
 20
203.768000
 11
413.030621
 21
204.634000
  0
LINE
  8
1
 62
7
  6
CONTINUOUS
 10
474.030621
 20
204.634000
 11
474.030621
 21
206.366000
  0
LINE
  8
1
 62
7
  6
CONTINUOUS
 10
406.415066
 20
356.174444
 11
404.748843
 21
308.465111
  0
LINE
  8
1
 62
7
  6
CONTINUOUS
 10
475.530621
 20
286.232000
 11
477.030621
 21
285.366000
  0
LINE
  8
1
 62
7
  6
CONTINUOUS
 10
414.530621
 20
286.232000
 11
416.030621
 21
285.366000
  0
LINE
  8
1
 62
7
  6
CONTINUOUS
 10
413.030621
 20
285.366000
 11
413.030621
 21
283.634000
  0
LINE
  8
1
 62
7
  6
CONTINUOUS
 10
475.530621
 20
203.768000
 11
474.030621
 21
204.634000
  0
LINE
  8
1
 62
7
  6
CONTINUOUS
 10
416.030621
 20
204.634000
 11
416.030621
 21
206.366000
  0
LINE
  8
1
 62
7
  6
CONTINUOUS
 10
477.030621
 20
204.634000
 11
477.030621
 21
206.366000
  0
LINE
  8
1
 62
7
  6
CONTINUOUS
 10
477.030621
 20
283.634000
 11
475.530621
 21
282.768000
  0
LINE
  8
1
 62
7
  6
CONTINUOUS
 10
482.630621
 20
205.500000
 11
482.630621
 21
245.000000
  0
LINE
  8
1
 62
7
  6
CONTINUOUS
 10
414.530621
 20
286.232000
 11
413.030621
 21
285.366000
  0
LINE
  8
1
 62
7
  6
CONTINUOUS
 10
414.530621
 20
207.232000
 11
416.030621
 21
206.366000
  0
LINE
  8
1
 62
7
  6
CONTINUOUS
 10
495.030621
 20
259.000000
 11
483.030621
 21
259.000000
  0
LINE
  8
1
 62
7
  6
CONTINUOUS
 10
495.030621
 20
231.000000
 11
483.030621
 21
231.000000
  0
LINE
  8
1
 62
7
  6
CONTINUOUS
 10
495.030621
 20
259.000000
 11
495.030621
 21
231.000000
  0
LINE
  8
1
 62
7
  6
CONTINUOUS
 10
475.530621
 20
286.232000
 11
474.030621
 21
285.366000
  0
LINE
  8
1
 62
7
  6
CONTINUOUS
 10
416.030621
 20
285.366000
 11
416.030621
 21
283.634000
  0
LINE
  8
1
 62
7
  6
CONTINUOUS
 10
413.030621
 20
206.366000
 11
414.530621
 21
207.232000
  0
LINE
  8
1
 62
7
  6
CONTINUOUS
 10
477.030621
 20
285.366000
 11
477.030621
 21
283.634000
  0
LINE
  8
1
 62
7
  6
CONTINUOUS
 10
413.030621
 20
283.634000
 11
414.530621
 21
282.768000
  0
LINE
  8
1
 62
7
  6
CONTINUOUS
 10
474.030621
 20
285.366000
 11
474.030621
 21
283.634000
  0
LINE
  8
1
 62
7
  6
CONTINUOUS
 10
402.520843
 20
306.534889
 11
402.048177
 21
293.000000
  0
LINE
  8
1
 62
7
  6
CONTINUOUS
 10
475.530621
 20
282.768000
 11
474.030621
 21
283.634000
  0
LINE
  8
1
 62
7
  6
CONTINUOUS
 10
477.030621
 20
206.366000
 11
475.530621
 21
207.232000
  0
LINE
  8
1
 62
7
  6
CONTINUOUS
 10
483.646399
 20
356.174444
 11
485.312399
 21
308.465111
  0
LINE
  8
1
 62
7
  6
CONTINUOUS
 10
503.030621
 20
190.000000
 11
503.030621
 21
185.000000
  0
LINE
  8
1
 62
7
  6
CONTINUOUS
 10
487.540621
 20
306.534889
 11
488.013288
 21
293.000000
  0
LINE
  8
1
 62
7
  6
CONTINUOUS
 10
475.530621
 20
203.768000
 11
477.030621
 21
204.634000
  0
LINE
  8
1
 62
7
  6
CONTINUOUS
 10
403.520177
 20
307.500000
 11
445.030621
 21
307.500000
  0
LINE
  8
1
 62
7
  6
CONTINUOUS
 10
486.541288
 20
307.500000
 11
445.030621
 21
307.500000
  0
LINE
  8
1
 62
7
  6
CONTINUOUS
 10
414.530621
 20
203.768000
 11
416.030621
 21
204.634000
  0
LINE
  8
1
 62
7
  6
CONTINUOUS
 10
475.530621
 20
207.232000
 11
474.030621
 21
206.366000
  0
LINE
  8
1
 62
7
  6
CONTINUOUS
 10
413.030621
 20
204.634000
 11
413.030621
 21
206.366000
  0
LINE
  8
1
 62
7
  6
CONTINUOUS
 10
505.226843
 20
55.000000
 11
445.030621
 21
55.000000
  0
LINE
  8
1
 62
7
  6
CONTINUOUS
 10
387.030621
 20
190.000000
 11
387.030621
 21
185.000000
  0
LINE
  8
1
 62
7
  6
CONTINUOUS
 10
482.030621
 20
198.000000
 11
498.007954
 21
198.000000
  0
LINE
  8
1
 62
7
  6
CONTINUOUS
 10
391.668399
 20
196.500000
 11
391.668399
 21
190.000000
  0
LINE
  8
1
 62
7
  6
CONTINUOUS
 10
408.030621
 20
198.000000
 11
392.053510
 21
198.000000
  0
LINE
  8
1
 62
7
  6
CONTINUOUS
 10
390.553510
 20
196.500000
 11
390.553510
 21
190.000000
  0
LINE
  8
1
 62
7
  6
CONTINUOUS
 10
491.393066
 20
196.500000
 11
491.393066
 21
190.000000
  0
LINE
  8
1
 62
7
  6
CONTINUOUS
 10
489.507954
 20
196.500000
 11
489.507954
 21
190.000000
  0
LINE
  8
1
 62
7
  6
CONTINUOUS
 10
499.507954
 20
196.500000
 11
499.507954
 21
190.000000
  0
LINE
  8
1
 62
7
  6
CONTINUOUS
 10
498.393066
 20
196.500000
 11
498.393066
 21
190.000000
  0
LINE
  8
1
 62
7
  6
CONTINUOUS
 10
398.668399
 20
196.500000
 11
398.668399
 21
190.000000
  0
LINE
  8
1
 62
7
  6
CONTINUOUS
 10
400.553510
 20
196.500000
 11
400.553510
 21
190.000000
  0
LINE
  8
1
 62
7
  6
CONTINUOUS
 10
482.630621
 20
284.500000
 11
482.630621
 21
245.000000
  0
LINE
  8
1
 62
7
  6
CONTINUOUS
 10
387.030621
 20
190.000000
 11
445.030621
 21
190.000000
  0
LINE
  8
1
 62
7
  6
CONTINUOUS
 10
503.030621
 20
190.000000
 11
445.030621
 21
190.000000
  0
LINE
  8
1
 62
7
  6
CONTINUOUS
 10
407.430621
 20
284.500000
 11
407.430621
 21
245.000000
  0
LINE
  8
1
 62
7
  6
CONTINUOUS
 10
475.030621
 20
197.500000
 11
475.030621
 21
191.500000
  0
LINE
  8
1
 62
7
  6
CONTINUOUS
 10
415.030621
 20
197.500000
 11
415.030621
 21
191.500000
  0
LINE
  8
1
 62
7
  6
CONTINUOUS
 10
414.530621
 20
291.600000
 11
475.530621
 21
291.600000
  0
LINE
  8
1
 62
7
  6
CONTINUOUS
 10
488.030621
 20
293.000000
 11
488.030621
 21
259.000000
  0
LINE
  8
1
 62
7
  6
CONTINUOUS
 10
402.030621
 20
293.000000
 11
402.030621
 21
198.000000
  0
LINE
  8
1
 62
7
  6
CONTINUOUS
 10
374.030621
 20
64.618889
 11
374.030621
 21
185.000000
  0
LINE
  8
1
 62
7
  6
CONTINUOUS
 10
402.530621
 20
78.000000
 11
402.530621
 21
122.000000
  0
LINE
  8
1
 62
7
  6
CONTINUOUS
 10
411.489732
 20
130.000000
 11
410.530621
 21
130.000000
  0
LINE
  8
1
 62
7
  6
CONTINUOUS
 10
411.489732
 20
70.000000
 11
410.530621
 21
70.000000
  0
LINE
  8
1
 62
7
  6
CONTINUOUS
 10
380.834621
 20
56.071778
 11
378.030621
 21
57.690667
  0
LINE
  8
1
 62
7
  6
CONTINUOUS
 10
374.030621
 20
178.000000
 11
445.030621
 21
178.000000
  0
LINE
  8
1
 62
7
  6
CONTINUOUS
 10
384.834621
 20
55.000000
 11
445.030621
 21
55.000000
  0
LINE
  8
1
 62
7
  6
CONTINUOUS
 10
516.030621
 20
185.000000
 11
374.030621
 21
185.000000
  0
LINE
  8
1
 62
7
  6
CONTINUOUS
 10
516.030621
 20
178.000000
 11
445.030621
 21
178.000000
  0
LINE
  8
1
 62
7
  6
CONTINUOUS
 10
509.226843
 20
56.071778
 11
512.030621
 21
57.690667
  0
LINE
  8
1
 62
7
  6
CONTINUOUS
 10
478.571732
 20
70.000000
 11
479.530621
 21
70.000000
  0
LINE
  8
1
 62
7
  6
CONTINUOUS
 10
478.571732
 20
130.000000
 11
479.530621
 21
130.000000
  0
LINE
  8
1
 62
7
  6
CONTINUOUS
 10
487.530621
 20
78.000000
 11
487.530621
 21
122.000000
  0
LINE
  8
1
 62
7
  6
CONTINUOUS
 10
516.030621
 20
64.618889
 11
516.030621
 21
185.000000
  0
LINE
  8
1
 62
7
  6
CONTINUOUS
 10
423.030621
 20
270.000000
 11
423.030621
 21
220.000000
  0
LINE
  8
1
 62
7
  6
CONTINUOUS
 10
423.030621
 20
270.000000
 11
467.030621
 21
270.000000
  0
LINE
  8
1
 62
7
  6
CONTINUOUS
 10
467.030621
 20
270.000000
 11
467.030621
 21
220.000000
  0
LINE
  8
1
 62
7
  6
CONTINUOUS
 10
423.030621
 20
220.000000
 11
467.030621
 21
220.000000
  0
LINE
  8
1
 62
7
  6
CONTINUOUS
 10
488.030621
 20
293.000000
 11
402.030621
 21
293.000000
  0
LINE
  8
1
 62
7
  6
CONTINUOUS
 10
411.411954
 20
361.000000
 11
478.649510
 21
361.000000
  0
CIRCLE
  8
1
 62
7
  6
CONTINUOUS
 10
445.030621
 20
100.000000
 40
27.392667
  0
CIRCLE
  8
1
 62
7
  6
CONTINUOUS
 10
445.030621
 20
100.000000
 40
29.806889
  0
CIRCLE
  8
1
 62
7
  6
CONTINUOUS
 10
445.030621
 20
100.000000
 40
28.279556
  0
CIRCLE
  8
1
 62
7
  6
CONTINUOUS
 10
414.530621
 20
284.500000
 40
3.500000
  0
ARC
  8
1
 62
7
  6
CONTINUOUS
 10
403.520177
 20
306.500000
 40
1.000000
 50
90.000000
 51
178.000000
  0
CIRCLE
  8
1
 62
7
  6
CONTINUOUS
 10
414.530621
 20
205.500000
 40
3.500000
  0
CIRCLE
  8
1
 62
7
  6
CONTINUOUS
 10
475.530621
 20
205.500000
 40
3.500000
  0
ARC
  8
1
 62
7
  6
CONTINUOUS
 10
477.030621
 20
276.031778
 40
1.500000
 50
100.044800
 51
180.000000
  0
ARC
  8
1
 62
7
  6
CONTINUOUS
 10
475.530621
 20
284.500000
 40
7.100000
 50
-79.955200
 51
169.955200
  0
ARC
  8
1
 62
7
  6
CONTINUOUS
 10
467.062621
 20
204.000000
 40
1.500000
 50
10.044800
 51
90.000000
  0
CIRCLE
  8
1
 62
7
  6
CONTINUOUS
 10
414.530621
 20
284.500000
 40
4.459556
  0
CIRCLE
  8
1
 62
7
  6
CONTINUOUS
 10
475.530621
 20
284.500000
 40
4.459556
  0
ARC
  8
1
 62
7
  6
CONTINUOUS
 10
483.030621
 20
230.000000
 40
1.000000
 50
90.000000
 51
113.578200
  0
ARC
  8
1
 62
7
  6
CONTINUOUS
 10
483.030621
 20
260.000000
 40
1.000000
 50
-113.578200
 51
-90.000000
  0
CIRCLE
  8
1
 62
7
  6
CONTINUOUS
 10
475.530621
 20
205.500000
 40
4.459556
  0
CIRCLE
  8
1
 62
7
  6
CONTINUOUS
 10
475.530621
 20
284.500000
 40
3.500000
  0
CIRCLE
  8
1
 62
7
  6
CONTINUOUS
 10
475.530621
 20
284.500000
 40
1.500000
  0
ARC
  8
1
 62
7
  6
CONTINUOUS
 10
467.062621
 20
286.000000
 40
1.500000
 50
-90.000000
 51
-10.044800
  0
ARC
  8
1
 62
7
  6
CONTINUOUS
 10
475.530621
 20
205.500000
 40
7.100000
 50
-169.955200
 51
79.955200
  0
ARC
  8
1
 62
7
  6
CONTINUOUS
 10
414.530621
 20
205.500000
 40
7.100000
 50
100.044800
 51
-10.044800
  0
ARC
  8
1
 62
7
  6
CONTINUOUS
 10
414.530621
 20
284.500000
 40
7.100000
 50
10.044800
 51
-100.044800
  0
CIRCLE
  8
1
 62
7
  6
CONTINUOUS
 10
414.530621
 20
284.500000
 40
1.500000
  0
CIRCLE
  8
1
 62
7
  6
CONTINUOUS
 10
414.530621
 20
205.500000
 40
1.500000
  0
ARC
  8
1
 62
7
  6
CONTINUOUS
 10
477.030621
 20
213.968222
 40
1.500000
 50
180.000000
 51
-100.044800
  0
ARC
  8
1
 62
7
  6
CONTINUOUS
 10
416.530621
 20
191.500000
 40
1.500000
 50
180.000000
 51
-90.000000
  0
CIRCLE
  8
1
 62
7
  6
CONTINUOUS
 10
475.530621
 20
205.500000
 40
1.500000
  0
ARC
  8
1
 62
7
  6
CONTINUOUS
 10
403.749510
 20
308.500000
 40
1.000000
 50
-90.000000
 51
-2.000000
  0
ARC
  8
1
 62
7
  6
CONTINUOUS
 10
416.530621
 20
197.500000
 40
1.500000
 50
143.130100
 51
180.000000
  0
CIRCLE
  8
1
 62
7
  6
CONTINUOUS
 10
414.530621
 20
205.500000
 40
4.459556
  0
ARC
  8
1
 62
7
  6
CONTINUOUS
 10
486.541288
 20
306.500000
 40
1.000000
 50
2.000000
 51
90.000000
  0
ARC
  8
1
 62
7
  6
CONTINUOUS
 10
406.530621
 20
191.500000
 40
1.500000
 50
-90.000000
 51
0.000000
  0
ARC
  8
1
 62
7
  6
CONTINUOUS
 10
392.053510
 20
196.500000
 40
1.500000
 50
90.000000
 51
180.000000
  0
ARC
  8
1
 62
7
  6
CONTINUOUS
 10
473.530621
 20
197.500000
 40
1.500000
 50
0.000000
 51
36.869900
  0
ARC
  8
1
 62
7
  6
CONTINUOUS
 10
483.530621
 20
191.500000
 40
1.500000
 50
180.000000
 51
-90.000000
  0
ARC
  8
1
 62
7
  6
CONTINUOUS
 10
498.007954
 20
196.500000
 40
1.500000
 50
0.000000
 51
90.000000
  0
ARC
  8
1
 62
7
  6
CONTINUOUS
 10
496.893066
 20
196.500000
 40
1.500000
 50
0.000000
 51
90.000000
  0
ARC
  8
1
 62
7
  6
CONTINUOUS
 10
489.893066
 20
196.500000
 40
1.500000
 50
0.000000
 51
90.000000
  0
ARC
  8
1
 62
7
  6
CONTINUOUS
 10
402.053510
 20
196.500000
 40
1.500000
 50
90.000000
 51
180.000000
  0
ARC
  8
1
 62
7
  6
CONTINUOUS
 10
393.168399
 20
196.500000
 40
1.500000
 50
90.000000
 51
180.000000
  0
ARC
  8
1
 62
7
  6
CONTINUOUS
 10
400.168399
 20
196.500000
 40
1.500000
 50
90.000000
 51
180.000000
  0
ARC
  8
1
 62
7
  6
CONTINUOUS
 10
488.007954
 20
196.500000
 40
1.500000
 50
0.000000
 51
90.000000
  0
ARC
  8
1
 62
7
  6
CONTINUOUS
 10
473.530621
 20
191.500000
 40
1.500000
 50
-90.000000
 51
0.000000
  0
ARC
  8
1
 62
7
  6
CONTINUOUS
 10
413.030621
 20
213.968222
 40
1.500000
 50
-79.955200
 51
0.000000
  0
ARC
  8
1
 62
7
  6
CONTINUOUS
 10
422.998843
 20
286.000000
 40
1.500000
 50
-169.955200
 51
-90.000000
  0
ARC
  8
1
 62
7
  6
CONTINUOUS
 10
422.998843
 20
204.000000
 40
1.500000
 50
90.000000
 51
169.955200
  0
ARC
  8
1
 62
7
  6
CONTINUOUS
 10
486.311954
 20
308.500000
 40
1.000000
 50
-178.000000
 51
-90.000000
  0
ARC
  8
1
 62
7
  6
CONTINUOUS
 10
413.030621
 20
276.031778
 40
1.500000
 50
0.000000
 51
79.955200
  0
ARC
  8
1
 62
7
  6
CONTINUOUS
 10
445.030621
 20
100.000000
 40
45.000000
 50
90.000000
 51
138.189700
  0
ARC
  8
1
 62
7
  6
CONTINUOUS
 10
410.530621
 20
78.000000
 40
8.000000
 50
-180.000000
 51
-90.000000
  0
ARC
  8
1
 62
7
  6
CONTINUOUS
 10
410.530621
 20
122.000000
 40
8.000000
 50
90.000000
 51
-180.000000
  0
ARC
  8
1
 62
7
  6
CONTINUOUS
 10
445.030621
 20
100.000000
 40
45.000000
 50
-138.189700
 51
-90.000000
  0
ARC
  8
1
 62
7
  6
CONTINUOUS
 10
384.834621
 20
63.000000
 40
8.000000
 50
-120.000000
 51
-90.000000
  0
ARC
  8
1
 62
7
  6
CONTINUOUS
 10
382.030621
 20
64.618889
 40
8.000000
 50
-180.000000
 51
-120.000000
  0
ARC
  8
1
 62
7
  6
CONTINUOUS
 10
508.030621
 20
64.618889
 40
8.000000
 50
-60.000000
 51
0.000000
  0
ARC
  8
1
 62
7
  6
CONTINUOUS
 10
505.226843
 20
63.000000
 40
8.000000
 50
-90.000000
 51
-60.000000
  0
ARC
  8
1
 62
7
  6
CONTINUOUS
 10
445.030621
 20
100.000000
 40
45.000000
 50
-90.000000
 51
-41.810300
  0
ARC
  8
1
 62
7
  6
CONTINUOUS
 10
479.530621
 20
122.000000
 40
8.000000
 50
0.000000
 51
90.000000
  0
ARC
  8
1
 62
7
  6
CONTINUOUS
 10
479.530621
 20
78.000000
 40
8.000000
 50
-90.000000
 51
0.000000
  0
ARC
  8
1
 62
7
  6
CONTINUOUS
 10
445.030621
 20
100.000000
 40
45.000000
 50
41.810300
 51
90.000000
  0
CIRCLE
  8
1
 62
7
  6
CONTINUOUS
 10
464.530621
 20
267.500000
 40
0.750000
  0
CIRCLE
  8
1
 62
7
  6
CONTINUOUS
 10
425.530621
 20
267.500000
 40
0.750000
  0
CIRCLE
  8
1
 62
7
  6
CONTINUOUS
 10
464.530621
 20
222.500000
 40
0.750000
  0
CIRCLE
  8
1
 62
7
  6
CONTINUOUS
 10
425.530621
 20
222.500000
 40
0.750000
  0
ARC
  8
1
 62
7
  6
CONTINUOUS
 10
411.411954
 20
356.000000
 40
5.000000
 50
90.000000
 51
178.000000
  0
ARC
  8
1
 62
7
  6
CONTINUOUS
 10
478.649510
 20
356.000000
 40
5.000000
 50
2.000000
 51
90.000000
  0
LINE
  8
1
 62
7
  6
DASHDOT
 10
131.965066
 20
366.326444
 11
131.965066
 21
38.481229
  0
LINE
  8
1
 62
7
  6
DASHDOT
 10
174.965066
 20
245.000000
 11
131.965066
 21
245.000000
  0
LINE
  8
1
 62
7
  6
DASHDOT
 10
88.965066
 20
245.000000
 11
131.965066
 21
245.000000
  0
LINE
  8
1
 62
7
  6
DASHDOT
 10
445.030621
 20
46.236444
 11
445.030621
 21
365.315556
  0
LINE
  8
1
 62
7
  6
DASHDOT
 10
445.030621
 20
100.000000
 11
369.065288
 21
100.000000
  0
LINE
  8
1
 62
7
  6
DASHDOT
 10
402.030621
 20
245.000000
 11
445.030621
 21
245.000000
  0
LINE
  8
1
 62
7
  6
DASHDOT
 10
498.855066
 20
245.000000
 11
445.030621
 21
245.000000
  0
LINE
  8
1
 62
7
  6
DASHDOT
 10
445.030621
 20
100.000000
 11
520.996177
 21
100.000000
  0
LINE
  8
1
 62
7
  6
DASHDOT
 10
16.578177
 20
100.000000
 11
131.965066
 21
100.000000
  0
LINE
  8
1
 62
7
  6
DASHDOT
 10
247.351954
 20
100.000000
 11
131.965066
 21
100.000000
  0
ENDSEC
  0
EOF
