  0
SECTION
  2
HEADER
  9
$ACADVER
  1
AC1004
  9
$INSBASE
 10
0.000000
 20
0.000000
  9
$EXTMIN
 10
0.000000
 20
0.000000
  9
$EXTMAX
 10
2100.000000
 20
1480.000000
  9
$LIMMIN
 10
0.000000
 20
0.000000
  9
$LIMMAX
 10
2100.000000
 20
1480.000000
  9
$VIEWCTR
 10
1050.000000
 20
740.000000
  9
$VIEWSIZE
 40
1480.000000
  9
$PEXTMIN
 10
0.000000
 20
0.000000
 30
0.000000
  9
$PEXTMAX
 10
210.000000
 20
148.000000
 30
0.000000
  9
$SNAPMODE
 70
     0
  9
$SNAPUNIT
 10
1.000000
 20
1.000000
  9
$SNAPBASE
 10
0.000000
 20
0.000000
  9
$SNAPANG
 50
0.000000
  9
$SNAPISOPAIR
 70
     0
  9
$SNAPSTYLE
 70
     0
  9
$GRIDMODE
 70
     0
  9
$GRIDUNIT
 10
0.000000
 20
0.000000
  9
$ORTHOMODE
 70
     0
  9
$REGENMODE
 70
     1
  9
$FILLMODE
 70
     1
  9
$QTEXTMODE
 70
     0
  9
$DRAGMODE
 70
     2
  9
$LTSCALE
 40
2.500000
  9
$OSMODE
 70
     0
  9
$ATTMODE
 70
     1
  9
$TEXTSIZE
 40
34.000000
  9
$TRACEWID
 40
0.050000
  9
$TEXTSTYLE
  7
STANDARD
  9
$CLAYER
  8
0
  9
$CELTYPE
  6
BYLAYER
  9
$CECOLOR
 62
   256
  9
$DIMSCALE
 40
1.000000
  9
$DIMASZ
 40
1.000000
  9
$DIMEXO
 40
0.000000
  9
$DIMDLI
 40
0.500000
  9
$DIMRND
 40
0.000000
  9
$DIMDLE
 40
0.000000
  9
$DIMEXE
 40
0.000000
  9
$DIMTP
 40
0.000000
  9
$DIMTM
 40
0.000000
  9
$DIMTXT
 40
4.000000
  9
$DIMCEN
 40
0.000000
  9
$DIMTSZ
 40
0.000000
  9
$DIMTOL
 70
     0
  9
$DIMLIM
 70
     0
  9
$DIMTIH
 70
     1
  9
$DIMTOH
 70
     1
  9
$DIMSE1
 70
     0
  9
$DIMSE2
 70
     0
  9
$DIMTAD
 70
     0
  9
$DIMZIN
 70
     0
  9
$DIMBLK
  1

  9
$DIMASO
 70
     0
  9
$DIMSHO
 70
     0
  9
$DIMPOST
  1

  9
$DIMAPOST
  1

  9
$DIMALT
 70
     0
  9
$DIMALTD
 70
     0
  9
$DIMALTF
 40
25.400000
  9
$DIMLFAC
 40
1.000000
  9
$DIMTOFL
 70
     0
  9
$DIMTVP
 40
0.000000
  9
$DIMTIX
 70
     0
  9
$DIMSOXD
 70
     0
  9
$DIMSAH
 70
     0
  9
$DIMBLKL
  1

  9
$DIMBLKR
  1

  9
$LUNITS
 70
     2
  9
$LUPREC
 70
     2
  9
$AXISMODE
 70
     0
  9
$AXISUNIT
 10
1.000000
 20
1.000000
  9
$SKETCHINC
 40
0.000000
  9
$FILLETRAD
 40
0.000000
  9
$AUNITS
 70
     1
  9
$AUPREC
 70
     2
  9
$MENU
  1
ACAD
  9
$ELEVATION
 40
0.000000
  9
$THICKNESS
 40
0.000000
  9
$VIEWDIR
 10
0.000000
 20
0.000000
 30
1.000000
  9
$LIMCHECK
 70
     1
  9
$BLIPMODE
 70
     1
  9
$CHAMFERA
 40
0.000000
  9
$CHAMFERB
 40
0.000000
  9
$FASTZOOM
 70
     1
  9
$SKPOLY
 70
     0
  9
$TDCREATE
 40
0.000000
  9
$TDUPDATE
 40
0.000000
  9
$TDINDWG
 40
0.000000
  9
$TDUSRTIMER
 40
0.000000
  9
$USRTIMER
 70
     1
  9
$ANGBASE
 50
0.000000
  9
$ANGDIR
 70
     0
  9
$PDMODE
 70
     0
  9
$PDSIZE
 40
0.000000
  9
$PLINEWID
 40
0.000000
  9
$COORDS
 70
     2
  9
$USERI1
 70
     0
  9
$USERI2
 70
     0
  9
$USERI3
 70
     0
  9
$USERI4
 70
     0
  9
$USERI5
 70
     0
  9
$USERR1
 40
0.000000
  9
$USERR2
 40
0.000000
  9
$USERR3
 40
0.000000
  9
$USERR4
 40
0.000000
  9
$USERR5
 40
0.000000
  0
ENDSEC
  0
SECTION
  2
TABLES
  0
TABLE
  2
LTYPE
 70
     5
  0
LTYPE
  2
CONTINUOUS
 70
    64
  3
Solid line
 72
    65
 73
     0
 40
0.0
  0
LTYPE
  2
HIDDEN
 70
    64
  3
------------------------
 72
    65
 73
     2
 40
12.6
 49
8.4
 49
-4.2
  0
LTYPE
  2
DOT
 70
    64
  3
¥¥¥¥¥¥¥¥¥¥¥¥¥¥¥¥¥¥¥¥¥¥¥¥
 72
    65
 73
     2
 40
8.0
 49
6.0
 49
-2.0
  0
LTYPE
  2
DASHDOT
 70
    64
  3
--¥--¥--¥--¥--¥--¥--¥--
 72
    65
 73
     4
 40
50.5
 49
30.0
 49
-9.0
 49
2.5
 49
-9.0
  0
LTYPE
  2
DIVIDE
 70
    64
  3
--¥¥--¥¥--¥¥--¥¥--¥¥--
 72
    65
 73
     6
 40
58.0
 49
30.0
 49
-9.0
 49
2.5
 49
-5.0
 49
2.5
 49
-9.0
  0
LTYPE
  2
ACAD_ISO06W100
 70
    64
  3
____ ... ____ ... ____
 72
    65
 73
     8
 40
37.5
 49
24.0
 49
-3.0
 49
0.5
 49
-3.0
 49
0.5
 49
-3.0
 49
0.5
 49
-3.0
  0
LTYPE
  2
ACAD_ISO14W100
 70
    64
  3
__ . . . __ . . . __ . . . 
 72
    65
 73
     8
 40
25.5
 49
12.0
 49
-3.0
 49
0.5
 49
-3.0
 49
0.5
 49
-3.0
 49
0.5
 49
-3.0
  0
ENDTAB
  0
TABLE
  2
LAYER
 70
1
  0
LAYER
  2
1
 70
64
 62
7
  6
CONTINUOUS
  0
ENDTAB
  0
TABLE
  2
STYLE
 70
     2
  0
STYLE
  2
STANDARD
 70
    64
 40
0.0
 41
1.0
 50
0.0
 71
     0
 42
0.2
  3
TXT
  4

  0
STYLE
  2
KANJI
 70
    64
 40
0.0
 41
1.0
 50
0.0
 71
     0
 42
0.2
  3
TXT
  4
BIGFONT
  0
ENDTAB
  0
TABLE
  2
VIEW
 70
     0
  0
ENDTAB
  0
ENDSEC
  0
SECTION
  2
BLOCKS
  0
ENDSEC
  0
SECTION
  2
ENTITIES
  0
ARC
  8
1
 62
7
  6
CONTINUOUS
 10
307.936571
 20
907.608696
 40
96.500000
 50
-18.894930
 51
0.000000
  0
ARC
  8
1
 62
7
  6
CONTINUOUS
 10
307.936571
 20
907.608696
 40
96.500000
 50
-0.000000
 51
18.894929
  0
ARC
  8
1
 62
7
  6
CONTINUOUS
 10
308.029804
 20
907.685085
 40
96.593263
 50
-179.954689
 51
-22.957730
  0
ARC
  8
1
 62
7
  6
CONTINUOUS
 10
307.936571
 20
907.608696
 40
96.500000
 50
22.931932
 51
180.000000
  0
ARC
  8
1
 62
7
  6
CONTINUOUS
 10
198.591669
 20
846.608696
 40
10.000000
 50
59.999996
 51
89.999997
  0
LINE
  8
1
 62
7
  6
CONTINUOUS
 10
383.018855
 20
862.608696
 11
384.448854
 21
865.085529
  0
LINE
  8
1
 62
7
  6
CONTINUOUS
 10
387.308854
 20
865.085529
 11
384.448854
 21
865.085529
  0
CIRCLE
  8
1
 62
7
  6
CONTINUOUS
 10
385.878854
 20
862.608696
 40
5.500000
  0
CIRCLE
  8
1
 62
7
  6
CONTINUOUS
 10
385.878854
 20
862.608696
 40
5.000000
  0
LINE
  8
1
 62
7
  6
CONTINUOUS
 10
384.448854
 20
860.131866
 11
383.018855
 21
862.608696
  0
CIRCLE
  8
1
 62
7
  6
CONTINUOUS
 10
385.878854
 20
862.608696
 40
2.860000
  0
CIRCLE
  8
1
 62
7
  6
CONTINUOUS
 10
273.495062
 20
824.459538
 40
2.000000
  0
LINE
  8
1
 62
7
  6
CONTINUOUS
 10
271.202210
 20
824.183560
 11
272.587640
 21
822.335881
  0
LINE
  8
1
 62
7
  6
CONTINUOUS
 10
272.587640
 20
822.335881
 11
274.880492
 21
822.611859
  0
LINE
  8
1
 62
7
  6
CONTINUOUS
 10
274.880492
 20
822.611859
 11
275.787914
 21
824.735516
  0
LINE
  8
1
 62
7
  6
CONTINUOUS
 10
275.787914
 20
824.735516
 11
274.402484
 21
826.583195
  0
LINE
  8
1
 62
7
  6
CONTINUOUS
 10
274.402484
 20
826.583195
 11
272.109632
 21
826.307217
  0
LINE
  8
1
 62
7
  6
CONTINUOUS
 10
272.109632
 20
826.307217
 11
271.202210
 21
824.183560
  0
CIRCLE
  8
1
 62
7
  6
CONTINUOUS
 10
273.495062
 20
824.459538
 40
3.323500
  0
CIRCLE
  8
1
 62
7
  6
CONTINUOUS
 10
273.495062
 20
824.459538
 40
4.000000
  0
ARC
  8
1
 62
7
  6
CONTINUOUS
 10
264.948202
 20
919.108696
 40
1.500000
 50
-89.999998
 51
-14.976742
  0
LINE
  8
1
 62
7
  6
CONTINUOUS
 10
252.079611
 20
917.608696
 11
264.948202
 21
917.608696
  0
ARC
  8
1
 62
7
  6
CONTINUOUS
 10
263.777765
 20
913.108696
 40
1.500000
 50
-7.099662
 51
90.000001
  0
ARC
  8
1
 62
7
  6
CONTINUOUS
 10
264.948202
 20
896.108696
 40
1.500000
 50
14.976742
 51
89.999997
  0
ARC
  8
1
 62
7
  6
CONTINUOUS
 10
263.777765
 20
902.108696
 40
1.500000
 50
-89.999998
 51
7.099672
  0
CIRCLE
  8
1
 62
7
  6
CONTINUOUS
 10
257.936571
 20
907.608696
 40
2.309401
  0
LINE
  8
1
 62
7
  6
CONTINUOUS
 10
255.269903
 20
907.608696
 11
256.603239
 21
909.918097
  0
LINE
  8
1
 62
7
  6
CONTINUOUS
 10
259.269903
 20
909.918097
 11
260.603239
 21
907.608696
  0
LINE
  8
1
 62
7
  6
CONTINUOUS
 10
256.603239
 20
905.299295
 11
259.269903
 21
905.299295
  0
LINE
  8
1
 62
7
  6
CONTINUOUS
 10
255.269903
 20
907.608696
 11
256.603239
 21
905.299295
  0
LINE
  8
1
 62
7
  6
CONTINUOUS
 10
260.603239
 20
907.608696
 11
259.269903
 21
905.299295
  0
LINE
  8
1
 62
7
  6
CONTINUOUS
 10
256.603239
 20
909.918097
 11
259.269903
 21
909.918097
  0
ARC
  8
1
 62
7
  6
CONTINUOUS
 10
252.079611
 20
899.108696
 40
1.500000
 50
89.999997
 51
-171.347430
  0
ARC
  8
1
 62
7
  6
CONTINUOUS
 10
252.079611
 20
899.108696
 40
1.500000
 50
-171.347430
 51
-89.999998
  0
CIRCLE
  8
1
 62
7
  6
CONTINUOUS
 10
257.936571
 20
907.608696
 40
4.250000
  0
LINE
  8
1
 62
7
  6
CONTINUOUS
 10
252.079611
 20
897.608696
 11
264.948202
 21
897.608696
  0
LINE
  8
1
 62
7
  6
CONTINUOUS
 10
252.079611
 20
900.608696
 11
263.777765
 21
900.608696
  0
LINE
  8
1
 62
7
  6
CONTINUOUS
 10
252.079611
 20
914.608696
 11
263.777765
 21
914.608696
  0
ARC
  8
1
 62
7
  6
CONTINUOUS
 10
252.079611
 20
916.108696
 40
1.500000
 50
171.347430
 51
-89.999998
  0
CIRCLE
  8
1
 62
7
  6
CONTINUOUS
 10
282.936571
 20
864.307426
 40
4.250000
  0
CIRCLE
  8
1
 62
7
  6
CONTINUOUS
 10
307.936571
 20
907.608696
 40
43.000000
  0
CIRCLE
  8
1
 62
7
  6
CONTINUOUS
 10
307.936571
 20
907.608696
 40
42.510498
  0
CIRCLE
  8
1
 62
7
  6
CONTINUOUS
 10
307.936571
 20
907.608696
 40
40.281776
  0
CIRCLE
  8
1
 62
7
  6
CONTINUOUS
 10
307.936571
 20
907.608696
 40
38.615726
  0
CIRCLE
  8
1
 62
7
  6
CONTINUOUS
 10
282.936571
 20
950.909965
 40
4.250000
  0
ARC
  8
1
 62
7
  6
CONTINUOUS
 10
307.936571
 20
907.608696
 40
58.000000
 50
39.652563
 51
-39.652563
  0
LINE
  8
1
 62
7
  6
CONTINUOUS
 10
399.236574
 20
929.608696
 11
399.736574
 21
929.608696
  0
ARC
  8
1
 62
7
  6
CONTINUOUS
 10
399.736574
 20
927.108696
 40
1.500000
 50
-89.999998
 51
90.000001
  0
LINE
  8
1
 62
7
  6
CONTINUOUS
 10
386.086573
 20
945.191047
 11
386.086573
 21
957.608696
  0
ARC
  8
1
 62
7
  6
CONTINUOUS
 10
441.863069
 20
938.108701
 40
49.126503
 50
180.000000
 51
-171.818484
  0
LINE
  8
1
 62
7
  6
CONTINUOUS
 10
399.236574
 20
929.640520
 11
393.236574
 21
929.640520
  0
LINE
  8
1
 62
7
  6
CONTINUOUS
 10
399.236574
 20
931.117527
 11
393.236574
 21
931.117527
  0
LINE
  8
1
 62
7
  6
CONTINUOUS
 10
399.236574
 20
945.208694
 11
387.086573
 21
945.208694
  0
LINE
  8
1
 62
7
  6
CONTINUOUS
 10
399.236574
 20
885.608696
 11
399.736574
 21
885.608696
  0
ARC
  8
1
 62
7
  6
CONTINUOUS
 10
399.736574
 20
888.108696
 40
1.500000
 50
-89.999998
 51
90.000001
  0
ARC
  8
1
 62
7
  6
CONTINUOUS
 10
441.863069
 20
877.108690
 40
49.126503
 50
171.818484
 51
180.000000
  0
LINE
  8
1
 62
7
  6
CONTINUOUS
 10
392.736574
 20
907.608696
 11
392.736574
 21
877.108696
  0
LINE
  8
1
 62
7
  6
CONTINUOUS
 10
393.236574
 20
907.608696
 11
393.236574
 21
884.099865
  0
LINE
  8
1
 62
7
  6
CONTINUOUS
 10
399.236574
 20
870.008697
 11
387.086573
 21
870.008697
  0
LINE
  8
1
 62
7
  6
CONTINUOUS
 10
399.236574
 20
885.576872
 11
393.236574
 21
885.576872
  0
LINE
  8
1
 62
7
  6
CONTINUOUS
 10
399.236574
 20
884.099865
 11
393.236574
 21
884.099865
  0
LINE
  8
1
 62
7
  6
CONTINUOUS
 10
392.736574
 20
907.608696
 11
392.736574
 21
938.108696
  0
LINE
  8
1
 62
7
  6
CONTINUOUS
 10
399.236574
 20
945.208694
 11
399.236574
 21
870.008697
  0
LINE
  8
1
 62
7
  6
CONTINUOUS
 10
387.086573
 20
870.008697
 11
387.086573
 21
945.208694
  0
LINE
  8
1
 62
7
  6
CONTINUOUS
 10
388.236574
 20
870.008697
 11
388.236574
 21
945.208694
  0
LINE
  8
1
 62
7
  6
CONTINUOUS
 10
393.236574
 20
907.608696
 11
393.236574
 21
931.117527
  0
LINE
  8
1
 62
7
  6
CONTINUOUS
 10
399.736574
 20
929.608696
 11
399.736574
 21
885.608696
  0
LINE
  8
1
 62
7
  6
CONTINUOUS
 10
348.936571
 20
944.608696
 11
353.086573
 21
944.608696
  0
LINE
  8
1
 62
7
  6
CONTINUOUS
 10
344.525305
 20
950.982242
 11
339.835173
 21
942.858696
  0
ARC
  8
1
 62
7
  6
CONTINUOUS
 10
343.226267
 20
951.732242
 40
1.500000
 50
-30.000003
 51
51.347441
  0
ARC
  8
1
 62
7
  6
CONTINUOUS
 10
343.226267
 20
951.732242
 40
1.500000
 50
51.347431
 51
149.999999
  0
LINE
  8
1
 62
7
  6
CONTINUOUS
 10
358.086573
 20
944.696930
 11
358.086573
 21
957.608696
  0
ARC
  8
1
 62
7
  6
CONTINUOUS
 10
328.503836
 20
960.232242
 40
1.500000
 50
68.652569
 51
149.999999
  0
ARC
  8
1
 62
7
  6
CONTINUOUS
 10
328.503836
 20
960.232242
 40
1.500000
 50
-30.000003
 51
68.652572
  0
CIRCLE
  8
1
 62
7
  6
CONTINUOUS
 10
332.936571
 20
950.909965
 40
2.309401
  0
LINE
  8
1
 62
7
  6
CONTINUOUS
 10
335.603237
 20
950.909965
 11
334.269905
 21
948.600567
  0
LINE
  8
1
 62
7
  6
CONTINUOUS
 10
331.603237
 20
948.600567
 11
330.269905
 21
950.909965
  0
LINE
  8
1
 62
7
  6
CONTINUOUS
 10
334.269905
 20
948.600567
 11
331.603237
 21
948.600567
  0
LINE
  8
1
 62
7
  6
CONTINUOUS
 10
331.603237
 20
953.219368
 11
330.269905
 21
950.909965
  0
LINE
  8
1
 62
7
  6
CONTINUOUS
 10
334.269905
 20
953.219368
 11
335.603237
 21
950.909965
  0
LINE
  8
1
 62
7
  6
CONTINUOUS
 10
334.269905
 20
953.219368
 11
331.603237
 21
953.219368
  0
ARC
  8
1
 62
7
  6
CONTINUOUS
 10
325.252834
 20
948.601341
 40
1.500000
 50
149.999999
 51
-112.900338
  0
CIRCLE
  8
1
 62
7
  6
CONTINUOUS
 10
332.936571
 20
950.909965
 40
4.250000
  0
LINE
  8
1
 62
7
  6
CONTINUOUS
 10
329.802874
 20
959.482242
 11
323.953796
 21
949.351341
  0
LINE
  8
1
 62
7
  6
CONTINUOUS
 10
327.204798
 20
960.982242
 11
320.770502
 21
949.837715
  0
ARC
  8
1
 62
7
  6
CONTINUOUS
 10
334.779114
 20
943.101341
 40
1.500000
 50
-127.099662
 51
-30.000003
  0
LINE
  8
1
 62
7
  6
CONTINUOUS
 10
335.504669
 20
940.608696
 11
348.936571
 21
940.608696
  0
LINE
  8
1
 62
7
  6
CONTINUOUS
 10
348.936571
 20
920.570177
 11
348.936571
 21
944.608696
  0
LINE
  8
1
 62
7
  6
CONTINUOUS
 10
341.927229
 20
952.482242
 11
336.078152
 21
942.351341
  0
ARC
  8
1
 62
7
  6
CONTINUOUS
 10
341.134210
 20
942.108696
 40
1.500000
 50
149.999999
 51
-89.999998
  0
CIRCLE
  8
1
 62
7
  6
CONTINUOUS
 10
282.936571
 20
950.909965
 40
2.309401
  0
LINE
  8
1
 62
7
  6
CONTINUOUS
 10
285.603237
 20
950.909965
 11
284.269905
 21
948.600567
  0
LINE
  8
1
 62
7
  6
CONTINUOUS
 10
284.269905
 20
948.600567
 11
281.603237
 21
948.600567
  0
LINE
  8
1
 62
7
  6
CONTINUOUS
 10
284.269905
 20
953.219368
 11
285.603237
 21
950.909965
  0
LINE
  8
1
 62
7
  6
CONTINUOUS
 10
281.603237
 20
953.219368
 11
284.269905
 21
953.219368
  0
ARC
  8
1
 62
7
  6
CONTINUOUS
 10
319.471464
 20
950.587715
 40
1.500000
 50
-105.023265
 51
-30.000003
  0
LINE
  8
1
 62
7
  6
CONTINUOUS
 10
320.312734
 20
902.295650
 11
320.328769
 21
902.301486
  0
LINE
  8
1
 62
7
  6
CONTINUOUS
 10
320.186484
 20
902.409325
 11
320.328769
 21
902.461113
  0
LINE
  8
1
 62
7
  6
CONTINUOUS
 10
320.060234
 20
902.523001
 11
320.328769
 21
902.620740
  0
LINE
  8
1
 62
7
  6
CONTINUOUS
 10
319.933985
 20
902.636676
 11
320.328769
 21
902.780366
  0
LINE
  8
1
 62
7
  6
CONTINUOUS
 10
319.807735
 20
902.750352
 11
320.328769
 21
902.939993
  0
LINE
  8
1
 62
7
  6
CONTINUOUS
 10
319.681486
 20
902.864028
 11
320.328769
 21
903.099620
  0
LINE
  8
1
 62
7
  6
CONTINUOUS
 10
319.555236
 20
902.977703
 11
320.328769
 21
903.259246
  0
LINE
  8
1
 62
7
  6
CONTINUOUS
 10
320.328769
 20
894.065616
 11
320.328769
 21
895.143236
  0
LINE
  8
1
 62
7
  6
CONTINUOUS
 10
320.328769
 20
891.987350
 11
320.328769
 21
893.064970
  0
LINE
  8
1
 62
7
  6
CONTINUOUS
 10
320.328769
 20
896.066909
 11
320.328769
 21
897.144528
  0
LINE
  8
1
 62
7
  6
CONTINUOUS
 10
320.328769
 20
898.087446
 11
320.328769
 21
900.552028
  0
LINE
  8
1
 62
7
  6
CONTINUOUS
 10
348.936571
 20
870.608696
 11
353.086573
 21
870.608696
  0
LINE
  8
1
 62
7
  6
CONTINUOUS
 10
344.525305
 20
864.235149
 11
339.835173
 21
872.358696
  0
ARC
  8
1
 62
7
  6
CONTINUOUS
 10
343.226267
 20
863.485149
 40
1.500000
 50
-51.347431
 51
29.999999
  0
ARC
  8
1
 62
7
  6
CONTINUOUS
 10
343.226267
 20
863.485149
 40
1.500000
 50
-149.999999
 51
-51.347431
  0
ARC
  8
1
 62
7
  6
CONTINUOUS
 10
341.134210
 20
873.108696
 40
1.500000
 50
89.999997
 51
-149.999999
  0
LINE
  8
1
 62
7
  6
CONTINUOUS
 10
334.269905
 20
861.998024
 11
335.603237
 21
864.307426
  0
LINE
  8
1
 62
7
  6
CONTINUOUS
 10
335.603237
 20
864.307426
 11
334.269905
 21
866.616825
  0
CIRCLE
  8
1
 62
7
  6
CONTINUOUS
 10
332.936571
 20
864.307426
 40
2.309401
  0
LINE
  8
1
 62
7
  6
CONTINUOUS
 10
331.603237
 20
866.616825
 11
334.269905
 21
866.616825
  0
LINE
  8
1
 62
7
  6
CONTINUOUS
 10
331.603237
 20
861.998024
 11
330.269905
 21
864.307426
  0
LINE
  8
1
 62
7
  6
CONTINUOUS
 10
334.269905
 20
861.998024
 11
331.603237
 21
861.998024
  0
LINE
  8
1
 62
7
  6
CONTINUOUS
 10
330.269905
 20
864.307426
 11
331.603237
 21
866.616825
  0
ARC
  8
1
 62
7
  6
CONTINUOUS
 10
325.252834
 20
866.616050
 40
1.500000
 50
89.999997
 51
-149.999999
  0
CIRCLE
  8
1
 62
7
  6
CONTINUOUS
 10
332.936571
 20
864.307426
 40
4.250000
  0
ARC
  8
1
 62
7
  6
CONTINUOUS
 10
334.779114
 20
872.116050
 40
1.500000
 50
30.000003
 51
127.099656
  0
LINE
  8
1
 62
7
  6
CONTINUOUS
 10
335.504669
 20
874.608696
 11
348.936571
 21
874.608696
  0
LINE
  8
1
 62
7
  6
CONTINUOUS
 10
341.927229
 20
862.735149
 11
336.078152
 21
872.866050
  0
LINE
  8
1
 62
7
  6
CONTINUOUS
 10
348.936571
 20
870.608696
 11
348.936571
 21
894.647215
  0
LINE
  8
1
 62
7
  6
CONTINUOUS
 10
294.883764
 20
901.941352
 11
294.883764
 21
903.018971
  0
LINE
  8
1
 62
7
  6
CONTINUOUS
 10
294.883764
 20
903.961888
 11
294.883764
 21
906.944584
  0
LINE
  8
1
 62
7
  6
CONTINUOUS
 10
294.883764
 20
899.940058
 11
294.883764
 21
901.017678
  0
LINE
  8
1
 62
7
  6
CONTINUOUS
 10
294.883764
 20
897.861792
 11
294.883764
 21
898.939412
  0
LINE
  8
1
 62
7
  6
CONTINUOUS
 10
300.518466
 20
905.643711
 11
294.883764
 21
910.717219
  0
LINE
  8
1
 62
7
  6
CONTINUOUS
 10
300.816940
 20
905.478586
 11
294.883764
 21
910.820842
  0
LINE
  8
1
 62
7
  6
CONTINUOUS
 10
306.211482
 20
901.346678
 11
294.883764
 21
911.546201
  0
LINE
  8
1
 62
7
  6
CONTINUOUS
 10
306.830554
 20
901.203754
 11
294.883764
 21
911.960692
  0
LINE
  8
1
 62
7
  6
CONTINUOUS
 10
307.294858
 20
901.096561
 11
294.935292
 21
912.225164
  0
LINE
  8
1
 62
7
  6
CONTINUOUS
 10
306.985322
 20
901.168023
 11
294.883764
 21
912.064315
  0
LINE
  8
1
 62
7
  6
CONTINUOUS
 10
306.675786
 20
901.239485
 11
294.883764
 21
911.857069
  0
LINE
  8
1
 62
7
  6
CONTINUOUS
 10
306.366250
 20
901.310947
 11
294.883764
 21
911.649823
  0
LINE
  8
1
 62
7
  6
CONTINUOUS
 10
306.056714
 20
901.382409
 11
294.883764
 21
911.442578
  0
LINE
  8
1
 62
7
  6
CONTINUOUS
 10
305.747178
 20
901.453871
 11
294.883764
 21
911.235333
  0
LINE
  8
1
 62
7
  6
CONTINUOUS
 10
305.901946
 20
901.418140
 11
294.883764
 21
911.338955
  0
LINE
  8
1
 62
7
  6
CONTINUOUS
 10
306.521018
 20
901.275216
 11
294.883764
 21
911.753446
  0
LINE
  8
1
 62
7
  6
CONTINUOUS
 10
307.140090
 20
901.132292
 11
294.883764
 21
912.167937
  0
LINE
  8
1
 62
7
  6
CONTINUOUS
 10
301.126476
 20
905.407124
 11
294.883764
 21
911.028087
  0
LINE
  8
1
 62
7
  6
CONTINUOUS
 10
305.592410
 20
901.489602
 11
294.883764
 21
911.131710
  0
LINE
  8
1
 62
7
  6
CONTINUOUS
 10
300.971708
 20
905.442856
 11
294.883764
 21
910.924464
  0
LINE
  8
1
 62
7
  6
CONTINUOUS
 10
307.449626
 20
901.060830
 11
294.883764
 21
912.375183
  0
LINE
  8
1
 62
7
  6
CONTINUOUS
 10
309.925914
 20
900.489134
 11
294.883764
 21
914.033146
  0
LINE
  8
1
 62
7
  6
CONTINUOUS
 10
311.164058
 20
900.203286
 11
294.883764
 21
914.862128
  0
LINE
  8
1
 62
7
  6
CONTINUOUS
 10
308.687770
 20
900.774982
 11
294.883764
 21
913.204164
  0
LINE
  8
1
 62
7
  6
CONTINUOUS
 10
308.068698
 20
900.917906
 11
294.883764
 21
912.789673
  0
LINE
  8
1
 62
7
  6
CONTINUOUS
 10
309.306842
 20
900.632058
 11
294.883764
 21
913.618655
  0
LINE
  8
1
 62
7
  6
CONTINUOUS
 10
310.544986
 20
900.346210
 11
294.883764
 21
914.447637
  0
LINE
  8
1
 62
7
  6
CONTINUOUS
 10
311.318826
 20
900.167555
 11
294.883764
 21
914.965750
  0
LINE
  8
1
 62
7
  6
CONTINUOUS
 10
311.009290
 20
900.239017
 11
294.883764
 21
914.758505
  0
LINE
  8
1
 62
7
  6
CONTINUOUS
 10
310.699754
 20
900.310479
 11
294.883764
 21
914.551260
  0
LINE
  8
1
 62
7
  6
CONTINUOUS
 10
310.390218
 20
900.381941
 11
294.883764
 21
914.344014
  0
LINE
  8
1
 62
7
  6
CONTINUOUS
 10
310.080682
 20
900.453403
 11
294.883764
 21
914.136769
  0
LINE
  8
1
 62
7
  6
CONTINUOUS
 10
309.771146
 20
900.524865
 11
294.883764
 21
913.929523
  0
LINE
  8
1
 62
7
  6
CONTINUOUS
 10
309.461610
 20
900.596327
 11
294.883764
 21
913.722278
  0
LINE
  8
1
 62
7
  6
CONTINUOUS
 10
309.152074
 20
900.667789
 11
294.883764
 21
913.515032
  0
LINE
  8
1
 62
7
  6
CONTINUOUS
 10
308.842538
 20
900.739251
 11
294.883764
 21
913.307787
  0
LINE
  8
1
 62
7
  6
CONTINUOUS
 10
308.533002
 20
900.810713
 11
294.883764
 21
913.100542
  0
LINE
  8
1
 62
7
  6
CONTINUOUS
 10
308.223466
 20
900.882175
 11
294.883764
 21
912.893296
  0
LINE
  8
1
 62
7
  6
CONTINUOUS
 10
307.913930
 20
900.953637
 11
294.883764
 21
912.686051
  0
LINE
  8
1
 62
7
  6
CONTINUOUS
 10
307.604394
 20
901.025099
 11
294.883764
 21
912.478805
  0
LINE
  8
1
 62
7
  6
CONTINUOUS
 10
307.759162
 20
900.989368
 11
294.883764
 21
912.582428
  0
LINE
  8
1
 62
7
  6
CONTINUOUS
 10
308.378234
 20
900.846444
 11
294.883764
 21
912.996919
  0
LINE
  8
1
 62
7
  6
CONTINUOUS
 10
308.997306
 20
900.703520
 11
294.883764
 21
913.411410
  0
LINE
  8
1
 62
7
  6
CONTINUOUS
 10
309.616378
 20
900.560596
 11
294.883764
 21
913.825901
  0
LINE
  8
1
 62
7
  6
CONTINUOUS
 10
310.235450
 20
900.417672
 11
294.883764
 21
914.240391
  0
LINE
  8
1
 62
7
  6
CONTINUOUS
 10
310.854522
 20
900.274748
 11
294.883764
 21
914.654883
  0
LINE
  8
1
 62
7
  6
CONTINUOUS
 10
300.518466
 20
905.643711
 11
294.883764
 21
906.944584
  0
CIRCLE
  8
1
 62
7
  6
CONTINUOUS
 10
282.936571
 20
864.307426
 40
2.309401
  0
LINE
  8
1
 62
7
  6
CONTINUOUS
 10
281.603237
 20
866.616825
 11
284.269905
 21
866.616825
  0
LINE
  8
1
 62
7
  6
CONTINUOUS
 10
284.269905
 20
861.998024
 11
285.603237
 21
864.307426
  0
LINE
  8
1
 62
7
  6
CONTINUOUS
 10
281.603237
 20
861.998024
 11
284.269905
 21
861.998024
  0
LINE
  8
1
 62
7
  6
CONTINUOUS
 10
284.269905
 20
866.616825
 11
285.603237
 21
864.307426
  0
ARC
  8
1
 62
7
  6
CONTINUOUS
 10
319.471464
 20
864.629676
 40
1.500000
 50
30.000003
 51
89.999997
  0
LINE
  8
1
 62
7
  6
CONTINUOUS
 10
313.369009
 20
908.547807
 11
320.328769
 21
911.080953
  0
LINE
  8
1
 62
7
  6
CONTINUOUS
 10
315.262752
 20
906.842674
 11
320.328769
 21
908.686553
  0
LINE
  8
1
 62
7
  6
CONTINUOUS
 10
315.136502
 20
906.956349
 11
320.328769
 21
908.846180
  0
LINE
  8
1
 62
7
  6
CONTINUOUS
 10
315.010253
 20
907.070025
 11
320.328769
 21
909.005806
  0
LINE
  8
1
 62
7
  6
CONTINUOUS
 10
314.884004
 20
907.183700
 11
320.328769
 21
909.165433
  0
LINE
  8
1
 62
7
  6
CONTINUOUS
 10
314.757754
 20
907.297376
 11
320.328769
 21
909.325060
  0
LINE
  8
1
 62
7
  6
CONTINUOUS
 10
314.631504
 20
907.411051
 11
320.328769
 21
909.484686
  0
LINE
  8
1
 62
7
  6
CONTINUOUS
 10
314.505255
 20
907.524727
 11
320.328769
 21
909.644313
  0
LINE
  8
1
 62
7
  6
CONTINUOUS
 10
314.379005
 20
907.638403
 11
320.328769
 21
909.803939
  0
LINE
  8
1
 62
7
  6
CONTINUOUS
 10
314.252756
 20
907.752078
 11
320.328769
 21
909.963566
  0
LINE
  8
1
 62
7
  6
CONTINUOUS
 10
314.126506
 20
907.865754
 11
320.328769
 21
910.123193
  0
LINE
  8
1
 62
7
  6
CONTINUOUS
 10
314.000256
 20
907.979429
 11
320.328769
 21
910.282820
  0
LINE
  8
1
 62
7
  6
CONTINUOUS
 10
313.874007
 20
908.093105
 11
320.328769
 21
910.442446
  0
LINE
  8
1
 62
7
  6
CONTINUOUS
 10
313.747757
 20
908.206781
 11
320.328769
 21
910.602073
  0
LINE
  8
1
 62
7
  6
CONTINUOUS
 10
313.621508
 20
908.320456
 11
320.328769
 21
910.761700
  0
LINE
  8
1
 62
7
  6
CONTINUOUS
 10
313.495258
 20
908.434132
 11
320.328769
 21
910.921326
  0
LINE
  8
1
 62
7
  6
CONTINUOUS
 10
320.328769
 20
902.281211
 11
307.940279
 21
913.435858
  0
LINE
  8
1
 62
7
  6
CONTINUOUS
 10
320.328769
 20
894.604426
 11
294.883764
 21
900.478868
  0
LINE
  8
1
 62
7
  6
CONTINUOUS
 10
320.328769
 20
894.296534
 11
294.883764
 21
900.170977
  0
LINE
  8
1
 62
7
  6
CONTINUOUS
 10
320.328769
 20
896.605719
 11
294.883764
 21
902.480161
  0
LINE
  8
1
 62
7
  6
CONTINUOUS
 10
320.328769
 20
900.300414
 11
294.883764
 21
906.174856
  0
LINE
  8
1
 62
7
  6
CONTINUOUS
 10
320.328769
 20
894.912317
 11
294.883764
 21
900.786760
  0
LINE
  8
1
 62
7
  6
CONTINUOUS
 10
320.328769
 20
895.066263
 11
294.883764
 21
900.940705
  0
LINE
  8
1
 62
7
  6
CONTINUOUS
 10
320.328769
 20
894.758371
 11
294.883764
 21
900.632814
  0
LINE
  8
1
 62
7
  6
CONTINUOUS
 10
320.328769
 20
894.450480
 11
294.883764
 21
900.324923
  0
LINE
  8
1
 62
7
  6
CONTINUOUS
 10
320.328769
 20
894.142589
 11
294.883764
 21
900.017031
  0
LINE
  8
1
 62
7
  6
CONTINUOUS
 10
320.328769
 20
894.065616
 11
294.883764
 21
899.940058
  0
LINE
  8
1
 62
7
  6
CONTINUOUS
 10
320.328769
 20
894.219562
 11
294.883764
 21
900.094004
  0
LINE
  8
1
 62
7
  6
CONTINUOUS
 10
320.328769
 20
894.373507
 11
294.883764
 21
900.247950
  0
LINE
  8
1
 62
7
  6
CONTINUOUS
 10
320.328769
 20
894.527453
 11
294.883764
 21
900.401895
  0
LINE
  8
1
 62
7
  6
CONTINUOUS
 10
320.328769
 20
894.681399
 11
294.883764
 21
900.555841
  0
LINE
  8
1
 62
7
  6
CONTINUOUS
 10
320.328769
 20
894.835344
 11
294.883764
 21
900.709787
  0
LINE
  8
1
 62
7
  6
CONTINUOUS
 10
320.328769
 20
894.989290
 11
294.883764
 21
900.863732
  0
LINE
  8
1
 62
7
  6
CONTINUOUS
 10
320.328769
 20
895.143236
 11
294.883764
 21
901.017678
  0
LINE
  8
1
 62
7
  6
CONTINUOUS
 10
320.328769
 20
896.913610
 11
294.883764
 21
902.788052
  0
LINE
  8
1
 62
7
  6
CONTINUOUS
 10
320.328769
 20
896.297827
 11
294.883764
 21
902.172270
  0
LINE
  8
1
 62
7
  6
CONTINUOUS
 10
320.328769
 20
896.143882
 11
294.883764
 21
902.018324
  0
LINE
  8
1
 62
7
  6
CONTINUOUS
 10
320.328769
 20
896.451773
 11
294.883764
 21
902.326215
  0
LINE
  8
1
 62
7
  6
CONTINUOUS
 10
320.328769
 20
896.759664
 11
294.883764
 21
902.634107
  0
LINE
  8
1
 62
7
  6
CONTINUOUS
 10
320.328769
 20
897.067556
 11
294.883764
 21
902.941998
  0
LINE
  8
1
 62
7
  6
CONTINUOUS
 10
320.328769
 20
897.144528
 11
294.883764
 21
903.018971
  0
LINE
  8
1
 62
7
  6
CONTINUOUS
 10
320.328769
 20
896.990583
 11
294.883764
 21
902.865025
  0
LINE
  8
1
 62
7
  6
CONTINUOUS
 10
320.328769
 20
896.836637
 11
294.883764
 21
902.711080
  0
LINE
  8
1
 62
7
  6
CONTINUOUS
 10
320.328769
 20
896.605719
 11
294.883764
 21
902.480161
  0
LINE
  8
1
 62
7
  6
CONTINUOUS
 10
320.328769
 20
896.528746
 11
294.883764
 21
902.403188
  0
LINE
  8
1
 62
7
  6
CONTINUOUS
 10
320.328769
 20
896.374800
 11
294.883764
 21
902.249242
  0
LINE
  8
1
 62
7
  6
CONTINUOUS
 10
320.328769
 20
896.220854
 11
294.883764
 21
902.095297
  0
LINE
  8
1
 62
7
  6
CONTINUOUS
 10
320.328769
 20
896.066909
 11
294.883764
 21
901.941352
  0
LINE
  8
1
 62
7
  6
CONTINUOUS
 10
320.328769
 20
896.682691
 11
294.883764
 21
902.557134
  0
LINE
  8
1
 62
7
  6
CONTINUOUS
 10
320.328769
 20
899.145821
 11
294.883764
 21
905.020264
  0
LINE
  8
1
 62
7
  6
CONTINUOUS
 10
320.328769
 20
898.376094
 11
294.883764
 21
904.250536
  0
LINE
  8
1
 62
7
  6
CONTINUOUS
 10
320.328769
 20
898.760957
 11
294.883764
 21
904.635400
  0
LINE
  8
1
 62
7
  6
CONTINUOUS
 10
320.328769
 20
899.530685
 11
294.883764
 21
905.405128
  0
LINE
  8
1
 62
7
  6
CONTINUOUS
 10
320.328769
 20
899.915549
 11
294.883764
 21
905.789992
  0
LINE
  8
1
 62
7
  6
CONTINUOUS
 10
320.129751
 20
900.731225
 11
294.883764
 21
906.559720
  0
LINE
  8
1
 62
7
  6
CONTINUOUS
 10
319.842340
 20
900.990011
 11
294.883764
 21
906.752152
  0
LINE
  8
1
 62
7
  6
CONTINUOUS
 10
320.328769
 20
900.492846
 11
294.883764
 21
906.367288
  0
LINE
  8
1
 62
7
  6
CONTINUOUS
 10
320.328769
 20
900.107982
 11
294.883764
 21
905.982424
  0
LINE
  8
1
 62
7
  6
CONTINUOUS
 10
320.328769
 20
899.723117
 11
294.883764
 21
905.597560
  0
LINE
  8
1
 62
7
  6
CONTINUOUS
 10
320.328769
 20
899.338254
 11
294.883764
 21
905.212696
  0
LINE
  8
1
 62
7
  6
CONTINUOUS
 10
320.328769
 20
898.953390
 11
294.883764
 21
904.827832
  0
LINE
  8
1
 62
7
  6
CONTINUOUS
 10
320.328769
 20
898.568525
 11
294.883764
 21
904.442968
  0
LINE
  8
1
 62
7
  6
CONTINUOUS
 10
320.328769
 20
898.183661
 11
294.883764
 21
904.058104
  0
LINE
  8
1
 62
7
  6
CONTINUOUS
 10
320.328769
 20
898.087446
 11
294.883764
 21
903.961888
  0
LINE
  8
1
 62
7
  6
CONTINUOUS
 10
320.328769
 20
898.279877
 11
294.883764
 21
904.154320
  0
LINE
  8
1
 62
7
  6
CONTINUOUS
 10
320.328769
 20
898.472310
 11
294.883764
 21
904.346752
  0
LINE
  8
1
 62
7
  6
CONTINUOUS
 10
320.328769
 20
898.664741
 11
294.883764
 21
904.539184
  0
LINE
  8
1
 62
7
  6
CONTINUOUS
 10
320.328769
 20
898.857174
 11
294.883764
 21
904.731616
  0
LINE
  8
1
 62
7
  6
CONTINUOUS
 10
320.328769
 20
899.049605
 11
294.883764
 21
904.924048
  0
LINE
  8
1
 62
7
  6
CONTINUOUS
 10
320.328769
 20
899.242037
 11
294.883764
 21
905.116480
  0
LINE
  8
1
 62
7
  6
CONTINUOUS
 10
320.328769
 20
899.434470
 11
294.883764
 21
905.308912
  0
LINE
  8
1
 62
7
  6
CONTINUOUS
 10
320.328769
 20
899.626902
 11
294.883764
 21
905.501344
  0
LINE
  8
1
 62
7
  6
CONTINUOUS
 10
320.328769
 20
899.819334
 11
294.883764
 21
905.693776
  0
LINE
  8
1
 62
7
  6
CONTINUOUS
 10
320.328769
 20
900.011766
 11
294.883764
 21
905.886208
  0
LINE
  8
1
 62
7
  6
CONTINUOUS
 10
320.328769
 20
900.204198
 11
294.883764
 21
906.078640
  0
LINE
  8
1
 62
7
  6
CONTINUOUS
 10
320.328769
 20
900.396629
 11
294.883764
 21
906.271072
  0
LINE
  8
1
 62
7
  6
CONTINUOUS
 10
320.273456
 20
900.601832
 11
294.883764
 21
906.463504
  0
LINE
  8
1
 62
7
  6
CONTINUOUS
 10
319.986046
 20
900.860618
 11
294.883764
 21
906.655936
  0
LINE
  8
1
 62
7
  6
CONTINUOUS
 10
319.698635
 20
901.119404
 11
294.883764
 21
906.848368
  0
LINE
  8
1
 62
7
  6
CONTINUOUS
 10
320.328769
 20
892.603133
 11
294.883764
 21
898.477575
  0
LINE
  8
1
 62
7
  6
CONTINUOUS
 10
320.328769
 20
891.987350
 11
294.883764
 21
897.861792
  0
LINE
  8
1
 62
7
  6
CONTINUOUS
 10
320.328769
 20
892.911024
 11
294.883764
 21
898.785466
  0
LINE
  8
1
 62
7
  6
CONTINUOUS
 10
320.328769
 20
892.295242
 11
294.883764
 21
898.169684
  0
LINE
  8
1
 62
7
  6
CONTINUOUS
 10
320.328769
 20
892.141296
 11
294.883764
 21
898.015738
  0
LINE
  8
1
 62
7
  6
CONTINUOUS
 10
320.328769
 20
892.449187
 11
294.883764
 21
898.323629
  0
LINE
  8
1
 62
7
  6
CONTINUOUS
 10
320.328769
 20
892.757079
 11
294.883764
 21
898.631521
  0
LINE
  8
1
 62
7
  6
CONTINUOUS
 10
320.328769
 20
893.064970
 11
294.883764
 21
898.939412
  0
LINE
  8
1
 62
7
  6
CONTINUOUS
 10
320.328769
 20
892.987997
 11
294.883764
 21
898.862439
  0
LINE
  8
1
 62
7
  6
CONTINUOUS
 10
320.328769
 20
892.834051
 11
294.883764
 21
898.708494
  0
LINE
  8
1
 62
7
  6
CONTINUOUS
 10
320.328769
 20
892.680106
 11
294.883764
 21
898.554548
  0
LINE
  8
1
 62
7
  6
CONTINUOUS
 10
320.328769
 20
892.526160
 11
294.883764
 21
898.400602
  0
LINE
  8
1
 62
7
  6
CONTINUOUS
 10
320.328769
 20
892.372214
 11
294.883764
 21
898.246657
  0
LINE
  8
1
 62
7
  6
CONTINUOUS
 10
320.328769
 20
892.218269
 11
294.883764
 21
898.092711
  0
LINE
  8
1
 62
7
  6
CONTINUOUS
 10
320.328769
 20
892.064323
 11
294.883764
 21
897.938765
  0
LINE
  8
1
 62
7
  6
CONTINUOUS
 10
315.389001
 20
906.728998
 11
320.328769
 21
908.526926
  0
LINE
  8
1
 62
7
  6
CONTINUOUS
 10
316.903996
 20
905.364891
 11
320.328769
 21
906.611406
  0
LINE
  8
1
 62
7
  6
CONTINUOUS
 10
316.777746
 20
905.478566
 11
320.328769
 21
906.771033
  0
LINE
  8
1
 62
7
  6
CONTINUOUS
 10
316.651497
 20
905.592242
 11
320.328769
 21
906.930660
  0
LINE
  8
1
 62
7
  6
CONTINUOUS
 10
316.525247
 20
905.705918
 11
320.328769
 21
907.090286
  0
LINE
  8
1
 62
7
  6
CONTINUOUS
 10
316.398998
 20
905.819593
 11
320.328769
 21
907.249913
  0
LINE
  8
1
 62
7
  6
CONTINUOUS
 10
316.272748
 20
905.933269
 11
320.328769
 21
907.409540
  0
LINE
  8
1
 62
7
  6
CONTINUOUS
 10
316.146499
 20
906.046944
 11
320.328769
 21
907.569166
  0
LINE
  8
1
 62
7
  6
CONTINUOUS
 10
316.020249
 20
906.160620
 11
320.328769
 21
907.728793
  0
LINE
  8
1
 62
7
  6
CONTINUOUS
 10
315.893999
 20
906.274296
 11
320.328769
 21
907.888420
  0
LINE
  8
1
 62
7
  6
CONTINUOUS
 10
315.767750
 20
906.387971
 11
320.328769
 21
908.048046
  0
LINE
  8
1
 62
7
  6
CONTINUOUS
 10
315.641500
 20
906.501647
 11
320.328769
 21
908.207673
  0
LINE
  8
1
 62
7
  6
CONTINUOUS
 10
315.515251
 20
906.615322
 11
320.328769
 21
908.367300
  0
LINE
  8
1
 62
7
  6
CONTINUOUS
 10
319.428986
 20
903.091379
 11
320.328769
 21
903.418873
  0
LINE
  8
1
 62
7
  6
CONTINUOUS
 10
319.302737
 20
903.205054
 11
320.328769
 21
903.578499
  0
LINE
  8
1
 62
7
  6
CONTINUOUS
 10
319.176488
 20
903.318730
 11
320.328769
 21
903.738126
  0
LINE
  8
1
 62
7
  6
CONTINUOUS
 10
319.050238
 20
903.432406
 11
320.328769
 21
903.897753
  0
LINE
  8
1
 62
7
  6
CONTINUOUS
 10
318.923988
 20
903.546081
 11
320.328769
 21
904.057380
  0
LINE
  8
1
 62
7
  6
CONTINUOUS
 10
318.797739
 20
903.659757
 11
320.328769
 21
904.217006
  0
LINE
  8
1
 62
7
  6
CONTINUOUS
 10
318.671490
 20
903.773432
 11
320.328769
 21
904.376633
  0
LINE
  8
1
 62
7
  6
CONTINUOUS
 10
318.545240
 20
903.887108
 11
320.328769
 21
904.536260
  0
LINE
  8
1
 62
7
  6
CONTINUOUS
 10
318.418990
 20
904.000784
 11
320.328769
 21
904.695886
  0
LINE
  8
1
 62
7
  6
CONTINUOUS
 10
318.292741
 20
904.114459
 11
320.328769
 21
904.855513
  0
LINE
  8
1
 62
7
  6
CONTINUOUS
 10
318.166491
 20
904.228135
 11
320.328769
 21
905.015140
  0
LINE
  8
1
 62
7
  6
CONTINUOUS
 10
318.040242
 20
904.341810
 11
320.328769
 21
905.174766
  0
LINE
  8
1
 62
7
  6
CONTINUOUS
 10
317.913992
 20
904.455486
 11
320.328769
 21
905.334393
  0
LINE
  8
1
 62
7
  6
CONTINUOUS
 10
317.787742
 20
904.569162
 11
320.328769
 21
905.494020
  0
LINE
  8
1
 62
7
  6
CONTINUOUS
 10
317.661493
 20
904.682837
 11
320.328769
 21
905.653646
  0
LINE
  8
1
 62
7
  6
CONTINUOUS
 10
317.535244
 20
904.796513
 11
320.328769
 21
905.813273
  0
LINE
  8
1
 62
7
  6
CONTINUOUS
 10
317.408994
 20
904.910188
 11
320.328769
 21
905.972900
  0
LINE
  8
1
 62
7
  6
CONTINUOUS
 10
317.282744
 20
905.023864
 11
320.328769
 21
906.132526
  0
LINE
  8
1
 62
7
  6
CONTINUOUS
 10
317.156495
 20
905.137540
 11
320.328769
 21
906.292153
  0
LINE
  8
1
 62
7
  6
CONTINUOUS
 10
317.030246
 20
905.251215
 11
320.328769
 21
906.451780
  0
LINE
  8
1
 62
7
  6
CONTINUOUS
 10
310.591519
 20
911.048670
 11
320.328769
 21
914.592740
  0
LINE
  8
1
 62
7
  6
CONTINUOUS
 10
310.465269
 20
911.162346
 11
320.328769
 21
914.752366
  0
LINE
  8
1
 62
7
  6
CONTINUOUS
 10
310.339020
 20
911.276022
 11
320.328769
 21
914.911993
  0
LINE
  8
1
 62
7
  6
CONTINUOUS
 10
313.242759
 20
908.661483
 11
320.328769
 21
911.240580
  0
LINE
  8
1
 62
7
  6
CONTINUOUS
 10
313.116510
 20
908.775159
 11
320.328769
 21
911.400206
  0
LINE
  8
1
 62
7
  6
CONTINUOUS
 10
312.990260
 20
908.888834
 11
320.328769
 21
911.559833
  0
LINE
  8
1
 62
7
  6
CONTINUOUS
 10
312.864011
 20
909.002510
 11
320.328769
 21
911.719460
  0
LINE
  8
1
 62
7
  6
CONTINUOUS
 10
312.737761
 20
909.116185
 11
320.328769
 21
911.879086
  0
LINE
  8
1
 62
7
  6
CONTINUOUS
 10
312.611512
 20
909.229861
 11
320.328769
 21
912.038713
  0
LINE
  8
1
 62
7
  6
CONTINUOUS
 10
312.485262
 20
909.343537
 11
320.328769
 21
912.198340
  0
LINE
  8
1
 62
7
  6
CONTINUOUS
 10
312.359012
 20
909.457212
 11
320.328769
 21
912.357966
  0
LINE
  8
1
 62
7
  6
CONTINUOUS
 10
312.232763
 20
909.570888
 11
320.328769
 21
912.517593
  0
LINE
  8
1
 62
7
  6
CONTINUOUS
 10
312.106513
 20
909.684563
 11
320.328769
 21
912.677220
  0
LINE
  8
1
 62
7
  6
CONTINUOUS
 10
311.980264
 20
909.798239
 11
320.328769
 21
912.836846
  0
LINE
  8
1
 62
7
  6
CONTINUOUS
 10
311.854015
 20
909.911914
 11
320.328769
 21
912.996473
  0
LINE
  8
1
 62
7
  6
CONTINUOUS
 10
311.727765
 20
910.025590
 11
320.328769
 21
913.156099
  0
LINE
  8
1
 62
7
  6
CONTINUOUS
 10
311.601515
 20
910.139266
 11
320.328769
 21
913.315726
  0
LINE
  8
1
 62
7
  6
CONTINUOUS
 10
311.475266
 20
910.252941
 11
320.328769
 21
913.475353
  0
LINE
  8
1
 62
7
  6
CONTINUOUS
 10
311.349016
 20
910.366617
 11
320.328769
 21
913.634979
  0
LINE
  8
1
 62
7
  6
CONTINUOUS
 10
311.222767
 20
910.480292
 11
320.328769
 21
913.794606
  0
LINE
  8
1
 62
7
  6
CONTINUOUS
 10
311.096517
 20
910.593968
 11
320.328769
 21
913.954233
  0
LINE
  8
1
 62
7
  6
CONTINUOUS
 10
310.970268
 20
910.707644
 11
320.328769
 21
914.113860
  0
LINE
  8
1
 62
7
  6
CONTINUOUS
 10
310.844018
 20
910.821319
 11
320.328769
 21
914.273486
  0
LINE
  8
1
 62
7
  6
CONTINUOUS
 10
310.717769
 20
910.934995
 11
320.328769
 21
914.433113
  0
LINE
  8
1
 62
7
  6
CONTINUOUS
 10
351.936571
 20
870.608696
 11
351.936571
 21
944.608696
  0
LINE
  8
1
 62
7
  6
CONTINUOUS
 10
353.086573
 20
870.608696
 11
353.086573
 21
944.608696
  0
LINE
  8
1
 62
7
  6
CONTINUOUS
 10
312.402202
 20
899.917438
 11
294.883764
 21
915.691109
  0
LINE
  8
1
 62
7
  6
CONTINUOUS
 10
311.783130
 20
900.060362
 11
294.883764
 21
915.276619
  0
LINE
  8
1
 62
7
  6
CONTINUOUS
 10
312.556970
 20
899.881707
 11
294.883764
 21
915.794733
  0
LINE
  8
1
 62
7
  6
CONTINUOUS
 10
312.247434
 20
899.953169
 11
294.883764
 21
915.587487
  0
LINE
  8
1
 62
7
  6
CONTINUOUS
 10
311.937898
 20
900.024631
 11
294.883764
 21
915.380242
  0
LINE
  8
1
 62
7
  6
CONTINUOUS
 10
311.628362
 20
900.096093
 11
294.883764
 21
915.172996
  0
LINE
  8
1
 62
7
  6
CONTINUOUS
 10
311.473594
 20
900.131824
 11
294.883764
 21
915.069373
  0
LINE
  8
1
 62
7
  6
CONTINUOUS
 10
312.092666
 20
899.988900
 11
294.883764
 21
915.483864
  0
LINE
  8
1
 62
7
  6
CONTINUOUS
 10
312.711738
 20
899.845976
 11
294.883764
 21
915.898355
  0
LINE
  8
1
 62
7
  6
CONTINUOUS
 10
313.640345
 20
899.631590
 11
294.883764
 21
916.520092
  0
LINE
  8
1
 62
7
  6
CONTINUOUS
 10
313.021273
 20
899.774514
 11
294.883764
 21
916.105600
  0
LINE
  8
1
 62
7
  6
CONTINUOUS
 10
314.104649
 20
899.524397
 11
294.883764
 21
916.830959
  0
LINE
  8
1
 62
7
  6
CONTINUOUS
 10
313.795113
 20
899.595858
 11
294.883764
 21
916.623714
  0
LINE
  8
1
 62
7
  6
CONTINUOUS
 10
313.485577
 20
899.667321
 11
294.883764
 21
916.416468
  0
LINE
  8
1
 62
7
  6
CONTINUOUS
 10
313.176041
 20
899.738783
 11
294.883764
 21
916.209223
  0
LINE
  8
1
 62
7
  6
CONTINUOUS
 10
312.866505
 20
899.810245
 11
294.883764
 21
916.001978
  0
LINE
  8
1
 62
7
  6
CONTINUOUS
 10
313.330809
 20
899.703052
 11
294.883764
 21
916.312846
  0
LINE
  8
1
 62
7
  6
CONTINUOUS
 10
313.949881
 20
899.560128
 11
294.883764
 21
916.727337
  0
LINE
  8
1
 62
7
  6
CONTINUOUS
 10
314.878489
 20
899.345742
 11
294.883764
 21
917.349073
  0
LINE
  8
1
 62
7
  6
CONTINUOUS
 10
320.328769
 20
899.412179
 11
294.883764
 21
922.322963
  0
LINE
  8
1
 62
7
  6
CONTINUOUS
 10
317.354777
 20
898.774046
 11
294.883764
 21
919.007037
  0
LINE
  8
1
 62
7
  6
CONTINUOUS
 10
319.831065
 20
898.202349
 11
294.883764
 21
920.665000
  0
LINE
  8
1
 62
7
  6
CONTINUOUS
 10
320.328769
 20
900.241160
 11
294.883764
 21
923.151946
  0
LINE
  8
1
 62
7
  6
CONTINUOUS
 10
320.328769
 20
898.583196
 11
294.883764
 21
921.493982
  0
LINE
  8
1
 62
7
  6
CONTINUOUS
 10
318.592921
 20
898.488198
 11
294.883764
 21
919.836018
  0
LINE
  8
1
 62
7
  6
CONTINUOUS
 10
316.116633
 20
899.059893
 11
294.883764
 21
918.178054
  0
LINE
  8
1
 62
7
  6
CONTINUOUS
 10
314.259417
 20
899.488665
 11
294.883764
 21
916.934582
  0
LINE
  8
1
 62
7
  6
CONTINUOUS
 10
315.497561
 20
899.202818
 11
294.883764
 21
917.763564
  0
LINE
  8
1
 62
7
  6
CONTINUOUS
 10
316.735705
 20
898.916970
 11
294.883764
 21
918.592546
  0
LINE
  8
1
 62
7
  6
CONTINUOUS
 10
317.973849
 20
898.631121
 11
294.883764
 21
919.421528
  0
LINE
  8
1
 62
7
  6
CONTINUOUS
 10
319.211993
 20
898.345274
 11
294.883764
 21
920.250509
  0
LINE
  8
1
 62
7
  6
CONTINUOUS
 10
320.328769
 20
898.168706
 11
294.883764
 21
921.079491
  0
LINE
  8
1
 62
7
  6
CONTINUOUS
 10
320.328769
 20
898.997687
 11
294.883764
 21
921.908473
  0
LINE
  8
1
 62
7
  6
CONTINUOUS
 10
320.328769
 20
899.826669
 11
294.883764
 21
922.737454
  0
LINE
  8
1
 62
7
  6
CONTINUOUS
 10
320.328769
 20
900.552028
 11
294.883764
 21
923.462813
  0
LINE
  8
1
 62
7
  6
CONTINUOUS
 10
320.328769
 20
900.344782
 11
294.883764
 21
923.255568
  0
LINE
  8
1
 62
7
  6
CONTINUOUS
 10
320.328769
 20
900.137537
 11
294.883764
 21
923.048322
  0
LINE
  8
1
 62
7
  6
CONTINUOUS
 10
320.328769
 20
899.930292
 11
294.883764
 21
922.841077
  0
LINE
  8
1
 62
7
  6
CONTINUOUS
 10
320.328769
 20
899.723046
 11
294.883764
 21
922.633832
  0
LINE
  8
1
 62
7
  6
CONTINUOUS
 10
320.328769
 20
899.515801
 11
294.883764
 21
922.426586
  0
LINE
  8
1
 62
7
  6
CONTINUOUS
 10
320.328769
 20
899.308555
 11
294.883764
 21
922.219341
  0
LINE
  8
1
 62
7
  6
CONTINUOUS
 10
320.328769
 20
899.101310
 11
294.883764
 21
922.012095
  0
LINE
  8
1
 62
7
  6
CONTINUOUS
 10
320.328769
 20
898.894065
 11
294.883764
 21
921.804850
  0
LINE
  8
1
 62
7
  6
CONTINUOUS
 10
320.328769
 20
898.686819
 11
294.883764
 21
921.597604
  0
LINE
  8
1
 62
7
  6
CONTINUOUS
 10
320.328769
 20
898.479574
 11
294.883764
 21
921.390360
  0
LINE
  8
1
 62
7
  6
CONTINUOUS
 10
320.328769
 20
898.272328
 11
294.883764
 21
921.183114
  0
LINE
  8
1
 62
7
  6
CONTINUOUS
 10
320.295369
 20
898.095156
 11
294.883764
 21
920.975868
  0
LINE
  8
1
 62
7
  6
CONTINUOUS
 10
319.985833
 20
898.166618
 11
294.883764
 21
920.768623
  0
LINE
  8
1
 62
7
  6
CONTINUOUS
 10
319.510281
 20
898.387561
 11
294.883764
 21
920.561377
  0
LINE
  8
1
 62
7
  6
CONTINUOUS
 10
319.366761
 20
898.309542
 11
294.883764
 21
920.354132
  0
LINE
  8
1
 62
7
  6
CONTINUOUS
 10
319.057225
 20
898.381004
 11
294.883764
 21
920.146886
  0
LINE
  8
1
 62
7
  6
CONTINUOUS
 10
318.747689
 20
898.452467
 11
294.883764
 21
919.939641
  0
LINE
  8
1
 62
7
  6
CONTINUOUS
 10
318.438153
 20
898.523928
 11
294.883764
 21
919.732396
  0
LINE
  8
1
 62
7
  6
CONTINUOUS
 10
318.128617
 20
898.595391
 11
294.883764
 21
919.525150
  0
LINE
  8
1
 62
7
  6
CONTINUOUS
 10
317.819081
 20
898.666853
 11
294.883764
 21
919.317905
  0
LINE
  8
1
 62
7
  6
CONTINUOUS
 10
317.509545
 20
898.738314
 11
294.883764
 21
919.110659
  0
LINE
  8
1
 62
7
  6
CONTINUOUS
 10
317.200009
 20
898.809777
 11
294.883764
 21
918.903413
  0
LINE
  8
1
 62
7
  6
CONTINUOUS
 10
316.890473
 20
898.881239
 11
294.883764
 21
918.696169
  0
LINE
  8
1
 62
7
  6
CONTINUOUS
 10
316.580937
 20
898.952700
 11
294.883764
 21
918.488923
  0
LINE
  8
1
 62
7
  6
CONTINUOUS
 10
316.271401
 20
899.024163
 11
294.883764
 21
918.281678
  0
LINE
  8
1
 62
7
  6
CONTINUOUS
 10
315.961865
 20
899.095625
 11
294.883764
 21
918.074432
  0
LINE
  8
1
 62
7
  6
CONTINUOUS
 10
315.652329
 20
899.167086
 11
294.883764
 21
917.867186
  0
LINE
  8
1
 62
7
  6
CONTINUOUS
 10
315.342793
 20
899.238549
 11
294.883764
 21
917.659941
  0
LINE
  8
1
 62
7
  6
CONTINUOUS
 10
315.033257
 20
899.310011
 11
294.883764
 21
917.452696
  0
LINE
  8
1
 62
7
  6
CONTINUOUS
 10
314.723721
 20
899.381472
 11
294.883764
 21
917.245451
  0
LINE
  8
1
 62
7
  6
CONTINUOUS
 10
314.414185
 20
899.452935
 11
294.883764
 21
917.038205
  0
LINE
  8
1
 62
7
  6
CONTINUOUS
 10
314.568953
 20
899.417204
 11
294.883764
 21
917.141827
  0
LINE
  8
1
 62
7
  6
CONTINUOUS
 10
315.188025
 20
899.274279
 11
294.883764
 21
917.556319
  0
LINE
  8
1
 62
7
  6
CONTINUOUS
 10
315.807097
 20
899.131356
 11
294.883764
 21
917.970810
  0
LINE
  8
1
 62
7
  6
CONTINUOUS
 10
316.426169
 20
898.988432
 11
294.883764
 21
918.385300
  0
LINE
  8
1
 62
7
  6
CONTINUOUS
 10
317.045241
 20
898.845507
 11
294.883764
 21
918.799791
  0
LINE
  8
1
 62
7
  6
CONTINUOUS
 10
317.664313
 20
898.702584
 11
294.883764
 21
919.214282
  0
LINE
  8
1
 62
7
  6
CONTINUOUS
 10
318.283385
 20
898.559660
 11
294.883764
 21
919.628772
  0
LINE
  8
1
 62
7
  6
CONTINUOUS
 10
318.902457
 20
898.416735
 11
294.883764
 21
920.043264
  0
LINE
  8
1
 62
7
  6
CONTINUOUS
 10
319.521529
 20
898.273811
 11
294.883764
 21
920.457755
  0
LINE
  8
1
 62
7
  6
CONTINUOUS
 10
320.140601
 20
898.130888
 11
294.883764
 21
920.872245
  0
LINE
  8
1
 62
7
  6
CONTINUOUS
 10
320.328769
 20
898.375951
 11
294.883764
 21
921.286736
  0
LINE
  8
1
 62
7
  6
CONTINUOUS
 10
320.328769
 20
898.790442
 11
294.883764
 21
921.701227
  0
LINE
  8
1
 62
7
  6
CONTINUOUS
 10
320.328769
 20
899.204933
 11
294.883764
 21
922.115719
  0
LINE
  8
1
 62
7
  6
CONTINUOUS
 10
320.328769
 20
899.619424
 11
294.883764
 21
922.530209
  0
LINE
  8
1
 62
7
  6
CONTINUOUS
 10
320.328769
 20
900.033915
 11
294.883764
 21
922.944700
  0
LINE
  8
1
 62
7
  6
CONTINUOUS
 10
320.328769
 20
900.448405
 11
294.883764
 21
923.359191
  0
LINE
  8
1
 62
7
  6
CONTINUOUS
 10
320.328769
 20
902.281211
 11
320.328769
 21
917.944899
  0
LINE
  8
1
 62
7
  6
CONTINUOUS
 10
294.883764
 20
910.717219
 11
294.883764
 21
923.462813
  0
LINE
  8
1
 62
7
  6
CONTINUOUS
 10
309.076525
 20
912.412778
 11
320.328769
 21
916.508259
  0
LINE
  8
1
 62
7
  6
CONTINUOUS
 10
308.950275
 20
912.526453
 11
320.328769
 21
916.667886
  0
LINE
  8
1
 62
7
  6
CONTINUOUS
 10
308.824026
 20
912.640129
 11
320.328769
 21
916.827513
  0
LINE
  8
1
 62
7
  6
CONTINUOUS
 10
307.940279
 20
913.435858
 11
320.328769
 21
917.944899
  0
LINE
  8
1
 62
7
  6
CONTINUOUS
 10
308.571527
 20
912.867480
 11
320.328769
 21
917.146766
  0
LINE
  8
1
 62
7
  6
CONTINUOUS
 10
308.192778
 20
913.208507
 11
320.328769
 21
917.625646
  0
LINE
  8
1
 62
7
  6
CONTINUOUS
 10
308.697776
 20
912.753804
 11
320.328769
 21
916.987139
  0
LINE
  8
1
 62
7
  6
CONTINUOUS
 10
308.445277
 20
912.981156
 11
320.328769
 21
917.306393
  0
LINE
  8
1
 62
7
  6
CONTINUOUS
 10
308.319027
 20
913.094831
 11
320.328769
 21
917.466019
  0
LINE
  8
1
 62
7
  6
CONTINUOUS
 10
308.066528
 20
913.322182
 11
320.328769
 21
917.785273
  0
LINE
  8
1
 62
7
  6
CONTINUOUS
 10
310.212771
 20
911.389697
 11
320.328769
 21
915.071620
  0
LINE
  8
1
 62
7
  6
CONTINUOUS
 10
310.086521
 20
911.503373
 11
320.328769
 21
915.231246
  0
LINE
  8
1
 62
7
  6
CONTINUOUS
 10
309.960271
 20
911.617048
 11
320.328769
 21
915.390873
  0
LINE
  8
1
 62
7
  6
CONTINUOUS
 10
309.834022
 20
911.730724
 11
320.328769
 21
915.550500
  0
LINE
  8
1
 62
7
  6
CONTINUOUS
 10
309.707772
 20
911.844400
 11
320.328769
 21
915.710127
  0
LINE
  8
1
 62
7
  6
CONTINUOUS
 10
309.581523
 20
911.958075
 11
320.328769
 21
915.869753
  0
LINE
  8
1
 62
7
  6
CONTINUOUS
 10
309.455273
 20
912.071751
 11
320.328769
 21
916.029380
  0
LINE
  8
1
 62
7
  6
CONTINUOUS
 10
309.329024
 20
912.185426
 11
320.328769
 21
916.189006
  0
LINE
  8
1
 62
7
  6
CONTINUOUS
 10
309.202774
 20
912.299102
 11
320.328769
 21
916.348632
  0
LINE
  8
1
 62
7
  6
CONTINUOUS
 10
281.603237
 20
861.998024
 11
280.269905
 21
864.307426
  0
LINE
  8
1
 62
7
  6
CONTINUOUS
 10
280.269905
 20
864.307426
 11
281.603237
 21
866.616825
  0
LINE
  8
1
 62
7
  6
CONTINUOUS
 10
281.603237
 20
953.219368
 11
280.269905
 21
950.909965
  0
LINE
  8
1
 62
7
  6
CONTINUOUS
 10
280.269905
 20
950.909965
 11
281.603237
 21
948.600567
  0
ARC
  8
1
 62
7
  6
CONTINUOUS
 10
328.503836
 20
854.985149
 40
1.500000
 50
-149.999999
 51
-68.652569
  0
ARC
  8
1
 62
7
  6
CONTINUOUS
 10
328.503836
 20
854.985149
 40
1.500000
 50
-68.652569
 51
29.999999
  0
LINE
  8
1
 62
7
  6
CONTINUOUS
 10
329.802873
 20
855.735149
 11
323.953796
 21
865.866050
  0
LINE
  8
1
 62
7
  6
CONTINUOUS
 10
327.204798
 20
854.235149
 11
320.770502
 21
865.379676
  0
LINE
  8
1
 62
7
  6
CONTINUOUS
 10
358.086573
 20
957.608696
 11
386.086573
 21
957.608696
  0
LINE
  8
1
 62
7
  6
CONTINUOUS
 10
353.086573
 20
944.608696
 11
387.086573
 21
945.208694
  0
LINE
  8
1
 62
7
  6
CONTINUOUS
 10
353.086573
 20
870.608696
 11
387.086573
 21
870.008697
  0
ARC
  8
1
 62
7
  6
CONTINUOUS
 10
307.936571
 20
907.608696
 40
97.500000
 50
-20.542806
 51
0.000000
  0
LINE
  8
1
 62
7
  6
CONTINUOUS
 10
227.134288
 20
862.608696
 11
228.564287
 21
860.131866
  0
LINE
  8
1
 62
7
  6
CONTINUOUS
 10
227.134288
 20
862.608696
 11
228.564287
 21
865.085529
  0
CIRCLE
  8
1
 62
7
  6
CONTINUOUS
 10
229.994287
 20
862.608696
 40
2.860000
  0
LINE
  8
1
 62
7
  6
CONTINUOUS
 10
228.564287
 20
860.131866
 11
231.424287
 21
860.131866
  0
LINE
  8
1
 62
7
  6
CONTINUOUS
 10
228.564287
 20
865.085529
 11
231.424287
 21
865.085529
  0
LINE
  8
1
 62
7
  6
CONTINUOUS
 10
231.424287
 20
860.131866
 11
232.854287
 21
862.608696
  0
LINE
  8
1
 62
7
  6
CONTINUOUS
 10
232.854287
 20
862.608696
 11
231.424287
 21
865.085529
  0
CIRCLE
  8
1
 62
7
  6
CONTINUOUS
 10
229.994287
 20
862.608696
 40
5.000000
  0
CIRCLE
  8
1
 62
7
  6
CONTINUOUS
 10
229.994287
 20
862.608696
 40
5.500000
  0
LINE
  8
1
 62
7
  6
CONTINUOUS
 10
306.506571
 20
815.131866
 11
309.366571
 21
815.131866
  0
LINE
  8
1
 62
7
  6
CONTINUOUS
 10
306.506571
 20
820.085529
 11
309.366571
 21
820.085529
  0
LINE
  8
1
 62
7
  6
CONTINUOUS
 10
305.076571
 20
817.608696
 11
306.506571
 21
820.085529
  0
LINE
  8
1
 62
7
  6
CONTINUOUS
 10
310.796571
 20
817.608696
 11
309.366571
 21
820.085529
  0
CIRCLE
  8
1
 62
7
  6
CONTINUOUS
 10
307.936571
 20
817.608696
 40
5.500000
  0
CIRCLE
  8
1
 62
7
  6
CONTINUOUS
 10
307.936571
 20
817.608696
 40
5.000000
  0
CIRCLE
  8
1
 62
7
  6
CONTINUOUS
 10
307.936571
 20
817.608696
 40
2.860000
  0
LINE
  8
1
 62
7
  6
CONTINUOUS
 10
305.076571
 20
817.608696
 11
306.506571
 21
815.131866
  0
LINE
  8
1
 62
7
  6
CONTINUOUS
 10
309.366571
 20
815.131866
 11
310.796571
 21
817.608696
  0
LINE
  8
1
 62
7
  6
CONTINUOUS
 10
259.186571
 20
823.171219
 11
203.591669
 21
855.268951
  0
ARC
  8
1
 62
7
  6
CONTINUOUS
 10
307.936571
 20
907.608696
 40
97.500000
 50
-180.000000
 51
-22.683541
  0
LINE
  8
1
 62
7
  6
CONTINUOUS
 10
147.936571
 20
815.108696
 11
166.936571
 21
815.108696
  0
ARC
  8
1
 62
7
  6
CONTINUOUS
 10
173.936571
 20
850.859897
 40
4.000000
 50
105.000001
 51
-180.000000
  0
LINE
  8
1
 62
7
  6
CONTINUOUS
 10
172.901293
 20
854.723598
 11
179.936571
 21
856.608696
  0
LINE
  8
1
 62
7
  6
CONTINUOUS
 10
179.936571
 20
856.608696
 11
198.591669
 21
856.608696
  0
LINE
  8
1
 62
7
  6
CONTINUOUS
 10
179.936571
 20
907.608696
 11
179.936571
 21
856.608696
  0
LINE
  8
1
 62
7
  6
CONTINUOUS
 10
169.936571
 20
818.108696
 11
169.936571
 21
907.608696
  0
LINE
  8
1
 62
7
  6
CONTINUOUS
 10
147.936571
 20
815.108696
 11
147.936571
 21
907.608696
  0
ARC
  8
1
 62
7
  6
CONTINUOUS
 10
166.936571
 20
818.108696
 40
3.000000
 50
-90.000001
 51
-0.000005
  0
LINE
  8
1
 62
7
  6
CONTINUOUS
 10
467.936571
 20
815.108696
 11
448.936571
 21
815.108696
  0
ARC
  8
1
 62
7
  6
CONTINUOUS
 10
441.936571
 20
850.859898
 40
4.000000
 50
-0.000005
 51
75.000001
  0
ARC
  8
1
 62
7
  6
CONTINUOUS
 10
417.281473
 20
846.608696
 40
10.000000
 50
89.999998
 51
119.999998
  0
LINE
  8
1
 62
7
  6
CONTINUOUS
 10
435.936571
 20
856.608696
 11
417.281473
 21
856.608696
  0
LINE
  8
1
 62
7
  6
CONTINUOUS
 10
442.971849
 20
854.723598
 11
435.936571
 21
856.608696
  0
LINE
  8
1
 62
7
  6
CONTINUOUS
 10
435.936571
 20
907.608696
 11
435.936571
 21
856.608696
  0
LINE
  8
1
 62
7
  6
CONTINUOUS
 10
445.936571
 20
818.108696
 11
445.936571
 21
907.608696
  0
LINE
  8
1
 62
7
  6
CONTINUOUS
 10
356.686571
 20
823.171219
 11
412.281473
 21
855.268951
  0
LINE
  8
1
 62
7
  6
CONTINUOUS
 10
467.936571
 20
815.108696
 11
467.936571
 21
907.608696
  0
ARC
  8
1
 62
7
  6
CONTINUOUS
 10
448.936571
 20
818.108696
 40
3.000000
 50
-180.000000
 51
-89.999997
  0
ARC
  8
1
 62
7
  6
CONTINUOUS
 10
448.936571
 20
997.108696
 40
3.000000
 50
89.999997
 51
180.000000
  0
LINE
  8
1
 62
7
  6
CONTINUOUS
 10
467.936571
 20
1000.108696
 11
448.936571
 21
1000.108696
  0
ARC
  8
1
 62
7
  6
CONTINUOUS
 10
441.936571
 20
964.357494
 40
4.000000
 50
-75.000001
 51
0.000005
  0
LINE
  8
1
 62
7
  6
CONTINUOUS
 10
435.936571
 20
958.608696
 11
417.281473
 21
958.608696
  0
ARC
  8
1
 62
7
  6
CONTINUOUS
 10
417.281473
 20
968.608696
 40
10.000000
 50
-119.999998
 51
-89.999998
  0
LINE
  8
1
 62
7
  6
CONTINUOUS
 10
442.971849
 20
960.493793
 11
435.936571
 21
958.608696
  0
LINE
  8
1
 62
7
  6
CONTINUOUS
 10
310.796571
 20
997.608696
 11
309.366571
 21
995.131862
  0
LINE
  8
1
 62
7
  6
CONTINUOUS
 10
309.366571
 20
1000.085525
 11
310.796571
 21
997.608696
  0
LINE
  8
1
 62
7
  6
CONTINUOUS
 10
305.076571
 20
997.608696
 11
306.506571
 21
995.131862
  0
LINE
  8
1
 62
7
  6
CONTINUOUS
 10
305.076571
 20
997.608696
 11
306.506571
 21
1000.085525
  0
CIRCLE
  8
1
 62
7
  6
CONTINUOUS
 10
307.936571
 20
997.608696
 40
2.860000
  0
CIRCLE
  8
1
 62
7
  6
CONTINUOUS
 10
307.936571
 20
997.608696
 40
5.000000
  0
CIRCLE
  8
1
 62
7
  6
CONTINUOUS
 10
307.936571
 20
997.608696
 40
5.500000
  0
LINE
  8
1
 62
7
  6
CONTINUOUS
 10
306.506571
 20
995.131862
 11
309.366571
 21
995.131862
  0
LINE
  8
1
 62
7
  6
CONTINUOUS
 10
306.506571
 20
1000.085525
 11
309.366571
 21
1000.085525
  0
CIRCLE
  8
1
 62
7
  6
CONTINUOUS
 10
342.378080
 20
990.757854
 40
2.000000
  0
LINE
  8
1
 62
7
  6
CONTINUOUS
 10
344.670932
 20
991.033832
 11
343.285502
 21
992.881511
  0
LINE
  8
1
 62
7
  6
CONTINUOUS
 10
343.285502
 20
992.881511
 11
340.992650
 21
992.605532
  0
LINE
  8
1
 62
7
  6
CONTINUOUS
 10
340.992650
 20
992.605532
 11
340.085228
 21
990.481875
  0
LINE
  8
1
 62
7
  6
CONTINUOUS
 10
340.085228
 20
990.481875
 11
341.470658
 21
988.634197
  0
LINE
  8
1
 62
7
  6
CONTINUOUS
 10
341.470658
 20
988.634197
 11
343.763510
 21
988.910175
  0
LINE
  8
1
 62
7
  6
CONTINUOUS
 10
343.763510
 20
988.910175
 11
344.670932
 21
991.033832
  0
ARC
  8
1
 62
7
  6
CONTINUOUS
 10
385.878855
 20
952.608696
 40
2.860000
 50
-71.783612
 51
71.783612
  0
LINE
  8
1
 62
7
  6
CONTINUOUS
 10
388.738855
 20
952.608696
 11
387.308855
 21
950.131862
  0
LINE
  8
1
 62
7
  6
CONTINUOUS
 10
387.308855
 20
955.085525
 11
388.738855
 21
952.608696
  0
LINE
  8
1
 62
7
  6
CONTINUOUS
 10
386.772910
 20
950.131862
 11
387.308855
 21
950.131862
  0
LINE
  8
1
 62
7
  6
CONTINUOUS
 10
386.772910
 20
955.085525
 11
387.308855
 21
955.085525
  0
CIRCLE
  8
1
 62
7
  6
CONTINUOUS
 10
342.378080
 20
990.757854
 40
3.323500
  0
CIRCLE
  8
1
 62
7
  6
CONTINUOUS
 10
342.378080
 20
990.757854
 40
4.000000
  0
LINE
  8
1
 62
7
  6
CONTINUOUS
 10
356.686571
 20
992.046173
 11
412.281473
 21
959.948440
  0
ARC
  8
1
 62
7
  6
CONTINUOUS
 10
385.878855
 20
952.608696
 40
5.000000
 50
-79.699490
 51
90.007242
  0
ARC
  8
1
 62
7
  6
CONTINUOUS
 10
385.878855
 20
952.608696
 40
5.500000
 50
-80.644746
 51
114.619978
  0
LINE
  8
1
 62
7
  6
CONTINUOUS
 10
232.854287
 20
952.608696
 11
231.424287
 21
950.131862
  0
LINE
  8
1
 62
7
  6
CONTINUOUS
 10
231.424287
 20
955.085525
 11
232.854287
 21
952.608696
  0
LINE
  8
1
 62
7
  6
CONTINUOUS
 10
228.564287
 20
950.131862
 11
231.424287
 21
950.131862
  0
LINE
  8
1
 62
7
  6
CONTINUOUS
 10
228.564287
 20
955.085525
 11
231.424287
 21
955.085525
  0
CIRCLE
  8
1
 62
7
  6
CONTINUOUS
 10
229.994287
 20
952.608696
 40
2.860000
  0
LINE
  8
1
 62
7
  6
CONTINUOUS
 10
227.134288
 20
952.608696
 11
228.564287
 21
950.131862
  0
LINE
  8
1
 62
7
  6
CONTINUOUS
 10
227.134288
 20
952.608696
 11
228.564287
 21
955.085525
  0
CIRCLE
  8
1
 62
7
  6
CONTINUOUS
 10
229.994287
 20
952.608696
 40
5.000000
  0
CIRCLE
  8
1
 62
7
  6
CONTINUOUS
 10
229.994287
 20
952.608696
 40
5.500000
  0
ARC
  8
1
 62
7
  6
CONTINUOUS
 10
166.936571
 20
997.108696
 40
3.000000
 50
0.000005
 51
90.000001
  0
LINE
  8
1
 62
7
  6
CONTINUOUS
 10
147.936571
 20
1000.108696
 11
166.936571
 21
1000.108696
  0
ARC
  8
1
 62
7
  6
CONTINUOUS
 10
198.591669
 20
968.608696
 40
10.000000
 50
-89.999998
 51
-59.999997
  0
LINE
  8
1
 62
7
  6
CONTINUOUS
 10
172.901293
 20
960.493793
 11
179.936571
 21
958.608696
  0
ARC
  8
1
 62
7
  6
CONTINUOUS
 10
173.936571
 20
964.357494
 40
4.000000
 50
180.000000
 51
-105.000001
  0
LINE
  8
1
 62
7
  6
CONTINUOUS
 10
179.936571
 20
958.608696
 11
198.591669
 21
958.608696
  0
LINE
  8
1
 62
7
  6
CONTINUOUS
 10
259.186571
 20
992.046173
 11
203.591669
 21
959.948440
  0
LINE
  8
1
 62
7
  6
CONTINUOUS
 10
169.936571
 20
997.108696
 11
169.936571
 21
907.608696
  0
LINE
  8
1
 62
7
  6
CONTINUOUS
 10
147.936571
 20
1000.108696
 11
147.936571
 21
907.608696
  0
LINE
  8
1
 62
7
  6
CONTINUOUS
 10
179.936571
 20
907.608696
 11
179.936571
 21
958.608696
  0
ARC
  8
1
 62
7
  6
CONTINUOUS
 10
307.936571
 20
907.608696
 40
97.500000
 50
-0.000000
 51
20.542806
  0
LINE
  8
1
 62
7
  6
CONTINUOUS
 10
467.936571
 20
1000.108696
 11
467.936571
 21
907.608696
  0
LINE
  8
1
 62
7
  6
CONTINUOUS
 10
445.936571
 20
997.108696
 11
445.936571
 21
907.608696
  0
LINE
  8
1
 62
7
  6
CONTINUOUS
 10
435.936571
 20
907.608696
 11
435.936571
 21
958.608696
  0
LINE
  8
1
 62
7
  6
DASHDOT
 10
307.936571
 20
801.601955
 11
307.936571
 21
1013.750541
  0
ARC
  8
1
 62
7
  6
CONTINUOUS
 10
307.936571
 20
907.608696
 40
97.500000
 50
22.683541
 51
180.000000
  0
LINE
  8
1
 62
7
  6
DASHDOT
 10
112.053124
 20
907.608696
 11
502.936571
 21
907.608696
  0
LINE
  8
1
 62
7
  6
DASHDOT
 10
575.223714
 20
319.343252
 11
801.242571
 21
319.343252
  0
LINE
  8
1
 62
7
  6
DASHDOT
 10
683.830286
 20
212.204395
 11
683.830286
 21
639.292109
  0
LINE
  8
1
 62
7
  6
DASHDOT
 10
307.936571
 20
630.669696
 11
307.936571
 21
371.660363
  0
LINE
  8
1
 62
7
  6
DASHDOT
 10
480.083460
 20
319.343252
 11
307.936571
 21
319.343252
  0
LINE
  8
1
 62
7
  6
DASHDOT
 10
307.936571
 20
455.778585
 11
307.936571
 21
244.257919
  0
LINE
  8
1
 62
7
  6
DASHDOT
 10
135.789683
 20
319.343252
 11
307.936571
 21
319.343252
  0
LINE
  8
1
 62
7
  6
CONTINUOUS
 10
445.936571
 20
229.843252
 11
445.936571
 21
319.343252
  0
LINE
  8
1
 62
7
  6
CONTINUOUS
 10
445.936571
 20
408.843252
 11
445.936571
 21
319.343252
  0
LINE
  8
1
 62
7
  6
CONTINUOUS
 10
169.936571
 20
229.843252
 11
169.936571
 21
319.343252
  0
LINE
  8
1
 62
7
  6
CONTINUOUS
 10
169.936571
 20
408.843252
 11
169.936571
 21
319.343252
  0
LINE
  8
1
 62
7
  6
CONTINUOUS
 10
414.917238
 20
356.275696
 11
405.436571
 21
353.002808
  0
LINE
  8
1
 62
7
  6
CONTINUOUS
 10
200.955683
 20
282.410808
 11
210.436571
 21
285.683696
  0
LINE
  8
1
 62
7
  6
CONTINUOUS
 10
200.955683
 20
356.275474
 11
210.436571
 21
353.002585
  0
LINE
  8
1
 62
7
  6
CONTINUOUS
 10
414.917238
 20
282.410808
 11
405.436571
 21
285.683696
  0
LINE
  8
1
 62
7
  6
CONTINUOUS
 10
353.086571
 20
555.343252
 11
353.086571
 21
463.343252
  0
LINE
  8
1
 62
7
  6
CONTINUOUS
 10
351.936571
 20
555.343252
 11
351.936571
 21
463.343252
  0
LINE
  8
1
 62
7
  6
CONTINUOUS
 10
387.086571
 20
555.343252
 11
387.086571
 21
463.343252
  0
LINE
  8
1
 62
7
  6
CONTINUOUS
 10
388.236571
 20
555.343252
 11
388.236571
 21
463.343252
  0
LINE
  8
1
 62
7
  6
CONTINUOUS
 10
264.936571
 20
557.343252
 11
264.936571
 21
462.343252
  0
LINE
  8
1
 62
7
  6
CONTINUOUS
 10
399.736571
 20
534.343252
 11
399.736571
 21
484.343252
  0
LINE
  8
1
 62
7
  6
CONTINUOUS
 10
399.236571
 20
484.343252
 11
399.736571
 21
484.343252
  0
LINE
  8
1
 62
7
  6
CONTINUOUS
 10
399.236571
 20
534.343252
 11
399.736571
 21
534.343252
  0
ARC
  8
1
 62
7
  6
CONTINUOUS
 10
399.736571
 20
489.843252
 40
1.500000
 50
-90.000000
 51
90.000000
  0
ARC
  8
1
 62
7
  6
CONTINUOUS
 10
399.736571
 20
528.843252
 40
1.500000
 50
-90.000000
 51
90.000000
  0
LINE
  8
1
 62
7
  6
CONTINUOUS
 10
399.236571
 20
554.843252
 11
399.236571
 21
463.843252
  0
LINE
  8
1
 62
7
  6
CONTINUOUS
 10
404.436571
 20
449.343252
 11
307.936571
 21
449.343252
  0
LINE
  8
1
 62
7
  6
CONTINUOUS
 10
211.436571
 20
449.343252
 11
307.936571
 21
449.343252
  0
LINE
  8
1
 62
7
  6
CONTINUOUS
 10
249.936571
 20
455.343252
 11
307.936571
 21
455.343252
  0
LINE
  8
1
 62
7
  6
CONTINUOUS
 10
307.936571
 20
455.343252
 11
365.936571
 21
455.343252
  0
LINE
  8
1
 62
7
  6
CONTINUOUS
 10
405.436571
 20
439.343252
 11
405.436571
 21
448.343252
  0
LINE
  8
1
 62
7
  6
CONTINUOUS
 10
405.436571
 20
448.343252
 11
404.436571
 21
449.343252
  0
LINE
  8
1
 62
7
  6
CONTINUOUS
 10
253.686571
 20
459.843252
 11
253.686571
 21
455.343252
  0
LINE
  8
1
 62
7
  6
CONTINUOUS
 10
250.360571
 20
461.843252
 11
250.360571
 21
455.343252
  0
LINE
  8
1
 62
7
  6
CONTINUOUS
 10
254.186571
 20
460.343252
 11
261.686571
 21
460.343252
  0
LINE
  8
1
 62
7
  6
CONTINUOUS
 10
250.860571
 20
462.343252
 11
264.936571
 21
462.343252
  0
LINE
  8
1
 62
7
  6
CONTINUOUS
 10
262.186571
 20
459.843252
 11
262.186571
 21
455.343252
  0
LINE
  8
1
 62
7
  6
CONTINUOUS
 10
249.936571
 20
455.343252
 11
249.936571
 21
449.343252
  0
ARC
  8
1
 62
7
  6
CONTINUOUS
 10
250.860571
 20
461.843252
 40
0.500000
 50
90.000000
 51
180.000000
  0
ARC
  8
1
 62
7
  6
CONTINUOUS
 10
254.186571
 20
459.843252
 40
0.500000
 50
90.000000
 51
180.000000
  0
ARC
  8
1
 62
7
  6
CONTINUOUS
 10
261.686571
 20
459.843252
 40
0.500000
 50
0.000000
 51
90.000000
  0
LINE
  8
1
 62
7
  6
CONTINUOUS
 10
404.436571
 20
456.343252
 11
404.436571
 21
449.343252
  0
LINE
  8
1
 62
7
  6
CONTINUOUS
 10
403.436571
 20
457.343252
 11
392.436571
 21
457.343252
  0
LINE
  8
1
 62
7
  6
CONTINUOUS
 10
391.436571
 20
456.343252
 11
391.436571
 21
449.343252
  0
ARC
  8
1
 62
7
  6
CONTINUOUS
 10
392.436571
 20
456.343252
 40
1.000000
 50
90.000000
 51
180.000000
  0
ARC
  8
1
 62
7
  6
CONTINUOUS
 10
403.436571
 20
456.343252
 40
1.000000
 50
0.000000
 51
90.000000
  0
LINE
  8
1
 62
7
  6
CONTINUOUS
 10
210.436571
 20
448.343252
 11
211.436571
 21
449.343252
  0
LINE
  8
1
 62
7
  6
CONTINUOUS
 10
210.436571
 20
439.343252
 11
210.436571
 21
448.343252
  0
LINE
  8
1
 62
7
  6
CONTINUOUS
 10
212.436571
 20
457.343252
 11
223.436571
 21
457.343252
  0
LINE
  8
1
 62
7
  6
CONTINUOUS
 10
224.436571
 20
456.343252
 11
224.436571
 21
449.343252
  0
LINE
  8
1
 62
7
  6
CONTINUOUS
 10
211.436571
 20
456.343252
 11
211.436571
 21
449.343252
  0
ARC
  8
1
 62
7
  6
CONTINUOUS
 10
223.436571
 20
456.343252
 40
1.000000
 50
0.000000
 51
90.000000
  0
ARC
  8
1
 62
7
  6
CONTINUOUS
 10
212.436571
 20
456.343252
 40
1.000000
 50
90.000000
 51
180.000000
  0
LINE
  8
1
 62
7
  6
CONTINUOUS
 10
307.936571
 20
557.343252
 11
350.936571
 21
557.343252
  0
LINE
  8
1
 62
7
  6
CONTINUOUS
 10
264.936571
 20
557.343252
 11
307.936571
 21
557.343252
  0
LINE
  8
1
 62
7
  6
CONTINUOUS
 10
350.936571
 20
557.343252
 11
350.936571
 21
556.343252
  0
LINE
  8
1
 62
7
  6
CONTINUOUS
 10
307.936571
 20
624.343252
 11
343.936571
 21
624.343252
  0
LINE
  8
1
 62
7
  6
CONTINUOUS
 10
215.759683
 20
261.343252
 11
307.936571
 21
261.343252
  0
LINE
  8
1
 62
7
  6
CONTINUOUS
 10
147.936571
 20
411.843252
 11
147.936571
 21
319.343252
  0
LINE
  8
1
 62
7
  6
CONTINUOUS
 10
179.936571
 20
370.343252
 11
196.936571
 21
370.343252
  0
LINE
  8
1
 62
7
  6
CONTINUOUS
 10
210.436571
 20
439.343252
 11
210.436571
 21
380.673252
  0
LINE
  8
1
 62
7
  6
CONTINUOUS
 10
147.936571
 20
411.843252
 11
166.936571
 21
411.843252
  0
LINE
  8
1
 62
7
  6
CONTINUOUS
 10
147.936571
 20
226.843252
 11
166.936571
 21
226.843252
  0
LINE
  8
1
 62
7
  6
CONTINUOUS
 10
199.936571
 20
371.147030
 11
207.436571
 21
375.477030
  0
LINE
  8
1
 62
7
  6
CONTINUOUS
 10
172.901238
 20
372.228363
 11
179.936571
 21
370.343252
  0
LINE
  8
1
 62
7
  6
CONTINUOUS
 10
179.936571
 20
268.343252
 11
196.936571
 21
268.343252
  0
LINE
  8
1
 62
7
  6
CONTINUOUS
 10
147.936571
 20
226.843252
 11
147.936571
 21
319.343252
  0
LINE
  8
1
 62
7
  6
CONTINUOUS
 10
172.901238
 20
266.458141
 11
179.936571
 21
268.343252
  0
LINE
  8
1
 62
7
  6
CONTINUOUS
 10
201.936571
 20
267.003474
 11
208.259683
 21
263.352808
  0
LINE
  8
1
 62
7
  6
CONTINUOUS
 10
400.113460
 20
261.343252
 11
307.936571
 21
261.343252
  0
LINE
  8
1
 62
7
  6
CONTINUOUS
 10
467.936571
 20
411.843252
 11
467.936571
 21
319.343252
  0
LINE
  8
1
 62
7
  6
CONTINUOUS
 10
435.936571
 20
370.343252
 11
418.936571
 21
370.343252
  0
LINE
  8
1
 62
7
  6
CONTINUOUS
 10
405.436571
 20
439.343252
 11
405.436571
 21
380.673252
  0
LINE
  8
1
 62
7
  6
CONTINUOUS
 10
467.936571
 20
411.843252
 11
448.936571
 21
411.843252
  0
LINE
  8
1
 62
7
  6
CONTINUOUS
 10
467.936571
 20
226.843252
 11
448.936571
 21
226.843252
  0
LINE
  8
1
 62
7
  6
CONTINUOUS
 10
415.936571
 20
371.147030
 11
408.436571
 21
375.477030
  0
LINE
  8
1
 62
7
  6
CONTINUOUS
 10
442.971905
 20
372.228363
 11
435.936571
 21
370.343252
  0
LINE
  8
1
 62
7
  6
CONTINUOUS
 10
435.936571
 20
268.343252
 11
418.936571
 21
268.343252
  0
LINE
  8
1
 62
7
  6
CONTINUOUS
 10
467.936571
 20
226.843252
 11
467.936571
 21
319.343252
  0
LINE
  8
1
 62
7
  6
CONTINUOUS
 10
442.971905
 20
266.458141
 11
435.936571
 21
268.343252
  0
LINE
  8
1
 62
7
  6
CONTINUOUS
 10
413.936571
 20
267.003474
 11
407.613460
 21
263.352808
  0
LINE
  8
1
 62
7
  6
CONTINUOUS
 10
365.936571
 20
455.343252
 11
365.936571
 21
449.343252
  0
LINE
  8
1
 62
7
  6
CONTINUOUS
 10
350.936571
 20
462.343252
 11
350.936571
 21
456.343252
  0
LINE
  8
1
 62
7
  6
CONTINUOUS
 10
350.936571
 20
557.343252
 11
350.936571
 21
617.343252
  0
LINE
  8
1
 62
7
  6
CONTINUOUS
 10
271.936571
 20
624.343252
 11
307.936571
 21
624.343252
  0
LINE
  8
1
 62
7
  6
CONTINUOUS
 10
353.686571
 20
459.843252
 11
353.686571
 21
455.343252
  0
LINE
  8
1
 62
7
  6
CONTINUOUS
 10
361.686571
 20
460.343252
 11
354.186571
 21
460.343252
  0
LINE
  8
1
 62
7
  6
CONTINUOUS
 10
362.186571
 20
459.843252
 11
362.186571
 21
455.343252
  0
LINE
  8
1
 62
7
  6
CONTINUOUS
 10
264.936571
 20
557.343252
 11
264.936571
 21
617.343252
  0
LINE
  8
1
 62
7
  6
CONTINUOUS
 10
351.936571
 20
463.343252
 11
398.736571
 21
463.343252
  0
LINE
  8
1
 62
7
  6
CONTINUOUS
 10
351.936571
 20
555.343252
 11
398.736571
 21
555.343252
  0
ARC
  8
1
 62
7
  6
CONTINUOUS
 10
196.936571
 20
376.343252
 40
6.000000
 50
-90.000000
 51
-60.000000
  0
ARC
  8
1
 62
7
  6
CONTINUOUS
 10
166.936571
 20
408.843252
 40
3.000000
 50
0.000000
 51
90.000000
  0
ARC
  8
1
 62
7
  6
CONTINUOUS
 10
173.936571
 20
376.091919
 40
4.000000
 50
180.000000
 51
-105.000000
  0
ARC
  8
1
 62
7
  6
CONTINUOUS
 10
204.436571
 20
380.673252
 40
6.000000
 50
-60.000000
 51
0.000000
  0
ARC
  8
1
 62
7
  6
CONTINUOUS
 10
196.936571
 20
258.343252
 40
10.000000
 50
60.000000
 51
90.000000
  0
ARC
  8
1
 62
7
  6
CONTINUOUS
 10
166.936571
 20
229.843252
 40
3.000000
 50
-90.000000
 51
0.000000
  0
ARC
  8
1
 62
7
  6
CONTINUOUS
 10
173.936571
 20
262.594363
 40
4.000000
 50
105.000000
 51
180.000000
  0
ARC
  8
1
 62
7
  6
CONTINUOUS
 10
215.759683
 20
276.343252
 40
15.000000
 50
-120.000000
 51
-90.000000
  0
ARC
  8
1
 62
7
  6
CONTINUOUS
 10
418.936571
 20
376.343252
 40
6.000000
 50
-120.000000
 51
-90.000000
  0
ARC
  8
1
 62
7
  6
CONTINUOUS
 10
448.936571
 20
408.843252
 40
3.000000
 50
90.000000
 51
180.000000
  0
ARC
  8
1
 62
7
  6
CONTINUOUS
 10
441.936571
 20
376.091919
 40
4.000000
 50
-75.000000
 51
0.000000
  0
ARC
  8
1
 62
7
  6
CONTINUOUS
 10
411.436571
 20
380.673252
 40
6.000000
 50
-180.000000
 51
-120.000000
  0
ARC
  8
1
 62
7
  6
CONTINUOUS
 10
418.936571
 20
258.343252
 40
10.000000
 50
90.000000
 51
120.000000
  0
ARC
  8
1
 62
7
  6
CONTINUOUS
 10
448.936571
 20
229.843252
 40
3.000000
 50
-180.000000
 51
-90.000000
  0
ARC
  8
1
 62
7
  6
CONTINUOUS
 10
441.936571
 20
262.594363
 40
4.000000
 50
0.000000
 51
75.000000
  0
ARC
  8
1
 62
7
  6
CONTINUOUS
 10
400.113460
 20
276.343252
 40
15.000000
 50
-90.000000
 51
-60.000000
  0
ARC
  8
1
 62
7
  6
CONTINUOUS
 10
351.936571
 20
462.343252
 40
1.000000
 50
90.000000
 51
180.000000
  0
ARC
  8
1
 62
7
  6
CONTINUOUS
 10
351.936571
 20
556.343252
 40
1.000000
 50
180.000000
 51
-90.000000
  0
ARC
  8
1
 62
7
  6
CONTINUOUS
 10
351.936571
 20
456.343252
 40
1.000000
 50
180.000000
 51
-90.000000
  0
ARC
  8
1
 62
7
  6
CONTINUOUS
 10
354.186571
 20
459.843252
 40
0.500000
 50
90.000000
 51
180.000000
  0
ARC
  8
1
 62
7
  6
CONTINUOUS
 10
361.686571
 20
459.843252
 40
0.500000
 50
0.000000
 51
90.000000
  0
ARC
  8
1
 62
7
  6
CONTINUOUS
 10
271.936571
 20
617.343252
 40
7.000000
 50
90.000000
 51
180.000000
  0
ARC
  8
1
 62
7
  6
CONTINUOUS
 10
343.936571
 20
617.343252
 40
7.000000
 50
0.000000
 51
90.000000
  0
ARC
  8
1
 62
7
  6
CONTINUOUS
 10
398.736571
 20
463.843252
 40
0.500000
 50
-90.000000
 51
0.000000
  0
ARC
  8
1
 62
7
  6
CONTINUOUS
 10
398.736571
 20
554.843252
 40
0.500000
 50
0.000000
 51
90.000000
  0
LINE
  8
1
 62
7
  6
CONTINUOUS
 10
781.330286
 20
291.343252
 11
781.330286
 21
448.343252
  0
LINE
  8
1
 62
7
  6
CONTINUOUS
 10
681.980286
 20
458.843252
 11
681.980286
 21
454.343252
  0
LINE
  8
1
 62
7
  6
CONTINUOUS
 10
679.580286
 20
458.843252
 11
679.580286
 21
454.343252
  0
LINE
  8
1
 62
7
  6
CONTINUOUS
 10
586.330286
 20
291.343252
 11
586.330286
 21
448.343252
  0
LINE
  8
1
 62
7
  6
CONTINUOUS
 10
681.180286
 20
458.843252
 11
681.180286
 21
454.343252
  0
LINE
  8
1
 62
7
  6
CONTINUOUS
 10
780.330286
 20
449.343252
 11
587.330286
 21
449.343252
  0
LINE
  8
1
 62
7
  6
CONTINUOUS
 10
688.080286
 20
458.843252
 11
688.080286
 21
454.343252
  0
LINE
  8
1
 62
7
  6
CONTINUOUS
 10
781.330286
 20
439.343252
 11
586.330286
 21
439.343252
  0
LINE
  8
1
 62
7
  6
CONTINUOUS
 10
661.830286
 20
534.343252
 11
661.830286
 21
484.343252
  0
LINE
  8
1
 62
7
  6
CONTINUOUS
 10
661.830286
 20
534.343252
 11
705.830286
 21
534.343252
  0
LINE
  8
1
 62
7
  6
CONTINUOUS
 10
705.830286
 20
534.343252
 11
705.830286
 21
484.343252
  0
LINE
  8
1
 62
7
  6
CONTINUOUS
 10
661.830286
 20
484.343252
 11
705.830286
 21
484.343252
  0
LINE
  8
1
 62
7
  6
CONTINUOUS
 10
714.330286
 20
468.111252
 11
712.830286
 21
468.977252
  0
LINE
  8
1
 62
7
  6
CONTINUOUS
 10
715.830286
 20
468.977252
 11
714.330286
 21
468.111252
  0
LINE
  8
1
 62
7
  6
CONTINUOUS
 10
712.830286
 20
470.709252
 11
712.830286
 21
468.977252
  0
LINE
  8
1
 62
7
  6
CONTINUOUS
 10
714.330286
 20
471.575252
 11
712.830286
 21
470.709252
  0
LINE
  8
1
 62
7
  6
CONTINUOUS
 10
714.330286
 20
471.575252
 11
715.830286
 21
470.709252
  0
LINE
  8
1
 62
7
  6
CONTINUOUS
 10
653.330286
 20
468.111252
 11
651.830286
 21
468.977252
  0
LINE
  8
1
 62
7
  6
CONTINUOUS
 10
715.830286
 20
470.709252
 11
715.830286
 21
468.977252
  0
LINE
  8
1
 62
7
  6
CONTINUOUS
 10
653.330286
 20
471.575252
 11
651.830286
 21
470.709252
  0
LINE
  8
1
 62
7
  6
CONTINUOUS
 10
654.830286
 20
468.977252
 11
653.330286
 21
468.111252
  0
LINE
  8
1
 62
7
  6
CONTINUOUS
 10
654.830286
 20
470.709252
 11
654.830286
 21
468.977252
  0
LINE
  8
1
 62
7
  6
CONTINUOUS
 10
653.330286
 20
471.575252
 11
654.830286
 21
470.709252
  0
LINE
  8
1
 62
7
  6
CONTINUOUS
 10
651.830286
 20
470.709252
 11
651.830286
 21
468.977252
  0
LINE
  8
1
 62
7
  6
CONTINUOUS
 10
714.330286
 20
547.111252
 11
712.830286
 21
547.977252
  0
LINE
  8
1
 62
7
  6
CONTINUOUS
 10
712.830286
 20
549.709252
 11
712.830286
 21
547.977252
  0
LINE
  8
1
 62
7
  6
CONTINUOUS
 10
715.830286
 20
547.977252
 11
714.330286
 21
547.111252
  0
LINE
  8
1
 62
7
  6
CONTINUOUS
 10
714.330286
 20
550.575252
 11
712.830286
 21
549.709252
  0
LINE
  8
1
 62
7
  6
CONTINUOUS
 10
715.830286
 20
549.709252
 11
715.830286
 21
547.977252
  0
LINE
  8
1
 62
7
  6
CONTINUOUS
 10
714.330286
 20
550.575252
 11
715.830286
 21
549.709252
  0
LINE
  8
1
 62
7
  6
CONTINUOUS
 10
653.330286
 20
550.575252
 11
651.830286
 21
549.709252
  0
LINE
  8
1
 62
7
  6
CONTINUOUS
 10
651.830286
 20
549.709252
 11
651.830286
 21
547.977252
  0
LINE
  8
1
 62
7
  6
CONTINUOUS
 10
653.330286
 20
547.111252
 11
651.830286
 21
547.977252
  0
LINE
  8
1
 62
7
  6
CONTINUOUS
 10
654.830286
 20
549.709252
 11
654.830286
 21
547.977252
  0
LINE
  8
1
 62
7
  6
CONTINUOUS
 10
654.830286
 20
547.977252
 11
653.330286
 21
547.111252
  0
LINE
  8
1
 62
7
  6
CONTINUOUS
 10
680.080286
 20
459.343252
 11
687.580286
 21
459.343252
  0
LINE
  8
1
 62
7
  6
CONTINUOUS
 10
587.330286
 20
449.343252
 11
586.330286
 21
448.343252
  0
LINE
  8
1
 62
7
  6
CONTINUOUS
 10
680.380286
 20
458.843252
 11
680.380286
 21
454.343252
  0
LINE
  8
1
 62
7
  6
CONTINUOUS
 10
780.330286
 20
449.343252
 11
781.330286
 21
448.343252
  0
LINE
  8
1
 62
7
  6
CONTINUOUS
 10
682.780286
 20
458.843252
 11
682.780286
 21
454.343252
  0
LINE
  8
1
 62
7
  6
CONTINUOUS
 10
683.580286
 20
458.843252
 11
683.580286
 21
454.343252
  0
LINE
  8
1
 62
7
  6
CONTINUOUS
 10
684.380286
 20
458.843252
 11
684.380286
 21
454.343252
  0
LINE
  8
1
 62
7
  6
CONTINUOUS
 10
685.180286
 20
458.843252
 11
685.180286
 21
454.343252
  0
LINE
  8
1
 62
7
  6
CONTINUOUS
 10
685.980286
 20
458.843252
 11
685.980286
 21
454.343252
  0
LINE
  8
1
 62
7
  6
CONTINUOUS
 10
686.780286
 20
458.843252
 11
686.780286
 21
454.343252
  0
LINE
  8
1
 62
7
  6
CONTINUOUS
 10
653.330286
 20
550.575252
 11
654.830286
 21
549.709252
  0
LINE
  8
1
 62
7
  6
CONTINUOUS
 10
733.830286
 20
523.343252
 11
721.830286
 21
523.343252
  0
LINE
  8
1
 62
7
  6
CONTINUOUS
 10
733.830286
 20
495.343252
 11
721.830286
 21
495.343252
  0
LINE
  8
1
 62
7
  6
CONTINUOUS
 10
726.830286
 20
495.343252
 11
726.830286
 21
462.343252
  0
LINE
  8
1
 62
7
  6
CONTINUOUS
 10
733.830286
 20
523.343252
 11
733.830286
 21
495.343252
  0
LINE
  8
1
 62
7
  6
CONTINUOUS
 10
720.830286
 20
466.986681
 11
720.830286
 21
455.843252
  0
LINE
  8
1
 62
7
  6
CONTINUOUS
 10
646.830286
 20
466.986681
 11
646.830286
 21
455.843252
  0
LINE
  8
1
 62
7
  6
CONTINUOUS
 10
741.830286
 20
454.343252
 11
741.830286
 21
449.343252
  0
LINE
  8
1
 62
7
  6
CONTINUOUS
 10
640.830286
 20
557.343252
 11
683.830286
 21
557.343252
  0
LINE
  8
1
 62
7
  6
CONTINUOUS
 10
625.830286
 20
454.343252
 11
625.830286
 21
449.343252
  0
LINE
  8
1
 62
7
  6
CONTINUOUS
 10
720.830286
 20
462.343252
 11
736.807429
 21
462.343252
  0
LINE
  8
1
 62
7
  6
CONTINUOUS
 10
630.467714
 20
460.843252
 11
630.467714
 21
454.343252
  0
LINE
  8
1
 62
7
  6
CONTINUOUS
 10
646.830286
 20
462.343252
 11
630.852857
 21
462.343252
  0
LINE
  8
1
 62
7
  6
CONTINUOUS
 10
629.352857
 20
460.843252
 11
629.352857
 21
454.343252
  0
LINE
  8
1
 62
7
  6
CONTINUOUS
 10
642.548857
 20
571.843252
 11
642.586857
 21
571.843252
  0
LINE
  8
1
 62
7
  6
CONTINUOUS
 10
726.830286
 20
557.343252
 11
683.830286
 21
557.343252
  0
LINE
  8
1
 62
7
  6
CONTINUOUS
 10
730.192571
 20
460.843252
 11
730.192571
 21
454.343252
  0
LINE
  8
1
 62
7
  6
CONTINUOUS
 10
728.307429
 20
460.843252
 11
728.307429
 21
454.343252
  0
LINE
  8
1
 62
7
  6
CONTINUOUS
 10
738.307429
 20
460.843252
 11
738.307429
 21
454.343252
  0
LINE
  8
1
 62
7
  6
CONTINUOUS
 10
737.192571
 20
460.843252
 11
737.192571
 21
454.343252
  0
LINE
  8
1
 62
7
  6
CONTINUOUS
 10
637.467714
 20
460.843252
 11
637.467714
 21
454.343252
  0
LINE
  8
1
 62
7
  6
CONTINUOUS
 10
639.352857
 20
460.843252
 11
639.352857
 21
454.343252
  0
LINE
  8
1
 62
7
  6
CONTINUOUS
 10
642.319714
 20
571.843252
 11
725.340571
 21
571.843252
  0
LINE
  8
1
 62
7
  6
CONTINUOUS
 10
625.830286
 20
454.343252
 11
683.830286
 21
454.343252
  0
LINE
  8
1
 62
7
  6
CONTINUOUS
 10
741.830286
 20
454.343252
 11
683.830286
 21
454.343252
  0
LINE
  8
1
 62
7
  6
CONTINUOUS
 10
713.830286
 20
461.843252
 11
713.830286
 21
455.843252
  0
LINE
  8
1
 62
7
  6
CONTINUOUS
 10
653.830286
 20
461.843252
 11
653.830286
 21
455.843252
  0
LINE
  8
1
 62
7
  6
CONTINUOUS
 10
725.340571
 20
571.843252
 11
725.111429
 21
571.843252
  0
LINE
  8
1
 62
7
  6
CONTINUOUS
 10
722.446000
 20
620.517823
 11
724.112000
 21
572.808395
  0
LINE
  8
1
 62
7
  6
CONTINUOUS
 10
645.214286
 20
620.517823
 11
643.548286
 21
572.808395
  0
LINE
  8
1
 62
7
  6
CONTINUOUS
 10
641.320286
 20
570.878109
 11
640.847714
 21
557.343252
  0
LINE
  8
1
 62
7
  6
CONTINUOUS
 10
642.319714
 20
571.843252
 11
642.548857
 21
571.843252
  0
LINE
  8
1
 62
7
  6
CONTINUOUS
 10
726.340000
 20
570.878109
 11
726.812571
 21
557.343252
  0
LINE
  8
1
 62
7
  6
CONTINUOUS
 10
726.830286
 20
557.343252
 11
726.830286
 21
523.343252
  0
LINE
  8
1
 62
7
  6
CONTINUOUS
 10
640.830286
 20
557.343252
 11
640.830286
 21
462.343252
  0
LINE
  8
1
 62
7
  6
CONTINUOUS
 10
714.330286
 20
540.374966
 11
714.330286
 21
477.701252
  0
LINE
  8
1
 62
7
  6
CONTINUOUS
 10
661.798286
 20
548.843252
 11
705.862000
 21
548.843252
  0
LINE
  8
1
 62
7
  6
CONTINUOUS
 10
653.330286
 20
540.374966
 11
653.330286
 21
477.701252
  0
LINE
  8
1
 62
7
  6
CONTINUOUS
 10
661.798286
 20
469.843252
 11
705.862000
 21
469.843252
  0
LINE
  8
1
 62
7
  6
CONTINUOUS
 10
721.430286
 20
548.843252
 11
721.430286
 21
469.843252
  0
LINE
  8
1
 62
7
  6
CONTINUOUS
 10
714.330286
 20
555.943252
 11
683.830286
 21
555.943252
  0
LINE
  8
1
 62
7
  6
CONTINUOUS
 10
653.330286
 20
555.943252
 11
683.830286
 21
555.943252
  0
LINE
  8
1
 62
7
  6
CONTINUOUS
 10
714.330286
 20
462.743252
 11
683.830286
 21
462.743252
  0
LINE
  8
1
 62
7
  6
CONTINUOUS
 10
653.330286
 20
462.743252
 11
683.830286
 21
462.743252
  0
LINE
  8
1
 62
7
  6
CONTINUOUS
 10
646.230286
 20
548.843252
 11
646.230286
 21
469.843252
  0
LINE
  8
1
 62
7
  6
CONTINUOUS
 10
687.580286
 20
458.843252
 11
687.580286
 21
454.343252
  0
LINE
  8
1
 62
7
  6
CONTINUOUS
 10
598.080286
 20
453.843252
 11
598.080286
 21
449.343252
  0
LINE
  8
1
 62
7
  6
CONTINUOUS
 10
590.080286
 20
454.343252
 11
597.580286
 21
454.343252
  0
LINE
  8
1
 62
7
  6
CONTINUOUS
 10
589.580286
 20
453.843252
 11
589.580286
 21
449.343252
  0
LINE
  8
1
 62
7
  6
CONTINUOUS
 10
634.580286
 20
453.843252
 11
634.580286
 21
449.343252
  0
LINE
  8
1
 62
7
  6
CONTINUOUS
 10
635.080286
 20
454.343252
 11
642.580286
 21
454.343252
  0
LINE
  8
1
 62
7
  6
CONTINUOUS
 10
643.080286
 20
453.843252
 11
643.080286
 21
449.343252
  0
LINE
  8
1
 62
7
  6
CONTINUOUS
 10
590.580286
 20
453.843252
 11
590.580286
 21
449.343252
  0
LINE
  8
1
 62
7
  6
CONTINUOUS
 10
591.580286
 20
453.843252
 11
591.580286
 21
449.343252
  0
LINE
  8
1
 62
7
  6
CONTINUOUS
 10
592.580286
 20
453.843252
 11
592.580286
 21
449.343252
  0
LINE
  8
1
 62
7
  6
CONTINUOUS
 10
593.580286
 20
453.843252
 11
593.580286
 21
449.343252
  0
LINE
  8
1
 62
7
  6
CONTINUOUS
 10
594.580286
 20
453.843252
 11
594.580286
 21
449.343252
  0
LINE
  8
1
 62
7
  6
CONTINUOUS
 10
595.580286
 20
453.843252
 11
595.580286
 21
449.343252
  0
LINE
  8
1
 62
7
  6
CONTINUOUS
 10
596.580286
 20
453.843252
 11
596.580286
 21
449.343252
  0
LINE
  8
1
 62
7
  6
CONTINUOUS
 10
597.580286
 20
453.843252
 11
597.580286
 21
449.343252
  0
LINE
  8
1
 62
7
  6
CONTINUOUS
 10
635.580286
 20
453.843252
 11
635.580286
 21
449.343252
  0
LINE
  8
1
 62
7
  6
CONTINUOUS
 10
636.580286
 20
453.843252
 11
636.580286
 21
449.343252
  0
LINE
  8
1
 62
7
  6
CONTINUOUS
 10
637.580286
 20
453.843252
 11
637.580286
 21
449.343252
  0
LINE
  8
1
 62
7
  6
CONTINUOUS
 10
638.580286
 20
453.843252
 11
638.580286
 21
449.343252
  0
LINE
  8
1
 62
7
  6
CONTINUOUS
 10
639.580286
 20
453.843252
 11
639.580286
 21
449.343252
  0
LINE
  8
1
 62
7
  6
CONTINUOUS
 10
640.580286
 20
453.843252
 11
640.580286
 21
449.343252
  0
LINE
  8
1
 62
7
  6
CONTINUOUS
 10
641.580286
 20
453.843252
 11
641.580286
 21
449.343252
  0
LINE
  8
1
 62
7
  6
CONTINUOUS
 10
642.580286
 20
453.843252
 11
642.580286
 21
449.343252
  0
LINE
  8
1
 62
7
  6
CONTINUOUS
 10
769.580286
 20
453.843252
 11
769.580286
 21
449.343252
  0
LINE
  8
1
 62
7
  6
CONTINUOUS
 10
777.580286
 20
454.343252
 11
770.080286
 21
454.343252
  0
LINE
  8
1
 62
7
  6
CONTINUOUS
 10
778.080286
 20
453.843252
 11
778.080286
 21
449.343252
  0
LINE
  8
1
 62
7
  6
CONTINUOUS
 10
733.080286
 20
453.843252
 11
733.080286
 21
449.343252
  0
LINE
  8
1
 62
7
  6
CONTINUOUS
 10
732.580286
 20
454.343252
 11
725.080286
 21
454.343252
  0
LINE
  8
1
 62
7
  6
CONTINUOUS
 10
724.580286
 20
453.843252
 11
724.580286
 21
449.343252
  0
LINE
  8
1
 62
7
  6
CONTINUOUS
 10
777.080286
 20
453.843252
 11
777.080286
 21
449.343252
  0
LINE
  8
1
 62
7
  6
CONTINUOUS
 10
776.080286
 20
453.843252
 11
776.080286
 21
449.343252
  0
LINE
  8
1
 62
7
  6
CONTINUOUS
 10
775.080286
 20
453.843252
 11
775.080286
 21
449.343252
  0
LINE
  8
1
 62
7
  6
CONTINUOUS
 10
774.080286
 20
453.843252
 11
774.080286
 21
449.343252
  0
LINE
  8
1
 62
7
  6
CONTINUOUS
 10
773.080286
 20
453.843252
 11
773.080286
 21
449.343252
  0
LINE
  8
1
 62
7
  6
CONTINUOUS
 10
772.080286
 20
453.843252
 11
772.080286
 21
449.343252
  0
LINE
  8
1
 62
7
  6
CONTINUOUS
 10
771.080286
 20
453.843252
 11
771.080286
 21
449.343252
  0
LINE
  8
1
 62
7
  6
CONTINUOUS
 10
770.080286
 20
453.843252
 11
770.080286
 21
449.343252
  0
LINE
  8
1
 62
7
  6
CONTINUOUS
 10
732.080286
 20
453.843252
 11
732.080286
 21
449.343252
  0
LINE
  8
1
 62
7
  6
CONTINUOUS
 10
731.080286
 20
453.843252
 11
731.080286
 21
449.343252
  0
LINE
  8
1
 62
7
  6
CONTINUOUS
 10
730.080286
 20
453.843252
 11
730.080286
 21
449.343252
  0
LINE
  8
1
 62
7
  6
CONTINUOUS
 10
729.080286
 20
453.843252
 11
729.080286
 21
449.343252
  0
LINE
  8
1
 62
7
  6
CONTINUOUS
 10
728.080286
 20
453.843252
 11
728.080286
 21
449.343252
  0
LINE
  8
1
 62
7
  6
CONTINUOUS
 10
727.080286
 20
453.843252
 11
727.080286
 21
449.343252
  0
LINE
  8
1
 62
7
  6
CONTINUOUS
 10
726.080286
 20
453.843252
 11
726.080286
 21
449.343252
  0
LINE
  8
1
 62
7
  6
CONTINUOUS
 10
725.080286
 20
453.843252
 11
725.080286
 21
449.343252
  0
LINE
  8
1
 62
7
  6
CONTINUOUS
 10
717.448857
 20
625.343252
 11
650.211429
 21
625.343252
  0
CIRCLE
  8
1
 62
7
  6
CONTINUOUS
 10
683.830286
 20
319.343252
 40
44.000000
  0
CIRCLE
  8
1
 62
7
  6
CONTINUOUS
 10
683.830286
 20
319.343252
 40
42.000000
  0
ARC
  8
1
 62
7
  6
CONTINUOUS
 10
616.330286
 20
291.343252
 40
30.000000
 50
180.000000
 51
-99.355200
  0
CIRCLE
  8
1
 62
7
  6
CONTINUOUS
 10
683.830286
 20
319.343252
 40
92.500000
  0
ARC
  8
1
 62
7
  6
CONTINUOUS
 10
751.330286
 20
291.343252
 40
30.000000
 50
-80.644800
 51
0.000000
  0
CIRCLE
  8
1
 62
7
  6
CONTINUOUS
 10
714.330286
 20
469.843252
 40
1.500000
  0
CIRCLE
  8
1
 62
7
  6
CONTINUOUS
 10
714.330286
 20
469.843252
 40
3.500000
  0
CIRCLE
  8
1
 62
7
  6
CONTINUOUS
 10
653.330286
 20
469.843252
 40
1.500000
  0
CIRCLE
  8
1
 62
7
  6
CONTINUOUS
 10
653.330286
 20
469.843252
 40
3.500000
  0
CIRCLE
  8
1
 62
7
  6
CONTINUOUS
 10
714.330286
 20
548.843252
 40
1.500000
  0
CIRCLE
  8
1
 62
7
  6
CONTINUOUS
 10
714.330286
 20
548.843252
 40
3.500000
  0
CIRCLE
  8
1
 62
7
  6
CONTINUOUS
 10
653.330286
 20
548.843252
 40
1.500000
  0
ARC
  8
1
 62
7
  6
CONTINUOUS
 10
687.580286
 20
458.843252
 40
0.500000
 50
0.000000
 51
90.000000
  0
ARC
  8
1
 62
7
  6
CONTINUOUS
 10
680.080286
 20
458.843252
 40
0.500000
 50
90.000000
 51
180.000000
  0
ARC
  8
1
 62
7
  6
CONTINUOUS
 10
721.830286
 20
494.343252
 40
1.000000
 50
90.000000
 51
113.578200
  0
ARC
  8
1
 62
7
  6
CONTINUOUS
 10
721.830286
 20
524.343252
 40
1.000000
 50
-113.578200
 51
-90.000000
  0
ARC
  8
1
 62
7
  6
CONTINUOUS
 10
661.798286
 20
550.343252
 40
1.500000
 50
-169.955200
 51
-90.000000
  0
ARC
  8
1
 62
7
  6
CONTINUOUS
 10
705.862000
 20
550.343252
 40
1.500000
 50
-90.000000
 51
-10.044800
  0
ARC
  8
1
 62
7
  6
CONTINUOUS
 10
715.830286
 20
540.374966
 40
1.500000
 50
100.044800
 51
180.000000
  0
ARC
  8
1
 62
7
  6
CONTINUOUS
 10
653.330286
 20
469.843252
 40
7.100000
 50
100.044800
 51
-10.044800
  0
ARC
  8
1
 62
7
  6
CONTINUOUS
 10
655.330286
 20
455.843252
 40
1.500000
 50
180.000000
 51
-90.000000
  0
ARC
  8
1
 62
7
  6
CONTINUOUS
 10
655.330286
 20
461.843252
 40
1.500000
 50
143.130100
 51
180.000000
  0
ARC
  8
1
 62
7
  6
CONTINUOUS
 10
645.330286
 20
455.843252
 40
1.500000
 50
-90.000000
 51
0.000000
  0
ARC
  8
1
 62
7
  6
CONTINUOUS
 10
642.548857
 20
572.843252
 40
1.000000
 50
-90.000000
 51
-2.000000
  0
ARC
  8
1
 62
7
  6
CONTINUOUS
 10
630.852857
 20
460.843252
 40
1.500000
 50
90.000000
 51
180.000000
  0
ARC
  8
1
 62
7
  6
CONTINUOUS
 10
712.330286
 20
461.843252
 40
1.500000
 50
0.000000
 51
36.869900
  0
ARC
  8
1
 62
7
  6
CONTINUOUS
 10
722.330286
 20
455.843252
 40
1.500000
 50
180.000000
 51
-90.000000
  0
ARC
  8
1
 62
7
  6
CONTINUOUS
 10
736.807429
 20
460.843252
 40
1.500000
 50
0.000000
 51
90.000000
  0
ARC
  8
1
 62
7
  6
CONTINUOUS
 10
735.692571
 20
460.843252
 40
1.500000
 50
0.000000
 51
90.000000
  0
ARC
  8
1
 62
7
  6
CONTINUOUS
 10
728.692571
 20
460.843252
 40
1.500000
 50
0.000000
 51
90.000000
  0
ARC
  8
1
 62
7
  6
CONTINUOUS
 10
640.852857
 20
460.843252
 40
1.500000
 50
90.000000
 51
180.000000
  0
ARC
  8
1
 62
7
  6
CONTINUOUS
 10
631.967714
 20
460.843252
 40
1.500000
 50
90.000000
 51
180.000000
  0
ARC
  8
1
 62
7
  6
CONTINUOUS
 10
638.967714
 20
460.843252
 40
1.500000
 50
90.000000
 51
180.000000
  0
ARC
  8
1
 62
7
  6
CONTINUOUS
 10
726.807429
 20
460.843252
 40
1.500000
 50
0.000000
 51
90.000000
  0
ARC
  8
1
 62
7
  6
CONTINUOUS
 10
712.330286
 20
455.843252
 40
1.500000
 50
-90.000000
 51
0.000000
  0
ARC
  8
1
 62
7
  6
CONTINUOUS
 10
725.111429
 20
572.843252
 40
1.000000
 50
-178.000000
 51
-90.000000
  0
ARC
  8
1
 62
7
  6
CONTINUOUS
 10
725.340571
 20
570.843252
 40
1.000000
 50
2.000000
 51
90.000000
  0
ARC
  8
1
 62
7
  6
CONTINUOUS
 10
642.319714
 20
570.843252
 40
1.000000
 50
90.000000
 51
178.000000
  0
CIRCLE
  8
1
 62
7
  6
CONTINUOUS
 10
653.330286
 20
548.843252
 40
4.459429
  0
CIRCLE
  8
1
 62
7
  6
CONTINUOUS
 10
714.330286
 20
548.843252
 40
4.459429
  0
CIRCLE
  8
1
 62
7
  6
CONTINUOUS
 10
714.330286
 20
469.843252
 40
4.459429
  0
ARC
  8
1
 62
7
  6
CONTINUOUS
 10
705.862000
 20
468.343252
 40
1.500000
 50
10.044800
 51
90.000000
  0
ARC
  8
1
 62
7
  6
CONTINUOUS
 10
651.830286
 20
540.374966
 40
1.500000
 50
0.000000
 51
79.955200
  0
ARC
  8
1
 62
7
  6
CONTINUOUS
 10
661.798286
 20
468.343252
 40
1.500000
 50
90.000000
 51
169.955200
  0
ARC
  8
1
 62
7
  6
CONTINUOUS
 10
714.330286
 20
548.843252
 40
7.100000
 50
-79.955200
 51
169.955200
  0
ARC
  8
1
 62
7
  6
CONTINUOUS
 10
653.330286
 20
548.843252
 40
7.100000
 50
10.044800
 51
-100.044800
  0
ARC
  8
1
 62
7
  6
CONTINUOUS
 10
715.830286
 20
478.311538
 40
1.500000
 50
180.000000
 51
-100.044800
  0
ARC
  8
1
 62
7
  6
CONTINUOUS
 10
651.830286
 20
478.311538
 40
1.500000
 50
-79.955200
 51
0.000000
  0
ARC
  8
1
 62
7
  6
CONTINUOUS
 10
714.330286
 20
469.843252
 40
7.100000
 50
-169.955200
 51
79.955200
  0
CIRCLE
  8
1
 62
7
  6
CONTINUOUS
 10
653.330286
 20
548.843252
 40
3.500000
  0
CIRCLE
  8
1
 62
7
  6
CONTINUOUS
 10
653.330286
 20
469.843252
 40
4.459429
  0
CIRCLE
  8
1
 62
7
  6
CONTINUOUS
 10
703.330286
 20
531.843252
 40
0.750000
  0
CIRCLE
  8
1
 62
7
  6
CONTINUOUS
 10
664.330286
 20
531.843252
 40
0.750000
  0
CIRCLE
  8
1
 62
7
  6
CONTINUOUS
 10
703.330286
 20
486.843252
 40
0.750000
  0
CIRCLE
  8
1
 62
7
  6
CONTINUOUS
 10
664.330286
 20
486.843252
 40
0.750000
  0
ARC
  8
1
 62
7
  6
CONTINUOUS
 10
597.580286
 20
453.843252
 40
0.500000
 50
0.000000
 51
90.000000
  0
ARC
  8
1
 62
7
  6
CONTINUOUS
 10
590.080286
 20
453.843252
 40
0.500000
 50
90.000000
 51
180.000000
  0
ARC
  8
1
 62
7
  6
CONTINUOUS
 10
635.080286
 20
453.843252
 40
0.500000
 50
90.000000
 51
180.000000
  0
ARC
  8
1
 62
7
  6
CONTINUOUS
 10
642.580286
 20
453.843252
 40
0.500000
 50
0.000000
 51
90.000000
  0
CIRCLE
  8
1
 62
7
  6
DASHDOT
 10
683.830286
 20
319.343252
 40
75.000000
  0
ARC
  8
1
 62
7
  6
CONTINUOUS
 10
770.080286
 20
453.843252
 40
0.500000
 50
90.000000
 51
180.000000
  0
ARC
  8
1
 62
7
  6
CONTINUOUS
 10
777.580286
 20
453.843252
 40
0.500000
 50
0.000000
 51
90.000000
  0
ARC
  8
1
 62
7
  6
CONTINUOUS
 10
732.580286
 20
453.843252
 40
0.500000
 50
0.000000
 51
90.000000
  0
ARC
  8
1
 62
7
  6
CONTINUOUS
 10
725.080286
 20
453.843252
 40
0.500000
 50
90.000000
 51
180.000000
  0
CIRCLE
  8
1
 62
7
  6
CONTINUOUS
 10
655.128857
 20
388.634109
 40
9.500000
  0
CIRCLE
  8
1
 62
7
  6
CONTINUOUS
 10
614.539143
 20
348.044395
 40
9.500000
  0
CIRCLE
  8
1
 62
7
  6
CONTINUOUS
 10
712.531429
 20
388.634109
 40
9.500000
  0
CIRCLE
  8
1
 62
7
  6
CONTINUOUS
 10
753.121143
 20
348.044395
 40
9.500000
  0
CIRCLE
  8
1
 62
7
  6
CONTINUOUS
 10
753.121143
 20
290.642109
 40
9.500000
  0
CIRCLE
  8
1
 62
7
  6
CONTINUOUS
 10
712.531429
 20
250.052395
 40
9.500000
  0
CIRCLE
  8
1
 62
7
  6
CONTINUOUS
 10
614.539143
 20
290.642109
 40
9.500000
  0
CIRCLE
  8
1
 62
7
  6
CONTINUOUS
 10
655.128857
 20
250.052395
 40
9.500000
  0
ARC
  8
1
 62
7
  6
CONTINUOUS
 10
717.448857
 20
620.343252
 40
5.000000
 50
2.000000
 51
90.000000
  0
ARC
  8
1
 62
7
  6
CONTINUOUS
 10
650.211429
 20
620.343252
 40
5.000000
 50
90.000000
 51
178.000000
  0
ENDSEC
  0
EOF
