  0
SECTION
  2
HEADER
  9
$ACADVER
  1
AC1004
  9
$INSBASE
 10
0.000000
 20
0.000000
  9
$EXTMIN
 10
0.000000
 20
0.000000
  9
$EXTMAX
 10
840.000000
 20
594.000000
  9
$LIMMIN
 10
0.000000
 20
0.000000
  9
$LIMMAX
 10
840.000000
 20
594.000000
  9
$VIEWCTR
 10
420.000000
 20
297.000000
  9
$VIEWSIZE
 40
594.000000
  9
$PEXTMIN
 10
0.000000
 20
0.000000
 30
0.000000
  9
$PEXTMAX
 10
420.000000
 20
297.000000
 30
0.000000
  9
$SNAPMODE
 70
     0
  9
$SNAPUNIT
 10
1.000000
 20
1.000000
  9
$SNAPBASE
 10
0.000000
 20
0.000000
  9
$SNAPANG
 50
0.000000
  9
$SNAPISOPAIR
 70
     0
  9
$SNAPSTYLE
 70
     0
  9
$GRIDMODE
 70
     0
  9
$GRIDUNIT
 10
0.000000
 20
0.000000
  9
$ORTHOMODE
 70
     0
  9
$REGENMODE
 70
     1
  9
$FILLMODE
 70
     1
  9
$QTEXTMODE
 70
     0
  9
$DRAGMODE
 70
     2
  9
$LTSCALE
 40
0.500000
  9
$OSMODE
 70
     0
  9
$ATTMODE
 70
     1
  9
$TEXTSIZE
 40
6.800000
  9
$TRACEWID
 40
0.050000
  9
$TEXTSTYLE
  7
STANDARD
  9
$CLAYER
  8
0
  9
$CELTYPE
  6
BYLAYER
  9
$CECOLOR
 62
   256
  9
$DIMSCALE
 40
1.000000
  9
$DIMASZ
 40
1.000000
  9
$DIMEXO
 40
0.000000
  9
$DIMDLI
 40
0.500000
  9
$DIMRND
 40
0.000000
  9
$DIMDLE
 40
0.000000
  9
$DIMEXE
 40
0.000000
  9
$DIMTP
 40
0.000000
  9
$DIMTM
 40
0.000000
  9
$DIMTXT
 40
4.000000
  9
$DIMCEN
 40
0.000000
  9
$DIMTSZ
 40
0.000000
  9
$DIMTOL
 70
     0
  9
$DIMLIM
 70
     0
  9
$DIMTIH
 70
     1
  9
$DIMTOH
 70
     1
  9
$DIMSE1
 70
     0
  9
$DIMSE2
 70
     0
  9
$DIMTAD
 70
     0
  9
$DIMZIN
 70
     0
  9
$DIMBLK
  1

  9
$DIMASO
 70
     0
  9
$DIMSHO
 70
     0
  9
$DIMPOST
  1

  9
$DIMAPOST
  1

  9
$DIMALT
 70
     0
  9
$DIMALTD
 70
     0
  9
$DIMALTF
 40
25.400000
  9
$DIMLFAC
 40
1.000000
  9
$DIMTOFL
 70
     0
  9
$DIMTVP
 40
0.000000
  9
$DIMTIX
 70
     0
  9
$DIMSOXD
 70
     0
  9
$DIMSAH
 70
     0
  9
$DIMBLKL
  1

  9
$DIMBLKR
  1

  9
$LUNITS
 70
     2
  9
$LUPREC
 70
     2
  9
$AXISMODE
 70
     0
  9
$AXISUNIT
 10
1.000000
 20
1.000000
  9
$SKETCHINC
 40
0.000000
  9
$FILLETRAD
 40
0.000000
  9
$AUNITS
 70
     1
  9
$AUPREC
 70
     2
  9
$MENU
  1
ACAD
  9
$ELEVATION
 40
0.000000
  9
$THICKNESS
 40
0.000000
  9
$VIEWDIR
 10
0.000000
 20
0.000000
 30
1.000000
  9
$LIMCHECK
 70
     1
  9
$BLIPMODE
 70
     1
  9
$CHAMFERA
 40
0.000000
  9
$CHAMFERB
 40
0.000000
  9
$FASTZOOM
 70
     1
  9
$SKPOLY
 70
     0
  9
$TDCREATE
 40
0.000000
  9
$TDUPDATE
 40
0.000000
  9
$TDINDWG
 40
0.000000
  9
$TDUSRTIMER
 40
0.000000
  9
$USRTIMER
 70
     1
  9
$ANGBASE
 50
0.000000
  9
$ANGDIR
 70
     0
  9
$PDMODE
 70
     0
  9
$PDSIZE
 40
0.000000
  9
$PLINEWID
 40
0.000000
  9
$COORDS
 70
     2
  9
$USERI1
 70
     0
  9
$USERI2
 70
     0
  9
$USERI3
 70
     0
  9
$USERI4
 70
     0
  9
$USERI5
 70
     0
  9
$USERR1
 40
0.000000
  9
$USERR2
 40
0.000000
  9
$USERR3
 40
0.000000
  9
$USERR4
 40
0.000000
  9
$USERR5
 40
0.000000
  0
ENDSEC
  0
SECTION
  2
TABLES
  0
TABLE
  2
LTYPE
 70
     5
  0
LTYPE
  2
CONTINUOUS
 70
    64
  3
Solid line
 72
    65
 73
     0
 40
0.0
  0
LTYPE
  2
HIDDEN
 70
    64
  3
------------------------
 72
    65
 73
     2
 40
12.6
 49
8.4
 49
-4.2
  0
LTYPE
  2
DOT
 70
    64
  3
¥¥¥¥¥¥¥¥¥¥¥¥¥¥¥¥¥¥¥¥¥¥¥¥
 72
    65
 73
     2
 40
8.0
 49
6.0
 49
-2.0
  0
LTYPE
  2
DASHDOT
 70
    64
  3
--¥--¥--¥--¥--¥--¥--¥--
 72
    65
 73
     4
 40
50.5
 49
30.0
 49
-9.0
 49
2.5
 49
-9.0
  0
LTYPE
  2
DIVIDE
 70
    64
  3
--¥¥--¥¥--¥¥--¥¥--¥¥--
 72
    65
 73
     6
 40
58.0
 49
30.0
 49
-9.0
 49
2.5
 49
-5.0
 49
2.5
 49
-9.0
  0
LTYPE
  2
ACAD_ISO06W100
 70
    64
  3
____ ... ____ ... ____
 72
    65
 73
     8
 40
37.5
 49
24.0
 49
-3.0
 49
0.5
 49
-3.0
 49
0.5
 49
-3.0
 49
0.5
 49
-3.0
  0
LTYPE
  2
ACAD_ISO14W100
 70
    64
  3
__ . . . __ . . . __ . . . 
 72
    65
 73
     8
 40
25.5
 49
12.0
 49
-3.0
 49
0.5
 49
-3.0
 49
0.5
 49
-3.0
 49
0.5
 49
-3.0
  0
ENDTAB
  0
TABLE
  2
LAYER
 70
1
  0
LAYER
  2
1
 70
64
 62
7
  6
CONTINUOUS
  0
ENDTAB
  0
TABLE
  2
STYLE
 70
     2
  0
STYLE
  2
STANDARD
 70
    64
 40
0.0
 41
1.0
 50
0.0
 71
     0
 42
0.2
  3
TXT
  4

  0
STYLE
  2
KANJI
 70
    64
 40
0.0
 41
1.0
 50
0.0
 71
     0
 42
0.2
  3
TXT
  4
BIGFONT
  0
ENDTAB
  0
TABLE
  2
VIEW
 70
     0
  0
ENDTAB
  0
ENDSEC
  0
SECTION
  2
BLOCKS
  0
ENDSEC
  0
SECTION
  2
ENTITIES
  0
LINE
  8
1
 62
7
  6
DASHDOT
 10
150.437167
 20
633.173913
 11
150.437167
 21
511.173913
  0
LINE
  8
1
 62
7
  6
CONTINUOUS
 10
241.737170
 20
609.773911
 11
229.587169
 21
609.773911
  0
LINE
  8
1
 62
7
  6
CONTINUOUS
 10
228.587169
 20
609.756265
 11
228.587169
 21
622.173913
  0
LINE
  8
1
 62
7
  6
CONTINUOUS
 10
241.737170
 20
594.205737
 11
235.737170
 21
594.205737
  0
LINE
  8
1
 62
7
  6
CONTINUOUS
 10
241.737170
 20
595.682744
 11
235.737170
 21
595.682744
  0
LINE
  8
1
 62
7
  6
CONTINUOUS
 10
241.737170
 20
594.173913
 11
242.237170
 21
594.173913
  0
ARC
  8
1
 62
7
  6
CONTINUOUS
 10
284.363665
 20
602.673919
 40
49.126503
 50
-180.000000
 51
-171.818484
  0
ARC
  8
1
 62
7
  6
CONTINUOUS
 10
242.237170
 20
591.673913
 40
1.500000
 50
-89.999998
 51
90.000001
  0
LINE
  8
1
 62
7
  6
CONTINUOUS
 10
241.737170
 20
550.142089
 11
235.737170
 21
550.142089
  0
LINE
  8
1
 62
7
  6
CONTINUOUS
 10
241.737170
 20
548.665082
 11
235.737170
 21
548.665082
  0
LINE
  8
1
 62
7
  6
CONTINUOUS
 10
241.737170
 20
550.173913
 11
242.237170
 21
550.173913
  0
LINE
  8
1
 62
7
  6
CONTINUOUS
 10
241.737170
 20
534.573915
 11
229.587169
 21
534.573915
  0
ARC
  8
1
 62
7
  6
CONTINUOUS
 10
284.363665
 20
541.673907
 40
49.126503
 50
171.818484
 51
-180.000000
  0
ARC
  8
1
 62
7
  6
CONTINUOUS
 10
242.237170
 20
552.673913
 40
1.500000
 50
-89.999998
 51
90.000001
  0
LINE
  8
1
 62
7
  6
CONTINUOUS
 10
235.737170
 20
572.173913
 11
235.737170
 21
548.665082
  0
LINE
  8
1
 62
7
  6
CONTINUOUS
 10
235.237170
 20
572.173913
 11
235.237170
 21
541.673913
  0
LINE
  8
1
 62
7
  6
CONTINUOUS
 10
241.737170
 20
609.773911
 11
241.737170
 21
534.573915
  0
LINE
  8
1
 62
7
  6
CONTINUOUS
 10
229.587169
 20
534.573915
 11
229.587169
 21
609.773911
  0
LINE
  8
1
 62
7
  6
CONTINUOUS
 10
235.237170
 20
572.173913
 11
235.237170
 21
602.673913
  0
LINE
  8
1
 62
7
  6
CONTINUOUS
 10
235.737170
 20
572.173913
 11
235.737170
 21
595.682744
  0
LINE
  8
1
 62
7
  6
CONTINUOUS
 10
242.237170
 20
594.173913
 11
242.237170
 21
550.173913
  0
LINE
  8
1
 62
7
  6
CONTINUOUS
 10
230.737170
 20
534.573915
 11
230.737170
 21
609.773911
  0
LINE
  8
1
 62
7
  6
CONTINUOUS
 10
200.587169
 20
609.262147
 11
200.587169
 21
622.173913
  0
ARC
  8
1
 62
7
  6
CONTINUOUS
 10
185.726863
 20
616.297460
 40
1.500000
 50
-30.000003
 51
51.347441
  0
ARC
  8
1
 62
7
  6
CONTINUOUS
 10
185.726863
 20
616.297460
 40
1.500000
 50
51.347431
 51
149.999999
  0
ARC
  8
1
 62
7
  6
CONTINUOUS
 10
183.634806
 20
606.673913
 40
1.500000
 50
149.999999
 51
-89.999998
  0
LINE
  8
1
 62
7
  6
CONTINUOUS
 10
178.005265
 20
605.173913
 11
191.437167
 21
605.173913
  0
LINE
  8
1
 62
7
  6
CONTINUOUS
 10
187.025901
 20
615.547460
 11
182.335769
 21
607.423913
  0
LINE
  8
1
 62
7
  6
CONTINUOUS
 10
184.427825
 20
617.047460
 11
178.578748
 21
606.916558
  0
LINE
  8
1
 62
7
  6
CONTINUOUS
 10
174.103833
 20
617.784585
 11
172.770501
 21
615.475183
  0
LINE
  8
1
 62
7
  6
CONTINUOUS
 10
176.770501
 20
617.784585
 11
174.103833
 21
617.784585
  0
ARC
  8
1
 62
7
  6
CONTINUOUS
 10
171.004432
 20
624.797460
 40
1.500000
 50
-30.000003
 51
68.652572
  0
ARC
  8
1
 62
7
  6
CONTINUOUS
 10
171.004432
 20
624.797460
 40
1.500000
 50
68.652569
 51
149.999999
  0
LINE
  8
1
 62
7
  6
CONTINUOUS
 10
176.770501
 20
613.165784
 11
174.103833
 21
613.165784
  0
ARC
  8
1
 62
7
  6
CONTINUOUS
 10
167.753430
 20
613.166558
 40
1.500000
 50
149.999999
 51
-112.900338
  0
ARC
  8
1
 62
7
  6
CONTINUOUS
 10
161.972060
 20
615.152932
 40
1.500000
 50
-105.023265
 51
-30.000003
  0
LINE
  8
1
 62
7
  6
CONTINUOUS
 10
172.303470
 20
624.047460
 11
166.454392
 21
613.916558
  0
LINE
  8
1
 62
7
  6
CONTINUOUS
 10
169.705394
 20
625.547460
 11
163.271098
 21
614.402932
  0
LINE
  8
1
 62
7
  6
CONTINUOUS
 10
174.103833
 20
613.165784
 11
172.770501
 21
615.475183
  0
LINE
  8
1
 62
7
  6
CONTINUOUS
 10
178.103833
 20
615.475183
 11
176.770501
 21
613.165784
  0
LINE
  8
1
 62
7
  6
CONTINUOUS
 10
176.770501
 20
617.784585
 11
178.103833
 21
615.475183
  0
ARC
  8
1
 62
7
  6
CONTINUOUS
 10
177.279710
 20
607.666558
 40
1.500000
 50
-127.099662
 51
-30.000003
  0
CIRCLE
  8
1
 62
7
  6
CONTINUOUS
 10
175.437167
 20
615.475183
 40
4.250000
  0
CIRCLE
  8
1
 62
7
  6
CONTINUOUS
 10
175.437167
 20
615.475183
 40
2.309401
  0
LINE
  8
1
 62
7
  6
CONTINUOUS
 10
191.437167
 20
585.135394
 11
191.437167
 21
609.173913
  0
LINE
  8
1
 62
7
  6
CONTINUOUS
 10
191.437167
 20
609.173913
 11
195.587169
 21
609.173913
  0
LINE
  8
1
 62
7
  6
CONTINUOUS
 10
124.103833
 20
617.784585
 11
122.770501
 21
615.475183
  0
LINE
  8
1
 62
7
  6
CONTINUOUS
 10
124.103833
 20
617.784585
 11
126.770501
 21
617.784585
  0
LINE
  8
1
 62
7
  6
CONTINUOUS
 10
126.770501
 20
613.165784
 11
124.103833
 21
613.165784
  0
LINE
  8
1
 62
7
  6
CONTINUOUS
 10
122.770501
 20
615.475183
 11
124.103833
 21
613.165784
  0
CIRCLE
  8
1
 62
7
  6
CONTINUOUS
 10
125.437167
 20
615.475183
 40
2.309401
  0
ARC
  8
1
 62
7
  6
CONTINUOUS
 10
107.448798
 20
583.673913
 40
1.500000
 50
-89.999998
 51
-14.976742
  0
LINE
  8
1
 62
7
  6
CONTINUOUS
 10
128.103833
 20
615.475183
 11
126.770501
 21
613.165784
  0
LINE
  8
1
 62
7
  6
CONTINUOUS
 10
126.770501
 20
617.784585
 11
128.103833
 21
615.475183
  0
CIRCLE
  8
1
 62
7
  6
CONTINUOUS
 10
125.437167
 20
615.475183
 40
4.250000
  0
ARC
  8
1
 62
7
  6
CONTINUOUS
 10
93.437167
 20
597.411813
 40
2.000000
 50
180.000000
 51
-89.999998
  0
LINE
  8
1
 62
7
  6
CONTINUOUS
 10
91.437167
 20
599.395228
 11
86.437167
 21
599.395228
  0
LINE
  8
1
 62
7
  6
CONTINUOUS
 10
94.580207
 20
582.173913
 11
107.448798
 21
582.173913
  0
LINE
  8
1
 62
7
  6
CONTINUOUS
 10
86.437167
 20
607.173913
 11
104.187842
 21
607.173913
  0
LINE
  8
1
 62
7
  6
CONTINUOUS
 10
97.295848
 20
595.411813
 11
93.437167
 21
595.411813
  0
LINE
  8
1
 62
7
  6
CONTINUOUS
 10
162.829365
 20
562.652663
 11
162.829365
 21
565.117246
  0
LINE
  8
1
 62
7
  6
CONTINUOUS
 10
162.829365
 20
560.632127
 11
162.829365
 21
561.709745
  0
LINE
  8
1
 62
7
  6
CONTINUOUS
 10
162.829365
 20
558.630834
 11
162.829365
 21
559.708453
  0
LINE
  8
1
 62
7
  6
CONTINUOUS
 10
162.813330
 20
566.860867
 11
162.829365
 21
566.866704
  0
LINE
  8
1
 62
7
  6
CONTINUOUS
 10
162.687080
 20
566.974543
 11
162.829365
 21
567.026331
  0
LINE
  8
1
 62
7
  6
CONTINUOUS
 10
162.560830
 20
567.088218
 11
162.829365
 21
567.185957
  0
LINE
  8
1
 62
7
  6
CONTINUOUS
 10
162.434581
 20
567.201894
 11
162.829365
 21
567.345583
  0
LINE
  8
1
 62
7
  6
CONTINUOUS
 10
162.308331
 20
567.315569
 11
162.829365
 21
567.505210
  0
LINE
  8
1
 62
7
  6
CONTINUOUS
 10
162.182082
 20
567.429245
 11
162.829365
 21
567.664837
  0
LINE
  8
1
 62
7
  6
CONTINUOUS
 10
162.055832
 20
567.542921
 11
162.829365
 21
567.824464
  0
LINE
  8
1
 62
7
  6
CONTINUOUS
 10
161.929582
 20
567.656596
 11
162.829365
 21
567.984090
  0
LINE
  8
1
 62
7
  6
CONTINUOUS
 10
161.803333
 20
567.770272
 11
162.829365
 21
568.143717
  0
LINE
  8
1
 62
7
  6
CONTINUOUS
 10
161.677084
 20
567.883947
 11
162.829365
 21
568.303344
  0
LINE
  8
1
 62
7
  6
CONTINUOUS
 10
161.550834
 20
567.997623
 11
162.829365
 21
568.462970
  0
LINE
  8
1
 62
7
  6
CONTINUOUS
 10
161.424584
 20
568.111299
 11
162.829365
 21
568.622597
  0
LINE
  8
1
 62
7
  6
CONTINUOUS
 10
161.298335
 20
568.224974
 11
162.829365
 21
568.782224
  0
LINE
  8
1
 62
7
  6
CONTINUOUS
 10
161.172086
 20
568.338650
 11
162.829365
 21
568.941850
  0
LINE
  8
1
 62
7
  6
CONTINUOUS
 10
161.045836
 20
568.452325
 11
162.829365
 21
569.101477
  0
LINE
  8
1
 62
7
  6
CONTINUOUS
 10
160.919586
 20
568.566001
 11
162.829365
 21
569.261104
  0
LINE
  8
1
 62
7
  6
CONTINUOUS
 10
160.793337
 20
568.679677
 11
162.829365
 21
569.420730
  0
LINE
  8
1
 62
7
  6
CONTINUOUS
 10
160.667087
 20
568.793352
 11
162.829365
 21
569.580357
  0
ARC
  8
1
 62
7
  6
CONTINUOUS
 10
183.634806
 20
537.673913
 40
1.500000
 50
89.999997
 51
-149.999999
  0
LINE
  8
1
 62
7
  6
CONTINUOUS
 10
178.005265
 20
539.173913
 11
191.437167
 21
539.173913
  0
ARC
  8
1
 62
7
  6
CONTINUOUS
 10
177.279710
 20
536.681268
 40
1.500000
 50
30.000003
 51
127.099656
  0
LINE
  8
1
 62
7
  6
CONTINUOUS
 10
191.437167
 20
535.173913
 11
191.437167
 21
559.212432
  0
LINE
  8
1
 62
7
  6
CONTINUOUS
 10
162.829365
 20
556.552568
 11
162.829365
 21
557.630187
  0
LINE
  8
1
 62
7
  6
CONTINUOUS
 10
191.437167
 20
535.173913
 11
195.587169
 21
535.173913
  0
ARC
  8
1
 62
7
  6
CONTINUOUS
 10
185.726863
 20
528.050366
 40
1.500000
 50
-51.347431
 51
29.999999
  0
ARC
  8
1
 62
7
  6
CONTINUOUS
 10
185.726863
 20
528.050366
 40
1.500000
 50
-149.999999
 51
-51.347431
  0
LINE
  8
1
 62
7
  6
CONTINUOUS
 10
174.103833
 20
531.182042
 11
176.770501
 21
531.182042
  0
LINE
  8
1
 62
7
  6
CONTINUOUS
 10
172.770501
 20
528.872644
 11
174.103833
 21
531.182042
  0
LINE
  8
1
 62
7
  6
CONTINUOUS
 10
174.103833
 20
526.563241
 11
172.770501
 21
528.872644
  0
LINE
  8
1
 62
7
  6
CONTINUOUS
 10
176.770501
 20
526.563241
 11
174.103833
 21
526.563241
  0
ARC
  8
1
 62
7
  6
CONTINUOUS
 10
167.753430
 20
531.181268
 40
1.500000
 50
89.999997
 51
-149.999999
  0
ARC
  8
1
 62
7
  6
CONTINUOUS
 10
161.972060
 20
529.194894
 40
1.500000
 50
30.000003
 51
89.999997
  0
ARC
  8
1
 62
7
  6
CONTINUOUS
 10
171.004432
 20
519.550366
 40
1.500000
 50
-149.999999
 51
-68.652569
  0
ARC
  8
1
 62
7
  6
CONTINUOUS
 10
171.004432
 20
519.550366
 40
1.500000
 50
-68.652569
 51
29.999999
  0
LINE
  8
1
 62
7
  6
CONTINUOUS
 10
169.705394
 20
518.800366
 11
163.271098
 21
529.944894
  0
LINE
  8
1
 62
7
  6
CONTINUOUS
 10
172.303469
 20
520.300366
 11
166.454392
 21
530.431268
  0
LINE
  8
1
 62
7
  6
CONTINUOUS
 10
178.103833
 20
528.872644
 11
176.770501
 21
531.182042
  0
LINE
  8
1
 62
7
  6
CONTINUOUS
 10
176.770501
 20
526.563241
 11
178.103833
 21
528.872644
  0
CIRCLE
  8
1
 62
7
  6
CONTINUOUS
 10
175.437167
 20
528.872644
 40
4.250000
  0
CIRCLE
  8
1
 62
7
  6
CONTINUOUS
 10
175.437167
 20
528.872644
 40
2.309401
  0
LINE
  8
1
 62
7
  6
CONTINUOUS
 10
184.427825
 20
527.300366
 11
178.578748
 21
537.431268
  0
LINE
  8
1
 62
7
  6
CONTINUOUS
 10
187.025901
 20
528.800366
 11
182.335769
 21
536.923913
  0
LINE
  8
1
 62
7
  6
CONTINUOUS
 10
143.019062
 20
570.208928
 11
137.384360
 21
571.509801
  0
LINE
  8
1
 62
7
  6
CONTINUOUS
 10
143.019062
 20
570.208928
 11
137.384360
 21
575.282436
  0
LINE
  8
1
 62
7
  6
CONTINUOUS
 10
143.317536
 20
570.043804
 11
137.384360
 21
575.386059
  0
LINE
  8
1
 62
7
  6
CONTINUOUS
 10
143.627072
 20
569.972342
 11
137.384360
 21
575.593305
  0
LINE
  8
1
 62
7
  6
CONTINUOUS
 10
143.472304
 20
570.008073
 11
137.384360
 21
575.489682
  0
LINE
  8
1
 62
7
  6
CONTINUOUS
 10
137.384360
 20
562.427010
 11
137.384360
 21
563.504629
  0
LINE
  8
1
 62
7
  6
CONTINUOUS
 10
137.384360
 20
564.505276
 11
137.384360
 21
565.582895
  0
LINE
  8
1
 62
7
  6
CONTINUOUS
 10
137.384360
 20
566.506569
 11
137.384360
 21
567.584188
  0
LINE
  8
1
 62
7
  6
CONTINUOUS
 10
137.384360
 20
568.527105
 11
137.384360
 21
571.509801
  0
LINE
  8
1
 62
7
  6
CONTINUOUS
 10
154.902798
 20
564.482655
 11
137.384360
 21
580.256327
  0
LINE
  8
1
 62
7
  6
CONTINUOUS
 10
149.950222
 20
565.626047
 11
137.384360
 21
576.940400
  0
LINE
  8
1
 62
7
  6
CONTINUOUS
 10
152.426510
 20
565.054351
 11
137.384360
 21
578.598363
  0
LINE
  8
1
 62
7
  6
CONTINUOUS
 10
153.664654
 20
564.768503
 11
137.384360
 21
579.427345
  0
LINE
  8
1
 62
7
  6
CONTINUOUS
 10
151.188366
 20
565.340199
 11
137.384360
 21
577.769382
  0
LINE
  8
1
 62
7
  6
CONTINUOUS
 10
148.712078
 20
565.911895
 11
137.384360
 21
576.111418
  0
LINE
  8
1
 62
7
  6
CONTINUOUS
 10
148.093006
 20
566.054820
 11
137.384360
 21
575.696927
  0
LINE
  8
1
 62
7
  6
CONTINUOUS
 10
149.331150
 20
565.768971
 11
137.384360
 21
576.525909
  0
LINE
  8
1
 62
7
  6
CONTINUOUS
 10
150.569294
 20
565.483123
 11
137.384360
 21
577.354891
  0
LINE
  8
1
 62
7
  6
CONTINUOUS
 10
151.807438
 20
565.197275
 11
137.384360
 21
578.183873
  0
LINE
  8
1
 62
7
  6
CONTINUOUS
 10
153.045582
 20
564.911427
 11
137.384360
 21
579.012854
  0
LINE
  8
1
 62
7
  6
CONTINUOUS
 10
154.283726
 20
564.625579
 11
137.384360
 21
579.841836
  0
LINE
  8
1
 62
7
  6
CONTINUOUS
 10
155.057566
 20
564.446924
 11
137.384360
 21
580.359950
  0
LINE
  8
1
 62
7
  6
CONTINUOUS
 10
154.748030
 20
564.518386
 11
137.384360
 21
580.152704
  0
LINE
  8
1
 62
7
  6
CONTINUOUS
 10
154.438494
 20
564.589848
 11
137.384360
 21
579.945459
  0
LINE
  8
1
 62
7
  6
CONTINUOUS
 10
154.128958
 20
564.661310
 11
137.384360
 21
579.738213
  0
LINE
  8
1
 62
7
  6
CONTINUOUS
 10
153.819422
 20
564.732772
 11
137.384360
 21
579.530968
  0
LINE
  8
1
 62
7
  6
CONTINUOUS
 10
153.509886
 20
564.804234
 11
137.384360
 21
579.323722
  0
LINE
  8
1
 62
7
  6
CONTINUOUS
 10
153.200350
 20
564.875696
 11
137.384360
 21
579.116477
  0
LINE
  8
1
 62
7
  6
CONTINUOUS
 10
152.890814
 20
564.947158
 11
137.384360
 21
578.909232
  0
LINE
  8
1
 62
7
  6
CONTINUOUS
 10
152.581278
 20
565.018620
 11
137.384360
 21
578.701986
  0
LINE
  8
1
 62
7
  6
CONTINUOUS
 10
152.271742
 20
565.090082
 11
137.384360
 21
578.494741
  0
LINE
  8
1
 62
7
  6
CONTINUOUS
 10
151.962206
 20
565.161544
 11
137.384360
 21
578.287495
  0
LINE
  8
1
 62
7
  6
CONTINUOUS
 10
151.652670
 20
565.233006
 11
137.384360
 21
578.080250
  0
LINE
  8
1
 62
7
  6
CONTINUOUS
 10
151.343134
 20
565.304468
 11
137.384360
 21
577.873004
  0
LINE
  8
1
 62
7
  6
CONTINUOUS
 10
151.033598
 20
565.375930
 11
137.384360
 21
577.665759
  0
LINE
  8
1
 62
7
  6
CONTINUOUS
 10
150.724062
 20
565.447393
 11
137.384360
 21
577.458513
  0
LINE
  8
1
 62
7
  6
CONTINUOUS
 10
150.414526
 20
565.518854
 11
137.384360
 21
577.251268
  0
LINE
  8
1
 62
7
  6
CONTINUOUS
 10
150.104990
 20
565.590316
 11
137.384360
 21
577.044023
  0
LINE
  8
1
 62
7
  6
CONTINUOUS
 10
149.795454
 20
565.661778
 11
137.435888
 21
576.790381
  0
LINE
  8
1
 62
7
  6
CONTINUOUS
 10
149.485918
 20
565.733240
 11
137.384360
 21
576.629532
  0
LINE
  8
1
 62
7
  6
CONTINUOUS
 10
149.176382
 20
565.804702
 11
137.384360
 21
576.422287
  0
LINE
  8
1
 62
7
  6
CONTINUOUS
 10
148.866846
 20
565.876164
 11
137.384360
 21
576.215041
  0
LINE
  8
1
 62
7
  6
CONTINUOUS
 10
148.557310
 20
565.947626
 11
137.384360
 21
576.007795
  0
LINE
  8
1
 62
7
  6
CONTINUOUS
 10
148.247774
 20
566.019088
 11
137.384360
 21
575.800550
  0
LINE
  8
1
 62
7
  6
CONTINUOUS
 10
148.402542
 20
565.983357
 11
137.384360
 21
575.904173
  0
LINE
  8
1
 62
7
  6
CONTINUOUS
 10
149.021614
 20
565.840433
 11
137.384360
 21
576.318664
  0
LINE
  8
1
 62
7
  6
CONTINUOUS
 10
149.640686
 20
565.697509
 11
137.384360
 21
576.733154
  0
LINE
  8
1
 62
7
  6
CONTINUOUS
 10
150.259758
 20
565.554585
 11
137.384360
 21
577.147646
  0
LINE
  8
1
 62
7
  6
CONTINUOUS
 10
150.878830
 20
565.411661
 11
137.384360
 21
577.562136
  0
LINE
  8
1
 62
7
  6
CONTINUOUS
 10
151.497902
 20
565.268737
 11
137.384360
 21
577.976627
  0
LINE
  8
1
 62
7
  6
CONTINUOUS
 10
152.116974
 20
565.125813
 11
137.384360
 21
578.391118
  0
LINE
  8
1
 62
7
  6
CONTINUOUS
 10
152.736046
 20
564.982889
 11
137.384360
 21
578.805609
  0
LINE
  8
1
 62
7
  6
CONTINUOUS
 10
153.355118
 20
564.839965
 11
137.384360
 21
579.220100
  0
LINE
  8
1
 62
7
  6
CONTINUOUS
 10
153.974190
 20
564.697041
 11
137.384360
 21
579.634591
  0
LINE
  8
1
 62
7
  6
CONTINUOUS
 10
154.593262
 20
564.554117
 11
137.384360
 21
580.049081
  0
LINE
  8
1
 62
7
  6
CONTINUOUS
 10
155.212334
 20
564.411193
 11
137.384360
 21
580.463573
  0
ARC
  8
1
 62
7
  6
CONTINUOUS
 10
106.278361
 20
577.673913
 40
1.500000
 50
-7.099662
 51
90.000001
  0
LINE
  8
1
 62
7
  6
CONTINUOUS
 10
97.770499
 20
572.173913
 11
99.103835
 21
569.864512
  0
LINE
  8
1
 62
7
  6
CONTINUOUS
 10
99.103835
 20
569.864512
 11
101.770499
 21
569.864512
  0
LINE
  8
1
 62
7
  6
CONTINUOUS
 10
103.103835
 20
572.173913
 11
101.770499
 21
569.864512
  0
LINE
  8
1
 62
7
  6
CONTINUOUS
 10
101.770499
 20
574.483314
 11
103.103835
 21
572.173913
  0
LINE
  8
1
 62
7
  6
CONTINUOUS
 10
99.103835
 20
574.483314
 11
101.770499
 21
574.483314
  0
LINE
  8
1
 62
7
  6
CONTINUOUS
 10
97.770499
 20
572.173913
 11
99.103835
 21
574.483314
  0
CIRCLE
  8
1
 62
7
  6
CONTINUOUS
 10
100.437167
 20
572.173913
 40
2.309401
  0
ARC
  8
1
 62
7
  6
CONTINUOUS
 10
107.448798
 20
560.673913
 40
1.500000
 50
14.976742
 51
89.999997
  0
ARC
  8
1
 62
7
  6
CONTINUOUS
 10
106.278361
 20
566.673913
 40
1.500000
 50
-89.999998
 51
7.099672
  0
CIRCLE
  8
1
 62
7
  6
CONTINUOUS
 10
100.437167
 20
572.173913
 40
4.250000
  0
LINE
  8
1
 62
7
  6
CONTINUOUS
 10
124.103833
 20
526.563241
 11
126.770501
 21
526.563241
  0
LINE
  8
1
 62
7
  6
CONTINUOUS
 10
124.103833
 20
531.182042
 11
126.770501
 21
531.182042
  0
LINE
  8
1
 62
7
  6
CONTINUOUS
 10
122.770501
 20
528.872644
 11
124.103833
 21
531.182042
  0
LINE
  8
1
 62
7
  6
CONTINUOUS
 10
124.103833
 20
526.563241
 11
122.770501
 21
528.872644
  0
CIRCLE
  8
1
 62
7
  6
CONTINUOUS
 10
125.437167
 20
528.872644
 40
2.309401
  0
LINE
  8
1
 62
7
  6
CONTINUOUS
 10
126.770501
 20
526.563241
 11
128.103833
 21
528.872644
  0
LINE
  8
1
 62
7
  6
CONTINUOUS
 10
126.770501
 20
531.182042
 11
128.103833
 21
528.872644
  0
CIRCLE
  8
1
 62
7
  6
CONTINUOUS
 10
125.437167
 20
528.872644
 40
4.250000
  0
LINE
  8
1
 62
7
  6
CONTINUOUS
 10
162.829365
 20
559.169643
 11
137.384360
 21
565.044086
  0
LINE
  8
1
 62
7
  6
CONTINUOUS
 10
162.829365
 20
558.861752
 11
137.384360
 21
564.736194
  0
LINE
  8
1
 62
7
  6
CONTINUOUS
 10
162.829365
 20
561.170937
 11
137.384360
 21
567.045379
  0
LINE
  8
1
 62
7
  6
CONTINUOUS
 10
162.829365
 20
564.865631
 11
137.384360
 21
570.740073
  0
LINE
  8
1
 62
7
  6
CONTINUOUS
 10
162.829365
 20
557.168350
 11
137.384360
 21
563.042792
  0
LINE
  8
1
 62
7
  6
CONTINUOUS
 10
162.829365
 20
556.552568
 11
137.384360
 21
562.427010
  0
LINE
  8
1
 62
7
  6
CONTINUOUS
 10
162.829365
 20
557.476241
 11
137.384360
 21
563.350683
  0
LINE
  8
1
 62
7
  6
CONTINUOUS
 10
162.829365
 20
556.860459
 11
137.384360
 21
562.734901
  0
LINE
  8
1
 62
7
  6
CONTINUOUS
 10
162.829365
 20
556.706513
 11
137.384360
 21
562.580956
  0
LINE
  8
1
 62
7
  6
CONTINUOUS
 10
162.829365
 20
557.014404
 11
137.384360
 21
562.888846
  0
LINE
  8
1
 62
7
  6
CONTINUOUS
 10
162.829365
 20
557.322296
 11
137.384360
 21
563.196738
  0
LINE
  8
1
 62
7
  6
CONTINUOUS
 10
162.829365
 20
557.630187
 11
137.384360
 21
563.504629
  0
LINE
  8
1
 62
7
  6
CONTINUOUS
 10
162.829365
 20
557.553214
 11
137.384360
 21
563.427656
  0
LINE
  8
1
 62
7
  6
CONTINUOUS
 10
162.829365
 20
557.399268
 11
137.384360
 21
563.273711
  0
LINE
  8
1
 62
7
  6
CONTINUOUS
 10
162.829365
 20
557.245323
 11
137.384360
 21
563.119765
  0
LINE
  8
1
 62
7
  6
CONTINUOUS
 10
162.829365
 20
557.091377
 11
137.384360
 21
562.965819
  0
LINE
  8
1
 62
7
  6
CONTINUOUS
 10
162.829365
 20
556.937431
 11
137.384360
 21
562.811874
  0
LINE
  8
1
 62
7
  6
CONTINUOUS
 10
162.829365
 20
556.783486
 11
137.384360
 21
562.657929
  0
LINE
  8
1
 62
7
  6
CONTINUOUS
 10
162.829365
 20
556.629540
 11
137.384360
 21
562.503983
  0
LINE
  8
1
 62
7
  6
CONTINUOUS
 10
162.829365
 20
559.477534
 11
137.384360
 21
565.351977
  0
LINE
  8
1
 62
7
  6
CONTINUOUS
 10
162.829365
 20
559.631480
 11
137.384360
 21
565.505922
  0
LINE
  8
1
 62
7
  6
CONTINUOUS
 10
162.829365
 20
559.323588
 11
137.384360
 21
565.198031
  0
LINE
  8
1
 62
7
  6
CONTINUOUS
 10
162.829365
 20
559.015698
 11
137.384360
 21
564.890140
  0
LINE
  8
1
 62
7
  6
CONTINUOUS
 10
162.829365
 20
558.707807
 11
137.384360
 21
564.582249
  0
LINE
  8
1
 62
7
  6
CONTINUOUS
 10
162.829365
 20
558.630834
 11
137.384360
 21
564.505276
  0
LINE
  8
1
 62
7
  6
CONTINUOUS
 10
162.829365
 20
558.784780
 11
137.384360
 21
564.659221
  0
LINE
  8
1
 62
7
  6
CONTINUOUS
 10
162.829365
 20
558.938725
 11
137.384360
 21
564.813167
  0
LINE
  8
1
 62
7
  6
CONTINUOUS
 10
162.829365
 20
559.092670
 11
137.384360
 21
564.967113
  0
LINE
  8
1
 62
7
  6
CONTINUOUS
 10
162.829365
 20
559.246616
 11
137.384360
 21
565.121059
  0
LINE
  8
1
 62
7
  6
CONTINUOUS
 10
162.829365
 20
559.400561
 11
137.384360
 21
565.275004
  0
LINE
  8
1
 62
7
  6
CONTINUOUS
 10
162.829365
 20
559.554507
 11
137.384360
 21
565.428949
  0
LINE
  8
1
 62
7
  6
CONTINUOUS
 10
162.829365
 20
559.708453
 11
137.384360
 21
565.582895
  0
LINE
  8
1
 62
7
  6
CONTINUOUS
 10
162.829365
 20
561.478828
 11
137.384360
 21
567.353270
  0
LINE
  8
1
 62
7
  6
CONTINUOUS
 10
162.829365
 20
560.863045
 11
137.384360
 21
566.737487
  0
LINE
  8
1
 62
7
  6
CONTINUOUS
 10
162.829365
 20
560.709100
 11
137.384360
 21
566.583541
  0
LINE
  8
1
 62
7
  6
CONTINUOUS
 10
162.829365
 20
561.016991
 11
137.384360
 21
566.891433
  0
LINE
  8
1
 62
7
  6
CONTINUOUS
 10
162.829365
 20
561.324882
 11
137.384360
 21
567.199324
  0
LINE
  8
1
 62
7
  6
CONTINUOUS
 10
162.829365
 20
561.632773
 11
137.384360
 21
567.507216
  0
LINE
  8
1
 62
7
  6
CONTINUOUS
 10
162.829365
 20
561.709745
 11
137.384360
 21
567.584188
  0
LINE
  8
1
 62
7
  6
CONTINUOUS
 10
162.829365
 20
561.555800
 11
137.384360
 21
567.430243
  0
LINE
  8
1
 62
7
  6
CONTINUOUS
 10
162.829365
 20
561.401855
 11
137.384360
 21
567.276297
  0
LINE
  8
1
 62
7
  6
CONTINUOUS
 10
162.829365
 20
561.170937
 11
137.384360
 21
567.045379
  0
LINE
  8
1
 62
7
  6
CONTINUOUS
 10
162.829365
 20
561.093964
 11
137.384360
 21
566.968406
  0
LINE
  8
1
 62
7
  6
CONTINUOUS
 10
162.829365
 20
560.940018
 11
137.384360
 21
566.814460
  0
LINE
  8
1
 62
7
  6
CONTINUOUS
 10
162.829365
 20
560.786072
 11
137.384360
 21
566.660514
  0
LINE
  8
1
 62
7
  6
CONTINUOUS
 10
162.829365
 20
560.632127
 11
137.384360
 21
566.506569
  0
LINE
  8
1
 62
7
  6
CONTINUOUS
 10
162.829365
 20
561.247909
 11
137.384360
 21
567.122351
  0
LINE
  8
1
 62
7
  6
CONTINUOUS
 10
162.829365
 20
566.846428
 11
150.440875
 21
578.001075
  0
LINE
  8
1
 62
7
  6
CONTINUOUS
 10
162.829365
 20
563.711039
 11
137.384360
 21
569.585481
  0
LINE
  8
1
 62
7
  6
CONTINUOUS
 10
162.829365
 20
562.941311
 11
137.384360
 21
568.815753
  0
LINE
  8
1
 62
7
  6
CONTINUOUS
 10
162.829365
 20
563.326175
 11
137.384360
 21
569.200617
  0
LINE
  8
1
 62
7
  6
CONTINUOUS
 10
162.829365
 20
564.095902
 11
137.384360
 21
569.970345
  0
LINE
  8
1
 62
7
  6
CONTINUOUS
 10
162.829365
 20
564.480767
 11
137.384360
 21
570.355209
  0
LINE
  8
1
 62
7
  6
CONTINUOUS
 10
162.630347
 20
565.296442
 11
137.384360
 21
571.124937
  0
LINE
  8
1
 62
7
  6
CONTINUOUS
 10
162.342936
 20
565.555228
 11
137.384360
 21
571.317369
  0
LINE
  8
1
 62
7
  6
CONTINUOUS
 10
162.829365
 20
565.058063
 11
137.384360
 21
570.932505
  0
LINE
  8
1
 62
7
  6
CONTINUOUS
 10
162.829365
 20
564.673199
 11
137.384360
 21
570.547641
  0
LINE
  8
1
 62
7
  6
CONTINUOUS
 10
162.829365
 20
564.288335
 11
137.384360
 21
570.162777
  0
LINE
  8
1
 62
7
  6
CONTINUOUS
 10
162.829365
 20
563.903471
 11
137.384360
 21
569.777913
  0
LINE
  8
1
 62
7
  6
CONTINUOUS
 10
162.829365
 20
563.518607
 11
137.384360
 21
569.393049
  0
LINE
  8
1
 62
7
  6
CONTINUOUS
 10
162.829365
 20
563.133742
 11
137.384360
 21
569.008185
  0
LINE
  8
1
 62
7
  6
CONTINUOUS
 10
162.829365
 20
562.748879
 11
137.384360
 21
568.623321
  0
LINE
  8
1
 62
7
  6
CONTINUOUS
 10
160.540838
 20
568.907028
 11
162.829365
 21
569.739984
  0
LINE
  8
1
 62
7
  6
CONTINUOUS
 10
160.414588
 20
569.020703
 11
162.829365
 21
569.899610
  0
LINE
  8
1
 62
7
  6
CONTINUOUS
 10
160.288338
 20
569.134379
 11
162.829365
 21
570.059237
  0
LINE
  8
1
 62
7
  6
CONTINUOUS
 10
160.162089
 20
569.248055
 11
162.829365
 21
570.218864
  0
LINE
  8
1
 62
7
  6
CONTINUOUS
 10
160.035840
 20
569.361730
 11
162.829365
 21
570.378490
  0
LINE
  8
1
 62
7
  6
CONTINUOUS
 10
159.909590
 20
569.475406
 11
162.829365
 21
570.538117
  0
LINE
  8
1
 62
7
  6
CONTINUOUS
 10
159.783340
 20
569.589081
 11
162.829365
 21
570.697744
  0
LINE
  8
1
 62
7
  6
CONTINUOUS
 10
159.657091
 20
569.702757
 11
162.829365
 21
570.857370
  0
LINE
  8
1
 62
7
  6
CONTINUOUS
 10
159.530842
 20
569.816433
 11
162.829365
 21
571.016997
  0
LINE
  8
1
 62
7
  6
CONTINUOUS
 10
159.404592
 20
569.930108
 11
162.829365
 21
571.176624
  0
LINE
  8
1
 62
7
  6
CONTINUOUS
 10
159.278342
 20
570.043784
 11
162.829365
 21
571.336250
  0
LINE
  8
1
 62
7
  6
CONTINUOUS
 10
159.152093
 20
570.157459
 11
162.829365
 21
571.495877
  0
LINE
  8
1
 62
7
  6
CONTINUOUS
 10
159.025843
 20
570.271135
 11
162.829365
 21
571.655504
  0
LINE
  8
1
 62
7
  6
CONTINUOUS
 10
158.899594
 20
570.384811
 11
162.829365
 21
571.815130
  0
LINE
  8
1
 62
7
  6
CONTINUOUS
 10
158.773344
 20
570.498486
 11
162.829365
 21
571.974757
  0
LINE
  8
1
 62
7
  6
CONTINUOUS
 10
158.647095
 20
570.612162
 11
162.829365
 21
572.134384
  0
LINE
  8
1
 62
7
  6
CONTINUOUS
 10
158.520845
 20
570.725837
 11
162.829365
 21
572.294010
  0
LINE
  8
1
 62
7
  6
CONTINUOUS
 10
158.394595
 20
570.839513
 11
162.829365
 21
572.453637
  0
LINE
  8
1
 62
7
  6
CONTINUOUS
 10
158.268346
 20
570.953188
 11
162.829365
 21
572.613264
  0
LINE
  8
1
 62
7
  6
CONTINUOUS
 10
158.142096
 20
571.066864
 11
162.829365
 21
572.772890
  0
LINE
  8
1
 62
7
  6
CONTINUOUS
 10
158.015847
 20
571.180540
 11
162.829365
 21
572.932517
  0
LINE
  8
1
 62
7
  6
CONTINUOUS
 10
157.889597
 20
571.294215
 11
162.829365
 21
573.092144
  0
LINE
  8
1
 62
7
  6
CONTINUOUS
 10
157.763348
 20
571.407891
 11
162.829365
 21
573.251770
  0
LINE
  8
1
 62
7
  6
CONTINUOUS
 10
157.637098
 20
571.521566
 11
162.829365
 21
573.411397
  0
LINE
  8
1
 62
7
  6
CONTINUOUS
 10
157.510849
 20
571.635242
 11
162.829365
 21
573.571024
  0
LINE
  8
1
 62
7
  6
CONTINUOUS
 10
157.384600
 20
571.748918
 11
162.829365
 21
573.730650
  0
LINE
  8
1
 62
7
  6
CONTINUOUS
 10
157.258350
 20
571.862593
 11
162.829365
 21
573.890277
  0
LINE
  8
1
 62
7
  6
CONTINUOUS
 10
157.132100
 20
571.976269
 11
162.829365
 21
574.049904
  0
LINE
  8
1
 62
7
  6
CONTINUOUS
 10
157.005851
 20
572.089944
 11
162.829365
 21
574.209530
  0
LINE
  8
1
 62
7
  6
CONTINUOUS
 10
156.879601
 20
572.203620
 11
162.829365
 21
574.369157
  0
LINE
  8
1
 62
7
  6
CONTINUOUS
 10
156.753352
 20
572.317296
 11
162.829365
 21
574.528784
  0
LINE
  8
1
 62
7
  6
CONTINUOUS
 10
156.627102
 20
572.430971
 11
162.829365
 21
574.688410
  0
LINE
  8
1
 62
7
  6
CONTINUOUS
 10
156.500852
 20
572.544647
 11
162.829365
 21
574.848037
  0
LINE
  8
1
 62
7
  6
CONTINUOUS
 10
156.374603
 20
572.658322
 11
162.829365
 21
575.007664
  0
LINE
  8
1
 62
7
  6
CONTINUOUS
 10
156.248353
 20
572.771998
 11
162.829365
 21
575.167290
  0
LINE
  8
1
 62
7
  6
CONTINUOUS
 10
156.122104
 20
572.885674
 11
162.829365
 21
575.326917
  0
LINE
  8
1
 62
7
  6
CONTINUOUS
 10
155.995854
 20
572.999349
 11
162.829365
 21
575.486544
  0
LINE
  8
1
 62
7
  6
CONTINUOUS
 10
155.869605
 20
573.113025
 11
162.829365
 21
575.646170
  0
LINE
  8
1
 62
7
  6
CONTINUOUS
 10
155.743355
 20
573.226700
 11
162.829365
 21
575.805797
  0
LINE
  8
1
 62
7
  6
CONTINUOUS
 10
155.617106
 20
573.340376
 11
162.829365
 21
575.965424
  0
LINE
  8
1
 62
7
  6
CONTINUOUS
 10
155.490856
 20
573.454052
 11
162.829365
 21
576.125050
  0
LINE
  8
1
 62
7
  6
CONTINUOUS
 10
155.364607
 20
573.567727
 11
162.829365
 21
576.284677
  0
LINE
  8
1
 62
7
  6
CONTINUOUS
 10
155.238357
 20
573.681403
 11
162.829365
 21
576.444304
  0
LINE
  8
1
 62
7
  6
CONTINUOUS
 10
155.112108
 20
573.795078
 11
162.829365
 21
576.603931
  0
LINE
  8
1
 62
7
  6
CONTINUOUS
 10
154.985858
 20
573.908754
 11
162.829365
 21
576.763557
  0
LINE
  8
1
 62
7
  6
CONTINUOUS
 10
154.859608
 20
574.022430
 11
162.829365
 21
576.923183
  0
LINE
  8
1
 62
7
  6
CONTINUOUS
 10
154.733359
 20
574.136105
 11
162.829365
 21
577.082810
  0
LINE
  8
1
 62
7
  6
CONTINUOUS
 10
154.607109
 20
574.249781
 11
162.829365
 21
577.242437
  0
LINE
  8
1
 62
7
  6
CONTINUOUS
 10
154.480860
 20
574.363456
 11
162.829365
 21
577.402063
  0
LINE
  8
1
 62
7
  6
CONTINUOUS
 10
154.354611
 20
574.477132
 11
162.829365
 21
577.561690
  0
LINE
  8
1
 62
7
  6
CONTINUOUS
 10
154.228361
 20
574.590807
 11
162.829365
 21
577.721317
  0
LINE
  8
1
 62
7
  6
CONTINUOUS
 10
154.102111
 20
574.704483
 11
162.829365
 21
577.880944
  0
LINE
  8
1
 62
7
  6
CONTINUOUS
 10
153.975862
 20
574.818159
 11
162.829365
 21
578.040570
  0
LINE
  8
1
 62
7
  6
CONTINUOUS
 10
153.849612
 20
574.931834
 11
162.829365
 21
578.200197
  0
LINE
  8
1
 62
7
  6
CONTINUOUS
 10
153.723363
 20
575.045510
 11
162.829365
 21
578.359824
  0
LINE
  8
1
 62
7
  6
CONTINUOUS
 10
153.597113
 20
575.159185
 11
162.829365
 21
578.519450
  0
LINE
  8
1
 62
7
  6
CONTINUOUS
 10
153.470864
 20
575.272861
 11
162.829365
 21
578.679077
  0
LINE
  8
1
 62
7
  6
CONTINUOUS
 10
153.344614
 20
575.386537
 11
162.829365
 21
578.838704
  0
LINE
  8
1
 62
7
  6
CONTINUOUS
 10
153.218365
 20
575.500212
 11
162.829365
 21
578.998330
  0
LINE
  8
1
 62
7
  6
CONTINUOUS
 10
153.092115
 20
575.613888
 11
162.829365
 21
579.157957
  0
LINE
  8
1
 62
7
  6
CONTINUOUS
 10
152.965865
 20
575.727563
 11
162.829365
 21
579.317584
  0
LINE
  8
1
 62
7
  6
CONTINUOUS
 10
152.839616
 20
575.841239
 11
162.829365
 21
579.477210
  0
LINE
  8
1
 62
7
  6
CONTINUOUS
 10
152.713367
 20
575.954915
 11
162.829365
 21
579.636837
  0
LINE
  8
1
 62
7
  6
CONTINUOUS
 10
152.587117
 20
576.068590
 11
162.829365
 21
579.796464
  0
LINE
  8
1
 62
7
  6
CONTINUOUS
 10
152.460867
 20
576.182266
 11
162.829365
 21
579.956090
  0
LINE
  8
1
 62
7
  6
CONTINUOUS
 10
152.334618
 20
576.295941
 11
162.829365
 21
580.115717
  0
LINE
  8
1
 62
7
  6
CONTINUOUS
 10
152.208368
 20
576.409617
 11
162.829365
 21
580.275344
  0
LINE
  8
1
 62
7
  6
CONTINUOUS
 10
152.082119
 20
576.523293
 11
162.829365
 21
580.434970
  0
LINE
  8
1
 62
7
  6
CONTINUOUS
 10
162.829365
 20
562.652663
 11
137.384360
 21
568.527105
  0
LINE
  8
1
 62
7
  6
CONTINUOUS
 10
162.829365
 20
562.845095
 11
137.384360
 21
568.719537
  0
LINE
  8
1
 62
7
  6
CONTINUOUS
 10
162.829365
 20
563.037527
 11
137.384360
 21
568.911969
  0
LINE
  8
1
 62
7
  6
CONTINUOUS
 10
162.829365
 20
563.229959
 11
137.384360
 21
569.104401
  0
LINE
  8
1
 62
7
  6
CONTINUOUS
 10
162.829365
 20
563.422391
 11
137.384360
 21
569.296833
  0
LINE
  8
1
 62
7
  6
CONTINUOUS
 10
162.829365
 20
563.614822
 11
137.384360
 21
569.489265
  0
LINE
  8
1
 62
7
  6
CONTINUOUS
 10
162.829365
 20
563.807255
 11
137.384360
 21
569.681697
  0
LINE
  8
1
 62
7
  6
CONTINUOUS
 10
162.829365
 20
563.999687
 11
137.384360
 21
569.874129
  0
LINE
  8
1
 62
7
  6
CONTINUOUS
 10
162.829365
 20
564.192119
 11
137.384360
 21
570.066561
  0
LINE
  8
1
 62
7
  6
CONTINUOUS
 10
162.829365
 20
564.384551
 11
137.384360
 21
570.258993
  0
LINE
  8
1
 62
7
  6
CONTINUOUS
 10
162.829365
 20
564.576983
 11
137.384360
 21
570.451425
  0
LINE
  8
1
 62
7
  6
CONTINUOUS
 10
162.829365
 20
564.769415
 11
137.384360
 21
570.643857
  0
LINE
  8
1
 62
7
  6
CONTINUOUS
 10
162.829365
 20
564.961847
 11
137.384360
 21
570.836289
  0
LINE
  8
1
 62
7
  6
CONTINUOUS
 10
162.774052
 20
565.167049
 11
137.384360
 21
571.028721
  0
LINE
  8
1
 62
7
  6
CONTINUOUS
 10
162.486642
 20
565.425835
 11
137.384360
 21
571.221153
  0
LINE
  8
1
 62
7
  6
CONTINUOUS
 10
162.199231
 20
565.684621
 11
137.384360
 21
571.413585
  0
ARC
  8
1
 62
7
  6
CONTINUOUS
 10
94.580207
 20
563.673913
 40
1.500000
 50
-171.347430
 51
-89.999998
  0
ARC
  8
1
 62
7
  6
CONTINUOUS
 10
94.580207
 20
563.673913
 40
1.500000
 50
89.999997
 51
-171.347430
  0
ARC
  8
1
 62
7
  6
CONTINUOUS
 10
93.437167
 20
546.936013
 40
2.000000
 50
89.999997
 51
180.000000
  0
LINE
  8
1
 62
7
  6
CONTINUOUS
 10
91.437167
 20
544.952598
 11
86.437167
 21
544.952598
  0
LINE
  8
1
 62
7
  6
CONTINUOUS
 10
94.580207
 20
562.173913
 11
107.448798
 21
562.173913
  0
LINE
  8
1
 62
7
  6
CONTINUOUS
 10
94.580207
 20
565.173913
 11
106.278361
 21
565.173913
  0
LINE
  8
1
 62
7
  6
CONTINUOUS
 10
94.580207
 20
579.173913
 11
106.278361
 21
579.173913
  0
LINE
  8
1
 62
7
  6
CONTINUOUS
 10
86.437167
 20
537.173913
 11
104.187842
 21
537.173913
  0
LINE
  8
1
 62
7
  6
CONTINUOUS
 10
97.295848
 20
548.936013
 11
93.437167
 21
548.936013
  0
LINE
  8
1
 62
7
  6
CONTINUOUS
 10
194.437167
 20
535.173913
 11
194.437167
 21
609.173913
  0
LINE
  8
1
 62
7
  6
CONTINUOUS
 10
86.437167
 20
607.173913
 11
86.437167
 21
537.173913
  0
LINE
  8
1
 62
7
  6
CONTINUOUS
 10
91.437167
 20
599.395228
 11
91.437167
 21
544.952598
  0
LINE
  8
1
 62
7
  6
CONTINUOUS
 10
162.829365
 20
566.846428
 11
162.829365
 21
582.510117
  0
LINE
  8
1
 62
7
  6
CONTINUOUS
 10
137.384360
 20
575.282436
 11
137.384360
 21
588.028030
  0
LINE
  8
1
 62
7
  6
CONTINUOUS
 10
150.440875
 20
578.001075
 11
162.829365
 21
582.510117
  0
LINE
  8
1
 62
7
  6
CONTINUOUS
 10
157.379085
 20
563.910959
 11
137.384360
 21
581.914290
  0
LINE
  8
1
 62
7
  6
CONTINUOUS
 10
162.829365
 20
563.977396
 11
137.384360
 21
586.888181
  0
LINE
  8
1
 62
7
  6
CONTINUOUS
 10
159.855373
 20
563.339263
 11
137.384360
 21
583.572254
  0
LINE
  8
1
 62
7
  6
CONTINUOUS
 10
162.331661
 20
562.767567
 11
137.384360
 21
585.230217
  0
LINE
  8
1
 62
7
  6
CONTINUOUS
 10
162.829365
 20
564.806377
 11
137.384360
 21
587.717163
  0
LINE
  8
1
 62
7
  6
CONTINUOUS
 10
162.829365
 20
563.148414
 11
137.384360
 21
586.059199
  0
LINE
  8
1
 62
7
  6
CONTINUOUS
 10
161.093517
 20
563.053415
 11
137.384360
 21
584.401236
  0
LINE
  8
1
 62
7
  6
CONTINUOUS
 10
158.617229
 20
563.625111
 11
137.384360
 21
582.743272
  0
LINE
  8
1
 62
7
  6
CONTINUOUS
 10
156.140941
 20
564.196807
 11
137.384360
 21
581.085309
  0
LINE
  8
1
 62
7
  6
CONTINUOUS
 10
155.521869
 20
564.339731
 11
137.384360
 21
580.670817
  0
LINE
  8
1
 62
7
  6
CONTINUOUS
 10
156.760013
 20
564.053883
 11
137.384360
 21
581.499800
  0
LINE
  8
1
 62
7
  6
CONTINUOUS
 10
157.998157
 20
563.768035
 11
137.384360
 21
582.328781
  0
LINE
  8
1
 62
7
  6
CONTINUOUS
 10
159.236301
 20
563.482187
 11
137.384360
 21
583.157764
  0
LINE
  8
1
 62
7
  6
CONTINUOUS
 10
160.474445
 20
563.196339
 11
137.384360
 21
583.986745
  0
LINE
  8
1
 62
7
  6
CONTINUOUS
 10
161.712589
 20
562.910491
 11
137.384360
 21
584.815726
  0
LINE
  8
1
 62
7
  6
CONTINUOUS
 10
162.829365
 20
562.733923
 11
137.384360
 21
585.644709
  0
LINE
  8
1
 62
7
  6
CONTINUOUS
 10
162.829365
 20
563.562904
 11
137.384360
 21
586.473690
  0
LINE
  8
1
 62
7
  6
CONTINUOUS
 10
162.829365
 20
564.391886
 11
137.384360
 21
587.302671
  0
LINE
  8
1
 62
7
  6
CONTINUOUS
 10
162.829365
 20
565.117246
 11
137.384360
 21
588.028030
  0
LINE
  8
1
 62
7
  6
CONTINUOUS
 10
162.829365
 20
564.910000
 11
137.384360
 21
587.820786
  0
LINE
  8
1
 62
7
  6
CONTINUOUS
 10
162.829365
 20
564.702755
 11
137.384360
 21
587.613540
  0
LINE
  8
1
 62
7
  6
CONTINUOUS
 10
162.829365
 20
564.495509
 11
137.384360
 21
587.406295
  0
LINE
  8
1
 62
7
  6
CONTINUOUS
 10
162.829365
 20
564.288264
 11
137.384360
 21
587.199049
  0
LINE
  8
1
 62
7
  6
CONTINUOUS
 10
162.829365
 20
564.081018
 11
137.384360
 21
586.991803
  0
LINE
  8
1
 62
7
  6
CONTINUOUS
 10
162.829365
 20
563.873773
 11
137.384360
 21
586.784558
  0
LINE
  8
1
 62
7
  6
CONTINUOUS
 10
162.829365
 20
563.666528
 11
137.384360
 21
586.577313
  0
LINE
  8
1
 62
7
  6
CONTINUOUS
 10
162.829365
 20
563.459282
 11
137.384360
 21
586.370068
  0
LINE
  8
1
 62
7
  6
CONTINUOUS
 10
162.829365
 20
563.252036
 11
137.384360
 21
586.162822
  0
LINE
  8
1
 62
7
  6
CONTINUOUS
 10
162.829365
 20
563.044791
 11
137.384360
 21
585.955577
  0
LINE
  8
1
 62
7
  6
CONTINUOUS
 10
162.829365
 20
562.837545
 11
137.384360
 21
585.748331
  0
LINE
  8
1
 62
7
  6
CONTINUOUS
 10
162.795965
 20
562.660374
 11
137.384360
 21
585.541085
  0
LINE
  8
1
 62
7
  6
CONTINUOUS
 10
162.486429
 20
562.731835
 11
137.384360
 21
585.333840
  0
LINE
  8
1
 62
7
  6
CONTINUOUS
 10
162.010877
 20
562.952779
 11
137.384360
 21
585.126595
  0
LINE
  8
1
 62
7
  6
CONTINUOUS
 10
161.867357
 20
562.874760
 11
137.384360
 21
584.919350
  0
LINE
  8
1
 62
7
  6
CONTINUOUS
 10
161.557821
 20
562.946221
 11
137.384360
 21
584.712104
  0
LINE
  8
1
 62
7
  6
CONTINUOUS
 10
161.248285
 20
563.017684
 11
137.384360
 21
584.504858
  0
LINE
  8
1
 62
7
  6
CONTINUOUS
 10
160.938749
 20
563.089146
 11
137.384360
 21
584.297613
  0
LINE
  8
1
 62
7
  6
CONTINUOUS
 10
160.629213
 20
563.160608
 11
137.384360
 21
584.090367
  0
LINE
  8
1
 62
7
  6
CONTINUOUS
 10
160.319677
 20
563.232070
 11
137.384360
 21
583.883122
  0
LINE
  8
1
 62
7
  6
CONTINUOUS
 10
160.010141
 20
563.303532
 11
137.384360
 21
583.675877
  0
LINE
  8
1
 62
7
  6
CONTINUOUS
 10
159.700605
 20
563.374994
 11
137.384360
 21
583.468631
  0
LINE
  8
1
 62
7
  6
CONTINUOUS
 10
159.391069
 20
563.446456
 11
137.384360
 21
583.261386
  0
LINE
  8
1
 62
7
  6
CONTINUOUS
 10
159.081533
 20
563.517918
 11
137.384360
 21
583.054140
  0
LINE
  8
1
 62
7
  6
CONTINUOUS
 10
158.771997
 20
563.589380
 11
137.384360
 21
582.846895
  0
LINE
  8
1
 62
7
  6
CONTINUOUS
 10
158.462461
 20
563.660842
 11
137.384360
 21
582.639649
  0
LINE
  8
1
 62
7
  6
CONTINUOUS
 10
158.152925
 20
563.732304
 11
137.384360
 21
582.432404
  0
LINE
  8
1
 62
7
  6
CONTINUOUS
 10
157.843389
 20
563.803766
 11
137.384360
 21
582.225159
  0
LINE
  8
1
 62
7
  6
CONTINUOUS
 10
157.533853
 20
563.875228
 11
137.384360
 21
582.017913
  0
LINE
  8
1
 62
7
  6
CONTINUOUS
 10
157.224317
 20
563.946690
 11
137.384360
 21
581.810668
  0
LINE
  8
1
 62
7
  6
CONTINUOUS
 10
156.914781
 20
564.018152
 11
137.384360
 21
581.603422
  0
LINE
  8
1
 62
7
  6
CONTINUOUS
 10
156.605245
 20
564.089614
 11
137.384360
 21
581.396176
  0
LINE
  8
1
 62
7
  6
CONTINUOUS
 10
156.295709
 20
564.161076
 11
137.384360
 21
581.188932
  0
LINE
  8
1
 62
7
  6
CONTINUOUS
 10
155.986173
 20
564.232538
 11
137.384360
 21
580.981686
  0
LINE
  8
1
 62
7
  6
CONTINUOUS
 10
155.676637
 20
564.304000
 11
137.384360
 21
580.774441
  0
LINE
  8
1
 62
7
  6
CONTINUOUS
 10
155.367101
 20
564.375462
 11
137.384360
 21
580.567195
  0
LINE
  8
1
 62
7
  6
CONTINUOUS
 10
151.072123
 20
577.432697
 11
162.829365
 21
581.711984
  0
LINE
  8
1
 62
7
  6
CONTINUOUS
 10
150.693374
 20
577.773724
 11
162.829365
 21
582.190864
  0
LINE
  8
1
 62
7
  6
CONTINUOUS
 10
151.955869
 20
576.636968
 11
162.829365
 21
580.594597
  0
LINE
  8
1
 62
7
  6
CONTINUOUS
 10
151.829620
 20
576.750644
 11
162.829365
 21
580.754224
  0
LINE
  8
1
 62
7
  6
CONTINUOUS
 10
151.703370
 20
576.864319
 11
162.829365
 21
580.913850
  0
LINE
  8
1
 62
7
  6
CONTINUOUS
 10
151.577121
 20
576.977995
 11
162.829365
 21
581.073477
  0
LINE
  8
1
 62
7
  6
CONTINUOUS
 10
151.450871
 20
577.091671
 11
162.829365
 21
581.233104
  0
LINE
  8
1
 62
7
  6
CONTINUOUS
 10
151.324622
 20
577.205346
 11
162.829365
 21
581.392731
  0
LINE
  8
1
 62
7
  6
CONTINUOUS
 10
151.198372
 20
577.319022
 11
162.829365
 21
581.552357
  0
LINE
  8
1
 62
7
  6
CONTINUOUS
 10
150.945873
 20
577.546373
 11
162.829365
 21
581.871611
  0
LINE
  8
1
 62
7
  6
CONTINUOUS
 10
150.819623
 20
577.660049
 11
162.829365
 21
582.031237
  0
LINE
  8
1
 62
7
  6
CONTINUOUS
 10
155.831405
 20
564.268269
 11
137.384360
 21
580.878063
  0
LINE
  8
1
 62
7
  6
CONTINUOUS
 10
156.450477
 20
564.125345
 11
137.384360
 21
581.292554
  0
LINE
  8
1
 62
7
  6
CONTINUOUS
 10
157.069549
 20
563.982421
 11
137.384360
 21
581.707045
  0
LINE
  8
1
 62
7
  6
CONTINUOUS
 10
157.688621
 20
563.839497
 11
137.384360
 21
582.121536
  0
LINE
  8
1
 62
7
  6
CONTINUOUS
 10
158.307693
 20
563.696573
 11
137.384360
 21
582.536027
  0
LINE
  8
1
 62
7
  6
CONTINUOUS
 10
158.926765
 20
563.553649
 11
137.384360
 21
582.950518
  0
LINE
  8
1
 62
7
  6
CONTINUOUS
 10
159.545837
 20
563.410725
 11
137.384360
 21
583.365008
  0
LINE
  8
1
 62
7
  6
CONTINUOUS
 10
160.164909
 20
563.267801
 11
137.384360
 21
583.779499
  0
LINE
  8
1
 62
7
  6
CONTINUOUS
 10
160.783981
 20
563.124877
 11
137.384360
 21
584.193990
  0
LINE
  8
1
 62
7
  6
CONTINUOUS
 10
161.403053
 20
562.981953
 11
137.384360
 21
584.608481
  0
LINE
  8
1
 62
7
  6
CONTINUOUS
 10
162.022125
 20
562.839028
 11
137.384360
 21
585.022972
  0
LINE
  8
1
 62
7
  6
CONTINUOUS
 10
162.641197
 20
562.696105
 11
137.384360
 21
585.437463
  0
LINE
  8
1
 62
7
  6
CONTINUOUS
 10
162.829365
 20
562.941169
 11
137.384360
 21
585.851954
  0
LINE
  8
1
 62
7
  6
CONTINUOUS
 10
162.829365
 20
563.355660
 11
137.384360
 21
586.266444
  0
LINE
  8
1
 62
7
  6
CONTINUOUS
 10
162.829365
 20
563.770150
 11
137.384360
 21
586.680936
  0
LINE
  8
1
 62
7
  6
CONTINUOUS
 10
162.829365
 20
564.184641
 11
137.384360
 21
587.095427
  0
LINE
  8
1
 62
7
  6
CONTINUOUS
 10
162.829365
 20
564.599132
 11
137.384360
 21
587.509917
  0
LINE
  8
1
 62
7
  6
CONTINUOUS
 10
162.829365
 20
565.013623
 11
137.384360
 21
587.924408
  0
LINE
  8
1
 62
7
  6
CONTINUOUS
 10
150.567124
 20
577.887400
 11
162.829365
 21
582.350491
  0
LINE
  8
1
 62
7
  6
CONTINUOUS
 10
195.587169
 20
535.173913
 11
195.587169
 21
609.173913
  0
CIRCLE
  8
1
 62
7
  6
CONTINUOUS
 10
150.437167
 20
572.173913
 40
43.000000
  0
CIRCLE
  8
1
 62
7
  6
CONTINUOUS
 10
150.437167
 20
572.173913
 40
42.510498
  0
CIRCLE
  8
1
 62
7
  6
CONTINUOUS
 10
150.437167
 20
572.173913
 40
40.281776
  0
CIRCLE
  8
1
 62
7
  6
CONTINUOUS
 10
150.437167
 20
572.173913
 40
38.615726
  0
ARC
  8
1
 62
7
  6
CONTINUOUS
 10
150.437167
 20
572.173913
 40
58.000000
 50
39.652563
 51
-39.652563
  0
ARC
  8
1
 62
7
  6
CONTINUOUS
 10
94.580207
 20
580.673913
 40
1.500000
 50
171.347430
 51
-89.999998
  0
LINE
  8
1
 62
7
  6
DASHDOT
 10
84.812274
 20
572.173913
 11
251.762736
 21
572.173913
  0
LINE
  8
1
 62
7
  6
CONTINUOUS
 10
200.587169
 20
622.173913
 11
228.587169
 21
622.173913
  0
LINE
  8
1
 62
7
  6
CONTINUOUS
 10
195.587169
 20
609.173913
 11
229.587169
 21
609.773911
  0
LINE
  8
1
 62
7
  6
CONTINUOUS
 10
195.587169
 20
535.173913
 11
229.587169
 21
534.573915
  0
LINE
  8
1
 62
7
  6
CONTINUOUS
 10
308.758333
 20
194.608000
 11
316.537000
 21
194.608000
  0
LINE
  8
1
 62
7
  6
CONTINUOUS
 10
308.758333
 20
150.608000
 11
316.537000
 21
150.608000
  0
LINE
  8
1
 62
7
  6
CONTINUOUS
 10
308.758333
 20
150.608000
 11
308.758333
 21
194.608000
  0
LINE
  8
1
 62
7
  6
CONTINUOUS
 10
378.758333
 20
194.608000
 11
370.979667
 21
194.608000
  0
LINE
  8
1
 62
7
  6
CONTINUOUS
 10
401.758333
 20
219.108000
 11
285.758333
 21
219.108000
  0
LINE
  8
1
 62
7
  6
CONTINUOUS
 10
285.758333
 20
219.108000
 11
285.758333
 21
233.108000
  0
LINE
  8
1
 62
7
  6
CONTINUOUS
 10
401.758333
 20
227.108000
 11
285.758333
 21
227.108000
  0
LINE
  8
1
 62
7
  6
CONTINUOUS
 10
378.758333
 20
150.608000
 11
378.758333
 21
194.608000
  0
LINE
  8
1
 62
7
  6
CONTINUOUS
 10
378.758333
 20
150.608000
 11
370.979667
 21
150.608000
  0
LINE
  8
1
 62
7
  6
CONTINUOUS
 10
401.758333
 20
219.108000
 11
401.758333
 21
233.108000
  0
LINE
  8
1
 62
7
  6
CONTINUOUS
 10
391.258333
 20
167.356167
 11
391.258333
 21
217.108000
  0
LINE
  8
1
 62
7
  6
CONTINUOUS
 10
296.258333
 20
167.356167
 11
296.258333
 21
217.108000
  0
LINE
  8
1
 62
7
  6
CONTINUOUS
 10
322.006500
 20
141.608000
 11
327.510167
 21
141.608000
  0
LINE
  8
1
 62
7
  6
CONTINUOUS
 10
365.510167
 20
141.608000
 11
360.006333
 21
141.608000
  0
LINE
  8
1
 62
7
  6
CONTINUOUS
 10
401.758333
 20
233.108000
 11
285.758333
 21
233.108000
  0
LINE
  8
1
 62
7
  6
CONTINUOUS
 10
365.758333
 20
268.108000
 11
321.758333
 21
268.108000
  0
LINE
  8
1
 62
7
  6
CONTINUOUS
 10
300.758333
 20
341.108000
 11
300.758333
 21
246.108000
  0
LINE
  8
1
 62
7
  6
CONTINUOUS
 10
386.758333
 20
341.108000
 11
386.758333
 21
307.108000
  0
LINE
  8
1
 62
7
  6
CONTINUOUS
 10
313.258333
 20
339.708000
 11
374.258333
 21
339.708000
  0
LINE
  8
1
 62
7
  6
CONTINUOUS
 10
313.758333
 20
245.608000
 11
313.758333
 21
239.608000
  0
LINE
  8
1
 62
7
  6
CONTINUOUS
 10
373.758333
 20
245.608000
 11
373.758333
 21
239.608000
  0
LINE
  8
1
 62
7
  6
CONTINUOUS
 10
306.158333
 20
332.608000
 11
306.158333
 21
293.108000
  0
LINE
  8
1
 62
7
  6
CONTINUOUS
 10
401.758333
 20
238.108000
 11
343.758333
 21
238.108000
  0
LINE
  8
1
 62
7
  6
CONTINUOUS
 10
285.758333
 20
238.108000
 11
343.758333
 21
238.108000
  0
LINE
  8
1
 62
7
  6
CONTINUOUS
 10
365.758333
 20
268.108000
 11
365.758333
 21
318.108000
  0
LINE
  8
1
 62
7
  6
CONTINUOUS
 10
381.358333
 20
332.608000
 11
381.358333
 21
293.108000
  0
LINE
  8
1
 62
7
  6
CONTINUOUS
 10
299.281000
 20
244.608000
 11
299.281000
 21
238.108000
  0
LINE
  8
1
 62
7
  6
CONTINUOUS
 10
297.396000
 20
244.608000
 11
297.396000
 21
238.108000
  0
LINE
  8
1
 62
7
  6
CONTINUOUS
 10
397.120667
 20
244.608000
 11
397.120667
 21
238.108000
  0
LINE
  8
1
 62
7
  6
CONTINUOUS
 10
398.235667
 20
244.608000
 11
398.235667
 21
238.108000
  0
LINE
  8
1
 62
7
  6
CONTINUOUS
 10
388.235667
 20
244.608000
 11
388.235667
 21
238.108000
  0
LINE
  8
1
 62
7
  6
CONTINUOUS
 10
390.120667
 20
244.608000
 11
390.120667
 21
238.108000
  0
LINE
  8
1
 62
7
  6
CONTINUOUS
 10
386.758333
 20
341.108000
 11
343.758333
 21
341.108000
  0
LINE
  8
1
 62
7
  6
CONTINUOUS
 10
289.281000
 20
244.608000
 11
289.281000
 21
238.108000
  0
LINE
  8
1
 62
7
  6
CONTINUOUS
 10
306.758333
 20
246.108000
 11
290.781000
 21
246.108000
  0
LINE
  8
1
 62
7
  6
CONTINUOUS
 10
290.396000
 20
244.608000
 11
290.396000
 21
238.108000
  0
LINE
  8
1
 62
7
  6
CONTINUOUS
 10
380.758333
 20
246.108000
 11
396.735667
 21
246.108000
  0
LINE
  8
1
 62
7
  6
CONTINUOUS
 10
285.758333
 20
238.108000
 11
285.758333
 21
233.108000
  0
LINE
  8
1
 62
7
  6
CONTINUOUS
 10
300.758333
 20
341.108000
 11
343.758333
 21
341.108000
  0
LINE
  8
1
 62
7
  6
CONTINUOUS
 10
365.758333
 20
318.108000
 11
321.758333
 21
318.108000
  0
LINE
  8
1
 62
7
  6
CONTINUOUS
 10
401.758333
 20
238.108000
 11
401.758333
 21
233.108000
  0
LINE
  8
1
 62
7
  6
CONTINUOUS
 10
311.758333
 20
252.742000
 11
311.758333
 21
254.474000
  0
LINE
  8
1
 62
7
  6
CONTINUOUS
 10
374.258333
 20
255.340000
 11
372.758333
 21
254.474000
  0
LINE
  8
1
 62
7
  6
CONTINUOUS
 10
313.258333
 20
251.876000
 11
314.758333
 21
252.742000
  0
LINE
  8
1
 62
7
  6
CONTINUOUS
 10
385.268833
 20
355.608000
 11
343.758333
 21
355.608000
  0
LINE
  8
1
 62
7
  6
CONTINUOUS
 10
302.247833
 20
355.608000
 11
343.758333
 21
355.608000
  0
LINE
  8
1
 62
7
  6
CONTINUOUS
 10
374.258333
 20
251.876000
 11
375.758333
 21
252.742000
  0
LINE
  8
1
 62
7
  6
CONTINUOUS
 10
386.268167
 20
354.642833
 11
386.740833
 21
341.108000
  0
LINE
  8
1
 62
7
  6
CONTINUOUS
 10
382.374000
 20
404.282500
 11
384.040167
 21
356.573167
  0
LINE
  8
1
 62
7
  6
DASHDOT
 10
374.258333
 20
248.358000
 11
374.258333
 21
258.858000
  0
LINE
  8
1
 62
7
  6
DASHDOT
 10
379.508333
 20
253.608000
 11
369.008333
 21
253.608000
  0
LINE
  8
1
 62
7
  6
CONTINUOUS
 10
375.758333
 20
254.474000
 11
374.258333
 21
255.340000
  0
LINE
  8
1
 62
7
  6
CONTINUOUS
 10
374.258333
 20
330.876000
 11
372.758333
 21
331.742000
  0
LINE
  8
1
 62
7
  6
CONTINUOUS
 10
301.248500
 20
354.642833
 11
300.775833
 21
341.108000
  0
LINE
  8
1
 62
7
  6
CONTINUOUS
 10
372.758333
 20
333.474000
 11
372.758333
 21
331.742000
  0
LINE
  8
1
 62
7
  6
CONTINUOUS
 10
311.758333
 20
331.742000
 11
313.258333
 21
330.876000
  0
LINE
  8
1
 62
7
  6
CONTINUOUS
 10
375.758333
 20
333.474000
 11
375.758333
 21
331.742000
  0
LINE
  8
1
 62
7
  6
CONTINUOUS
 10
311.758333
 20
254.474000
 11
313.258333
 21
255.340000
  0
LINE
  8
1
 62
7
  6
CONTINUOUS
 10
314.758333
 20
333.474000
 11
314.758333
 21
331.742000
  0
LINE
  8
1
 62
7
  6
CONTINUOUS
 10
374.258333
 20
334.340000
 11
372.758333
 21
333.474000
  0
LINE
  8
1
 62
7
  6
CONTINUOUS
 10
393.758333
 20
307.108000
 11
393.758333
 21
279.108000
  0
LINE
  8
1
 62
7
  6
CONTINUOUS
 10
393.758333
 20
279.108000
 11
381.758333
 21
279.108000
  0
LINE
  8
1
 62
7
  6
CONTINUOUS
 10
393.758333
 20
307.108000
 11
381.758333
 21
307.108000
  0
LINE
  8
1
 62
7
  6
CONTINUOUS
 10
313.258333
 20
255.340000
 11
314.758333
 21
254.474000
  0
LINE
  8
1
 62
7
  6
CONTINUOUS
 10
313.258333
 20
334.340000
 11
311.758333
 21
333.474000
  0
LINE
  8
1
 62
7
  6
CONTINUOUS
 10
381.358333
 20
253.608000
 11
381.358333
 21
293.108000
  0
LINE
  8
1
 62
7
  6
CONTINUOUS
 10
375.758333
 20
331.742000
 11
374.258333
 21
330.876000
  0
LINE
  8
1
 62
7
  6
CONTINUOUS
 10
375.758333
 20
252.742000
 11
375.758333
 21
254.474000
  0
LINE
  8
1
 62
7
  6
CONTINUOUS
 10
314.758333
 20
252.742000
 11
314.758333
 21
254.474000
  0
LINE
  8
1
 62
7
  6
CONTINUOUS
 10
374.258333
 20
251.876000
 11
372.758333
 21
252.742000
  0
LINE
  8
1
 62
7
  6
CONTINUOUS
 10
311.758333
 20
333.474000
 11
311.758333
 21
331.742000
  0
LINE
  8
1
 62
7
  6
CONTINUOUS
 10
313.258333
 20
334.340000
 11
314.758333
 21
333.474000
  0
LINE
  8
1
 62
7
  6
CONTINUOUS
 10
374.258333
 20
334.340000
 11
375.758333
 21
333.474000
  0
LINE
  8
1
 62
7
  6
CONTINUOUS
 10
305.142667
 20
404.282500
 11
303.476500
 21
356.573167
  0
LINE
  8
1
 62
7
  6
CONTINUOUS
 10
372.758333
 20
252.742000
 11
372.758333
 21
254.474000
  0
LINE
  8
1
 62
7
  6
CONTINUOUS
 10
313.258333
 20
251.876000
 11
311.758333
 21
252.742000
  0
LINE
  8
1
 62
7
  6
CONTINUOUS
 10
306.758333
 20
239.608000
 11
306.758333
 21
250.751500
  0
LINE
  8
1
 62
7
  6
CONTINUOUS
 10
321.726500
 20
253.608000
 11
365.790167
 21
253.608000
  0
LINE
  8
1
 62
7
  6
CONTINUOUS
 10
313.258333
 20
324.139833
 11
313.258333
 21
261.466167
  0
LINE
  8
1
 62
7
  6
CONTINUOUS
 10
386.758333
 20
279.108000
 11
386.758333
 21
246.108000
  0
LINE
  8
1
 62
7
  6
CONTINUOUS
 10
321.726500
 20
332.608000
 11
365.790167
 21
332.608000
  0
LINE
  8
1
 62
7
  6
CONTINUOUS
 10
374.258333
 20
324.139833
 11
374.258333
 21
261.466167
  0
LINE
  8
1
 62
7
  6
CONTINUOUS
 10
306.158333
 20
253.608000
 11
306.158333
 21
293.108000
  0
LINE
  8
1
 62
7
  6
CONTINUOUS
 10
313.258333
 20
246.508000
 11
374.258333
 21
246.508000
  0
LINE
  8
1
 62
7
  6
CONTINUOUS
 10
313.258333
 20
330.876000
 11
314.758333
 21
331.742000
  0
LINE
  8
1
 62
7
  6
CONTINUOUS
 10
321.758333
 20
268.108000
 11
321.758333
 21
318.108000
  0
LINE
  8
1
 62
7
  6
CONTINUOUS
 10
380.758333
 20
239.608000
 11
380.758333
 21
250.751500
  0
LINE
  8
1
 62
7
  6
CONTINUOUS
 10
296.207000
 20
238.108000
 11
296.207000
 21
243.108000
  0
LINE
  8
1
 62
7
  6
CONTINUOUS
 10
391.309667
 20
238.108000
 11
391.309667
 21
243.108000
  0
LINE
  8
1
 62
7
  6
CONTINUOUS
 10
297.396000
 20
243.108000
 11
296.207000
 21
243.108000
  0
LINE
  8
1
 62
7
  6
CONTINUOUS
 10
390.120667
 20
243.108000
 11
391.309667
 21
243.108000
  0
LINE
  8
1
 62
7
  6
CONTINUOUS
 10
377.377167
 20
409.108000
 11
310.139500
 21
409.108000
  0
ARC
  8
1
 62
7
  6
CONTINUOUS
 10
343.758333
 20
172.608000
 40
35.000000
 50
38.944800
 51
141.055200
  0
ARC
  8
1
 62
7
  6
CONTINUOUS
 10
343.758333
 20
172.608000
 40
35.000000
 50
-141.055200
 51
-38.944800
  0
ARC
  8
1
 62
7
  6
CONTINUOUS
 10
321.726500
 20
252.108000
 40
1.500000
 50
90.000000
 51
169.955200
  0
ARC
  8
1
 62
7
  6
CONTINUOUS
 10
393.258333
 20
217.108000
 40
2.000000
 50
90.000000
 51
180.000000
  0
ARC
  8
1
 62
7
  6
CONTINUOUS
 10
294.258333
 20
217.108000
 40
2.000000
 50
0.000000
 51
90.000000
  0
ARC
  8
1
 62
7
  6
CONTINUOUS
 10
385.039500
 20
356.608000
 40
1.000000
 50
-178.000000
 51
-90.000000
  0
ARC
  8
1
 62
7
  6
CONTINUOUS
 10
311.758333
 20
324.139833
 40
1.500000
 50
0.000000
 51
79.955200
  0
ARC
  8
1
 62
7
  6
CONTINUOUS
 10
322.020333
 20
167.370000
 40
25.762000
 50
120.983400
 51
-90.000000
  0
ARC
  8
1
 62
7
  6
CONTINUOUS
 10
321.726500
 20
334.108000
 40
1.500000
 50
-169.955200
 51
-90.000000
  0
ARC
  8
1
 62
7
  6
CONTINUOUS
 10
365.496333
 20
167.370000
 40
25.762000
 50
-90.000000
 51
59.016600
  0
ARC
  8
1
 62
7
  6
CONTINUOUS
 10
311.758333
 20
262.076167
 40
1.500000
 50
-79.955200
 51
0.000000
  0
ARC
  8
1
 62
7
  6
CONTINUOUS
 10
372.258333
 20
239.608000
 40
1.500000
 50
-90.000000
 51
0.000000
  0
ARC
  8
1
 62
7
  6
CONTINUOUS
 10
386.735667
 20
244.608000
 40
1.500000
 50
0.000000
 51
90.000000
  0
ARC
  8
1
 62
7
  6
CONTINUOUS
 10
298.896000
 20
244.608000
 40
1.500000
 50
90.000000
 51
180.000000
  0
ARC
  8
1
 62
7
  6
CONTINUOUS
 10
291.896000
 20
244.608000
 40
1.500000
 50
90.000000
 51
180.000000
  0
ARC
  8
1
 62
7
  6
CONTINUOUS
 10
300.781000
 20
244.608000
 40
1.500000
 50
90.000000
 51
180.000000
  0
ARC
  8
1
 62
7
  6
CONTINUOUS
 10
388.620667
 20
244.608000
 40
1.500000
 50
0.000000
 51
90.000000
  0
ARC
  8
1
 62
7
  6
CONTINUOUS
 10
395.620667
 20
244.608000
 40
1.500000
 50
0.000000
 51
90.000000
  0
ARC
  8
1
 62
7
  6
CONTINUOUS
 10
396.735667
 20
244.608000
 40
1.500000
 50
0.000000
 51
90.000000
  0
ARC
  8
1
 62
7
  6
CONTINUOUS
 10
382.258333
 20
239.608000
 40
1.500000
 50
180.000000
 51
-90.000000
  0
ARC
  8
1
 62
7
  6
CONTINUOUS
 10
372.258333
 20
245.608000
 40
1.500000
 50
0.000000
 51
36.869900
  0
ARC
  8
1
 62
7
  6
CONTINUOUS
 10
290.781000
 20
244.608000
 40
1.500000
 50
90.000000
 51
180.000000
  0
ARC
  8
1
 62
7
  6
CONTINUOUS
 10
305.258333
 20
239.608000
 40
1.500000
 50
-90.000000
 51
0.000000
  0
ARC
  8
1
 62
7
  6
CONTINUOUS
 10
385.268833
 20
354.608000
 40
1.000000
 50
2.000000
 51
90.000000
  0
CIRCLE
  8
1
 62
7
  6
CONTINUOUS
 10
313.258333
 20
253.608000
 40
4.459500
  0
ARC
  8
1
 62
7
  6
CONTINUOUS
 10
315.258333
 20
245.608000
 40
1.500000
 50
143.130100
 51
180.000000
  0
ARC
  8
1
 62
7
  6
CONTINUOUS
 10
302.477167
 20
356.608000
 40
1.000000
 50
-90.000000
 51
-2.000000
  0
CIRCLE
  8
1
 62
7
  6
CONTINUOUS
 10
374.258333
 20
253.608000
 40
1.500000
  0
ARC
  8
1
 62
7
  6
CONTINUOUS
 10
315.258333
 20
239.608000
 40
1.500000
 50
180.000000
 51
-90.000000
  0
ARC
  8
1
 62
7
  6
CONTINUOUS
 10
375.758333
 20
262.076167
 40
1.500000
 50
180.000000
 51
-100.044800
  0
CIRCLE
  8
1
 62
7
  6
CONTINUOUS
 10
313.258333
 20
253.608000
 40
1.500000
  0
CIRCLE
  8
1
 62
7
  6
CONTINUOUS
 10
313.258333
 20
332.608000
 40
1.500000
  0
ARC
  8
1
 62
7
  6
CONTINUOUS
 10
313.258333
 20
332.608000
 40
7.100000
 50
10.044800
 51
-100.044800
  0
CIRCLE
  8
1
 62
7
  6
CONTINUOUS
 10
363.258333
 20
315.608000
 40
1.500000
  0
ARC
  8
1
 62
7
  6
CONTINUOUS
 10
313.258333
 20
253.608000
 40
7.100000
 50
100.044800
 51
-10.044800
  0
ARC
  8
1
 62
7
  6
CONTINUOUS
 10
374.258333
 20
253.608000
 40
7.100000
 50
-169.955200
 51
79.955200
  0
ARC
  8
1
 62
7
  6
CONTINUOUS
 10
365.790167
 20
334.108000
 40
1.500000
 50
-90.000000
 51
-10.044800
  0
CIRCLE
  8
1
 62
7
  6
CONTINUOUS
 10
374.258333
 20
332.608000
 40
1.500000
  0
CIRCLE
  8
1
 62
7
  6
CONTINUOUS
 10
374.258333
 20
332.608000
 40
3.500000
  0
CIRCLE
  8
1
 62
7
  6
CONTINUOUS
 10
374.258333
 20
253.608000
 40
4.459500
  0
ARC
  8
1
 62
7
  6
CONTINUOUS
 10
381.758333
 20
308.108000
 40
1.000000
 50
-113.578200
 51
-90.000000
  0
ARC
  8
1
 62
7
  6
CONTINUOUS
 10
381.758333
 20
278.108000
 40
1.000000
 50
90.000000
 51
113.578200
  0
CIRCLE
  8
1
 62
7
  6
CONTINUOUS
 10
374.258333
 20
332.608000
 40
4.459500
  0
CIRCLE
  8
1
 62
7
  6
CONTINUOUS
 10
313.258333
 20
332.608000
 40
4.459500
  0
ARC
  8
1
 62
7
  6
CONTINUOUS
 10
365.790167
 20
252.108000
 40
1.500000
 50
10.044800
 51
90.000000
  0
ARC
  8
1
 62
7
  6
CONTINUOUS
 10
374.258333
 20
332.608000
 40
7.100000
 50
-79.955200
 51
169.955200
  0
ARC
  8
1
 62
7
  6
CONTINUOUS
 10
375.758333
 20
324.139833
 40
1.500000
 50
100.044800
 51
180.000000
  0
CIRCLE
  8
1
 62
7
  6
CONTINUOUS
 10
363.258333
 20
270.608000
 40
1.500000
  0
CIRCLE
  8
1
 62
7
  6
CONTINUOUS
 10
324.258333
 20
270.608000
 40
1.500000
  0
CIRCLE
  8
1
 62
7
  6
CONTINUOUS
 10
324.258333
 20
315.608000
 40
1.500000
  0
CIRCLE
  8
1
 62
7
  6
CONTINUOUS
 10
374.258333
 20
253.608000
 40
3.500000
  0
CIRCLE
  8
1
 62
7
  6
CONTINUOUS
 10
313.258333
 20
253.608000
 40
3.500000
  0
ARC
  8
1
 62
7
  6
CONTINUOUS
 10
302.247833
 20
354.608000
 40
1.000000
 50
90.000000
 51
178.000000
  0
CIRCLE
  8
1
 62
7
  6
CONTINUOUS
 10
313.258333
 20
332.608000
 40
3.500000
  0
CIRCLE
  8
1
 62
7
  6
CONTINUOUS
 10
343.758333
 20
172.608000
 40
21.025167
  0
CIRCLE
  8
1
 62
7
  6
CONTINUOUS
 10
343.758333
 20
172.608000
 40
19.429167
  0
CIRCLE
  8
1
 62
7
  6
CONTINUOUS
 10
343.758333
 20
172.608000
 40
20.952833
  0
ARC
  8
1
 62
7
  6
CONTINUOUS
 10
310.139500
 20
404.108000
 40
5.000000
 50
90.000000
 51
178.000000
  0
ARC
  8
1
 62
7
  6
CONTINUOUS
 10
377.377167
 20
404.108000
 40
5.000000
 50
2.000000
 51
90.000000
  0
LINE
  8
1
 62
7
  6
CONTINUOUS
 10
102.937167
 20
219.108000
 11
102.937167
 21
204.608000
  0
LINE
  8
1
 62
7
  6
CONTINUOUS
 10
92.437167
 20
238.108000
 11
92.437167
 21
219.108000
  0
LINE
  8
1
 62
7
  6
CONTINUOUS
 10
92.437167
 20
238.108000
 11
150.437167
 21
238.108000
  0
LINE
  8
1
 62
7
  6
CONTINUOUS
 10
92.437167
 20
219.108000
 11
150.437167
 21
219.108000
  0
LINE
  8
1
 62
7
  6
CONTINUOUS
 10
197.937167
 20
219.108000
 11
197.937167
 21
204.608000
  0
LINE
  8
1
 62
7
  6
CONTINUOUS
 10
200.437167
 20
238.108000
 11
150.437167
 21
238.108000
  0
LINE
  8
1
 62
7
  6
CONTINUOUS
 10
208.437167
 20
219.108000
 11
150.437167
 21
219.108000
  0
LINE
  8
1
 62
7
  6
CONTINUOUS
 10
194.437167
 20
339.108000
 11
194.437167
 21
247.128294
  0
LINE
  8
1
 62
7
  6
CONTINUOUS
 10
194.437167
 20
339.108000
 11
194.437167
 21
247.128294
  0
LINE
  8
1
 62
7
  6
CONTINUOUS
 10
195.587167
 20
339.108000
 11
195.587167
 21
247.108000
  0
LINE
  8
1
 62
7
  6
CONTINUOUS
 10
108.926667
 20
355.608000
 11
150.437167
 21
355.608000
  0
LINE
  8
1
 62
7
  6
CONTINUOUS
 10
191.947667
 20
355.608000
 11
150.437167
 21
355.608000
  0
LINE
  8
1
 62
7
  6
CONTINUOUS
 10
107.437167
 20
341.108000
 11
150.437167
 21
341.108000
  0
LINE
  8
1
 62
7
  6
CONTINUOUS
 10
192.687167
 20
341.108000
 11
150.437167
 21
341.108000
  0
LINE
  8
1
 62
7
  6
CONTINUOUS
 10
214.437167
 20
172.608000
 11
214.437167
 21
137.608000
  0
LINE
  8
1
 62
7
  6
CONTINUOUS
 10
193.437167
 20
341.108000
 11
193.437167
 21
339.108000
  0
LINE
  8
1
 62
7
  6
CONTINUOUS
 10
109.156000
 20
355.608000
 11
109.193833
 21
355.608000
  0
LINE
  8
1
 62
7
  6
CONTINUOUS
 10
193.437167
 20
341.108000
 11
192.687167
 21
341.108000
  0
LINE
  8
1
 62
7
  6
CONTINUOUS
 10
189.052833
 20
404.282500
 11
190.719000
 21
356.573167
  0
LINE
  8
1
 62
7
  6
CONTINUOUS
 10
107.927333
 20
354.642833
 11
107.454667
 21
341.108000
  0
LINE
  8
1
 62
7
  6
CONTINUOUS
 10
242.237167
 20
268.108000
 11
241.737167
 21
268.108000
  0
LINE
  8
1
 62
7
  6
CONTINUOUS
 10
111.821500
 20
404.282500
 11
110.155333
 21
356.573167
  0
LINE
  8
1
 62
7
  6
CONTINUOUS
 10
86.437167
 20
207.608000
 11
86.437167
 21
137.608000
  0
LINE
  8
1
 62
7
  6
CONTINUOUS
 10
214.437167
 20
207.608000
 11
214.437167
 21
172.608000
  0
LINE
  8
1
 62
7
  6
CONTINUOUS
 10
123.945500
 20
143.326833
 11
129.127167
 21
147.091500
  0
LINE
  8
1
 62
7
  6
CONTINUOUS
 10
182.437167
 20
146.608000
 11
187.437167
 21
141.608000
  0
LINE
  8
1
 62
7
  6
CONTINUOUS
 10
164.437167
 20
144.608000
 11
150.437167
 21
144.608000
  0
LINE
  8
1
 62
7
  6
CONTINUOUS
 10
182.437167
 20
146.608000
 11
171.070333
 21
146.608000
  0
LINE
  8
1
 62
7
  6
CONTINUOUS
 10
136.437167
 20
144.608000
 11
150.437167
 21
144.608000
  0
LINE
  8
1
 62
7
  6
CONTINUOUS
 10
208.437167
 20
203.608000
 11
198.937167
 21
203.608000
  0
LINE
  8
1
 62
7
  6
CONTINUOUS
 10
209.437167
 20
139.608000
 11
209.437167
 21
138.608000
  0
LINE
  8
1
 62
7
  6
CONTINUOUS
 10
208.437167
 20
227.108000
 11
208.437167
 21
219.108000
  0
LINE
  8
1
 62
7
  6
CONTINUOUS
 10
207.437167
 20
141.608000
 11
187.437167
 21
141.608000
  0
LINE
  8
1
 62
7
  6
CONTINUOUS
 10
209.437167
 20
206.608000
 11
209.437167
 21
204.608000
  0
LINE
  8
1
 62
7
  6
CONTINUOUS
 10
214.437167
 20
137.608000
 11
210.437167
 21
137.608000
  0
LINE
  8
1
 62
7
  6
CONTINUOUS
 10
92.437167
 20
203.608000
 11
101.937167
 21
203.608000
  0
LINE
  8
1
 62
7
  6
CONTINUOUS
 10
214.437167
 20
207.608000
 11
210.437167
 21
207.608000
  0
LINE
  8
1
 62
7
  6
CONTINUOUS
 10
91.437167
 20
139.608000
 11
91.437167
 21
138.608000
  0
LINE
  8
1
 62
7
  6
CONTINUOUS
 10
91.437167
 20
206.608000
 11
91.437167
 21
204.608000
  0
LINE
  8
1
 62
7
  6
CONTINUOUS
 10
93.437167
 20
141.608000
 11
118.655500
 21
141.608000
  0
LINE
  8
1
 62
7
  6
CONTINUOUS
 10
86.437167
 20
207.608000
 11
90.437167
 21
207.608000
  0
LINE
  8
1
 62
7
  6
CONTINUOUS
 10
86.437167
 20
137.608000
 11
90.437167
 21
137.608000
  0
LINE
  8
1
 62
7
  6
CONTINUOUS
 10
195.587167
 20
247.108000
 11
229.587167
 21
246.508000
  0
LINE
  8
1
 62
7
  6
CONTINUOUS
 10
195.587167
 20
339.108000
 11
229.587167
 21
339.708000
  0
LINE
  8
1
 62
7
  6
CONTINUOUS
 10
229.587167
 20
339.708000
 11
241.237167
 21
339.708000
  0
LINE
  8
1
 62
7
  6
CONTINUOUS
 10
241.737167
 20
339.208000
 11
241.737167
 21
247.008000
  0
LINE
  8
1
 62
7
  6
CONTINUOUS
 10
192.947000
 20
354.642833
 11
193.419667
 21
341.108000
  0
LINE
  8
1
 62
7
  6
CONTINUOUS
 10
229.587167
 20
246.508000
 11
241.237167
 21
246.508000
  0
LINE
  8
1
 62
7
  6
CONTINUOUS
 10
242.237167
 20
318.108000
 11
242.237167
 21
268.108000
  0
LINE
  8
1
 62
7
  6
CONTINUOUS
 10
242.237167
 20
318.108000
 11
241.737167
 21
318.108000
  0
LINE
  8
1
 62
7
  6
CONTINUOUS
 10
208.437167
 20
233.108000
 11
208.437167
 21
227.108000
  0
LINE
  8
1
 62
7
  6
CONTINUOUS
 10
191.437167
 20
245.608000
 11
191.437167
 21
239.608000
  0
LINE
  8
1
 62
7
  6
CONTINUOUS
 10
192.937167
 20
247.108000
 11
195.587167
 21
247.108000
  0
LINE
  8
1
 62
7
  6
CONTINUOUS
 10
92.861167
 20
244.608000
 11
92.861167
 21
238.108000
  0
LINE
  8
1
 62
7
  6
CONTINUOUS
 10
208.437167
 20
238.108000
 11
208.437167
 21
233.108000
  0
LINE
  8
1
 62
7
  6
CONTINUOUS
 10
193.437167
 20
339.108000
 11
195.587167
 21
339.108000
  0
LINE
  8
1
 62
7
  6
CONTINUOUS
 10
208.437167
 20
238.108000
 11
200.437167
 21
238.108000
  0
LINE
  8
1
 62
7
  6
CONTINUOUS
 10
94.361167
 20
246.108000
 11
105.937167
 21
246.108000
  0
LINE
  8
1
 62
7
  6
CONTINUOUS
 10
107.437167
 20
341.108000
 11
107.437167
 21
238.308000
  0
LINE
  8
1
 62
7
  6
CONTINUOUS
 10
116.818333
 20
409.108000
 11
184.056000
 21
409.108000
  0
ARC
  8
1
 62
7
  6
CONTINUOUS
 10
109.156000
 20
356.608000
 40
1.000000
 50
-90.000000
 51
-2.000000
  0
ARC
  8
1
 62
7
  6
CONTINUOUS
 10
90.437167
 20
138.608000
 40
1.000000
 50
-90.000000
 51
0.000000
  0
ARC
  8
1
 62
7
  6
CONTINUOUS
 10
210.437167
 20
206.608000
 40
1.000000
 50
90.000000
 51
180.000000
  0
ARC
  8
1
 62
7
  6
CONTINUOUS
 10
90.437167
 20
206.608000
 40
1.000000
 50
0.000000
 51
90.000000
  0
ARC
  8
1
 62
7
  6
CONTINUOUS
 10
210.437167
 20
138.608000
 40
1.000000
 50
180.000000
 51
-90.000000
  0
ARC
  8
1
 62
7
  6
CONTINUOUS
 10
118.655500
 20
150.608000
 40
9.000000
 50
-90.000000
 51
-54.000000
  0
ARC
  8
1
 62
7
  6
CONTINUOUS
 10
136.437167
 20
156.608000
 40
12.000000
 50
-127.529500
 51
-90.000000
  0
ARC
  8
1
 62
7
  6
CONTINUOUS
 10
164.437167
 20
156.608000
 40
12.000000
 50
-90.000000
 51
-56.442700
  0
ARC
  8
1
 62
7
  6
CONTINUOUS
 10
208.437167
 20
204.608000
 40
1.000000
 50
-90.000000
 51
0.000000
  0
ARC
  8
1
 62
7
  6
CONTINUOUS
 10
198.937167
 20
204.608000
 40
1.000000
 50
180.000000
 51
-90.000000
  0
ARC
  8
1
 62
7
  6
CONTINUOUS
 10
92.437167
 20
204.608000
 40
1.000000
 50
180.000000
 51
-90.000000
  0
ARC
  8
1
 62
7
  6
CONTINUOUS
 10
101.937167
 20
204.608000
 40
1.000000
 50
-90.000000
 51
0.000000
  0
ARC
  8
1
 62
7
  6
CONTINUOUS
 10
93.437167
 20
139.608000
 40
2.000000
 50
90.000000
 51
180.000000
  0
ARC
  8
1
 62
7
  6
CONTINUOUS
 10
207.437167
 20
139.608000
 40
2.000000
 50
0.000000
 51
90.000000
  0
ARC
  8
1
 62
7
  6
CONTINUOUS
 10
191.718333
 20
356.608000
 40
1.000000
 50
-178.000000
 51
-90.000000
  0
ARC
  8
1
 62
7
  6
CONTINUOUS
 10
191.947667
 20
354.608000
 40
1.000000
 50
2.000000
 51
90.000000
  0
ARC
  8
1
 62
7
  6
CONTINUOUS
 10
241.237167
 20
247.008000
 40
0.500000
 50
-90.000000
 51
0.000000
  0
ARC
  8
1
 62
7
  6
CONTINUOUS
 10
242.237167
 20
270.608000
 40
1.500000
 50
-90.000000
 51
90.000000
  0
ARC
  8
1
 62
7
  6
CONTINUOUS
 10
241.237167
 20
339.208000
 40
0.500000
 50
0.000000
 51
90.000000
  0
ARC
  8
1
 62
7
  6
CONTINUOUS
 10
108.926667
 20
354.608000
 40
1.000000
 50
90.000000
 51
178.000000
  0
ARC
  8
1
 62
7
  6
CONTINUOUS
 10
192.937167
 20
245.608000
 40
1.500000
 50
90.000000
 51
180.000000
  0
ARC
  8
1
 62
7
  6
CONTINUOUS
 10
94.361167
 20
244.608000
 40
1.500000
 50
90.000000
 51
180.000000
  0
ARC
  8
1
 62
7
  6
CONTINUOUS
 10
192.937167
 20
239.608000
 40
1.500000
 50
180.000000
 51
-90.000000
  0
ARC
  8
1
 62
7
  6
CONTINUOUS
 10
242.237167
 20
315.608000
 40
1.500000
 50
-90.000000
 51
90.000000
  0
ARC
  8
1
 62
7
  6
CONTINUOUS
 10
107.237167
 20
238.308000
 40
0.200000
 50
-90.000000
 51
0.000000
  0
ARC
  8
1
 62
7
  6
CONTINUOUS
 10
105.937167
 20
247.608000
 40
1.500000
 50
-90.000000
 51
0.000000
  0
ARC
  8
1
 62
7
  6
CONTINUOUS
 10
116.818333
 20
404.108000
 40
5.000000
 50
90.000000
 51
178.000000
  0
ARC
  8
1
 62
7
  6
CONTINUOUS
 10
184.056000
 20
404.108000
 40
5.000000
 50
2.000000
 51
90.000000
  0
LINE
  8
1
 62
7
  6
DASHDOT
 10
343.758333
 20
135.068000
 11
343.758333
 21
412.979333
  0
LINE
  8
1
 62
7
  6
DASHDOT
 10
291.367000
 20
172.608000
 11
397.531500
 21
172.608000
  0
LINE
  8
1
 62
7
  6
DASHDOT
 10
150.437167
 20
411.737333
 11
150.437167
 21
136.239500
  0
LINE
  8
1
 62
7
  6
DASHDOT
 10
79.797500
 20
172.608000
 11
150.437167
 21
172.608000
  0
LINE
  8
1
 62
7
  6
DASHDOT
 10
223.414833
 20
172.608000
 11
150.437167
 21
172.608000
  0
ENDSEC
  0
EOF
