  0
SECTION
  2
HEADER
  9
$ACADVER
  1
AC1003
  9
$INSBASE
 10
0.000000
 20
0.000000
  9
$EXTMIN
 10
0.000000
 20
0.000000
  9
$EXTMAX
 10
1050.000000
 20
740.000000
  9
$LIMMIN
 10
0.000000
 20
0.000000
  9
$LIMMAX
 10
1050.000000
 20
740.000000
  9
$VIEWCTR
 10
525.000000
 20
370.000000
  9
$VIEWSIZE
 40
740.000000
  9
$PEXTMIN
 10
0.000000
 20
0.000000
 30
0.000000
  9
$PEXTMAX
 10
210.000000
 20
148.000000
 30
0.000000
  9
$SNAPMODE
 70
     0
  9
$SNAPUNIT
 10
1.000000
 20
1.000000
  9
$SNAPBASE
 10
0.000000
 20
0.000000
  9
$SNAPANG
 50
0.000000
  9
$SNAPISOPAIR
 70
     0
  9
$SNAPSTYLE
 70
     0
  9
$GRIDMODE
 70
     0
  9
$GRIDUNIT
 10
0.000000
 20
0.000000
  9
$ORTHOMODE
 70
     0
  9
$REGENMODE
 70
     1
  9
$FILLMODE
 70
     1
  9
$QTEXTMODE
 70
     0
  9
$DRAGMODE
 70
     2
  9
$LTSCALE
 40
1.250000
  9
$OSMODE
 70
     0
  9
$ATTMODE
 70
     1
  9
$TEXTSIZE
 40
20.000000
  9
$TRACEWID
 40
0.050000
  9
$TEXTSTYLE
  7
STANDARD
  9
$CLAYER
  8
0
  9
$CELTYPE
  6
BYLAYER
  9
$CECOLOR
 62
   256
  9
$DIMSCALE
 40
1.000000
  9
$DIMASZ
 40
1.000000
  9
$DIMEXO
 40
0.000000
  9
$DIMDLI
 40
0.500000
  9
$DIMRND
 40
0.000000
  9
$DIMDLE
 40
0.000000
  9
$DIMEXE
 40
0.000000
  9
$DIMTP
 40
0.000000
  9
$DIMTM
 40
0.000000
  9
$DIMTXT
 40
4.000000
  9
$DIMCEN
 40
0.000000
  9
$DIMTSZ
 40
0.000000
  9
$DIMTOL
 70
     0
  9
$DIMLIM
 70
     0
  9
$DIMTIH
 70
     1
  9
$DIMTOH
 70
     1
  9
$DIMSE1
 70
     0
  9
$DIMSE2
 70
     0
  9
$DIMTAD
 70
     0
  9
$DIMZIN
 70
     0
  9
$DIMBLK
  1

  9
$DIMASO
 70
     0
  9
$DIMSHO
 70
     0
  9
$DIMPOST
  1

  9
$DIMAPOST
  1

  9
$DIMALT
 70
     0
  9
$DIMALTD
 70
     0
  9
$DIMALTF
 40
25.400000
  9
$DIMLFAC
 40
1.000000
  9
$DIMTOFL
 70
     0
  9
$DIMTVP
 40
0.000000
  9
$DIMTIX
 70
     0
  9
$DIMSOXD
 70
     0
  9
$DIMSAH
 70
     0
  9
$DIMBLKL
  1

  9
$DIMBLKR
  1

  9
$LUNITS
 70
     2
  9
$LUPREC
 70
     2
  9
$AXISMODE
 70
     0
  9
$AXISUNIT
 10
1.000000
 20
1.000000
  9
$SKETCHINC
 40
0.000000
  9
$FILLETRAD
 40
0.000000
  9
$AUNITS
 70
     1
  9
$AUPREC
 70
     2
  9
$MENU
  1
ACAD
  9
$ELEVATION
 40
0.000000
  9
$THICKNESS
 40
0.000000
  9
$VIEWDIR
 10
0.000000
 20
0.000000
 30
1.000000
  9
$LIMCHECK
 70
     1
  9
$BLIPMODE
 70
     1
  9
$CHAMFERA
 40
0.000000
  9
$CHAMFERB
 40
0.000000
  9
$FASTZOOM
 70
     1
  9
$SKPOLY
 70
     0
  9
$TDCREATE
 40
0.000000
  9
$TDUPDATE
 40
0.000000
  9
$TDINDWG
 40
0.000000
  9
$TDUSRTIMER
 40
0.000000
  9
$USRTIMER
 70
     1
  9
$ANGBASE
 50
0.000000
  9
$ANGDIR
 70
     0
  9
$PDMODE
 70
     0
  9
$PDSIZE
 40
0.000000
  9
$PLINEWID
 40
0.000000
  9
$COORDS
 70
     2
  9
$USERI1
 70
     0
  9
$USERI2
 70
     0
  9
$USERI3
 70
     0
  9
$USERI4
 70
     0
  9
$USERI5
 70
     0
  9
$USERR1
 40
0.000000
  9
$USERR2
 40
0.000000
  9
$USERR3
 40
0.000000
  9
$USERR4
 40
0.000000
  9
$USERR5
 40
0.000000
  0
ENDSEC
  0
SECTION
  2
TABLES
  0
TABLE
  2
LTYPE
 70
     5
  0
LTYPE
  2
CONTINUOUS
 70
    64
  3
Solid line
 72
    65
 73
     0
 40
0.0
  0
LTYPE
  2
HIDDEN
 70
    64
  3
------------------------
 72
    65
 73
     2
 40
12.6
 49
8.4
 49
-4.2
  0
LTYPE
  2
DOT
 70
    64
  3
¥¥¥¥¥¥¥¥¥¥¥¥¥¥¥¥¥¥¥¥¥¥¥¥
 72
    65
 73
     2
 40
8.0
 49
6.0
 49
-2.0
  0
LTYPE
  2
DASHDOT
 70
    64
  3
--¥--¥--¥--¥--¥--¥--¥--
 72
    65
 73
     4
 40
50.5
 49
30.0
 49
-9.0
 49
2.5
 49
-9.0
  0
LTYPE
  2
DIVIDE
 70
    64
  3
--¥¥--¥¥--¥¥--¥¥--¥¥--
 72
    65
 73
     6
 40
58.0
 49
30.0
 49
-9.0
 49
2.5
 49
-5.0
 49
2.5
 49
-9.0
  0
LTYPE
  2
ACAD_ISO06W100
 70
    64
  3
____ ... ____ ... ____
 72
    65
 73
     8
 40
37.5
 49
24.0
 49
-3.0
 49
0.5
 49
-3.0
 49
0.5
 49
-3.0
 49
0.5
 49
-3.0
  0
LTYPE
  2
ACAD_ISO14W100
 70
    64
  3
__ . . . __ . . . __ . . . 
 72
    65
 73
     8
 40
25.5
 49
12.0
 49
-3.0
 49
0.5
 49
-3.0
 49
0.5
 49
-3.0
 49
0.5
 49
-3.0
  0
ENDTAB
  0
TABLE
  2
LAYER
 70
2
  0
LAYER
  2
1
 70
64
 62
7
  6
CONTINUOUS
  0
LAYER
  2
128
 70
64
 62
7
  6
CONTINUOUS
  0
ENDTAB
  0
TABLE
  2
STYLE
 70
     2
  0
STYLE
  2
STANDARD
 70
    64
 40
0.0
 41
1.0
 50
0.0
 71
     0
 42
0.2
  3
TXT
  4

  0
STYLE
  2
KANJI
 70
    64
 40
0.0
 41
1.0
 50
0.0
 71
     0
 42
0.2
  3
TXT
  4
BIGFONT
  0
ENDTAB
  0
TABLE
  2
VIEW
 70
     0
  0
ENDTAB
  0
ENDSEC
  0
SECTION
  2
BLOCKS
  0
ENDSEC
  0
SECTION
  2
ENTITIES
  0
LINE
  8
128
 62
7
  6
DASHDOT
 10
226.290200
 20
101.793600
 11
321.706200
 21
101.793600
  0
LINE
  8
128
 62
7
  6
DASHDOT
 10
204.202800
 20
362.293600
 11
332.096600
 21
362.293600
  0
LINE
  8
128
 62
7
  6
DASHDOT
 10
461.290200
 20
258.637800
 11
461.290200
 21
67.752600
  0
LINE
  8
128
 62
7
  6
DASHDOT
 10
426.790200
 20
101.793600
 11
495.790200
 21
101.793600
  0
LINE
  8
128
 62
7
  6
DASHDOT
 10
104.290200
 20
136.293600
 11
104.290200
 21
67.293600
  0
LINE
  8
128
 62
7
  6
DASHDOT
 10
69.790200
 20
101.793600
 11
138.790200
 21
101.793600
  0
LINE
  8
128
 62
7
  6
DASHDOT
 10
104.290200
 20
256.688000
 11
104.290200
 21
67.752600
  0
LINE
  8
128
 62
7
  6
DASHDOT
 10
271.290200
 20
73.473752
 11
271.290200
 21
157.473752
  0
LINE
  8
128
 62
7
  6
DASHDOT
 10
271.290200
 20
319.015218
 11
271.290200
 21
410.639137
  0
LINE
  8
128
 62
7
  6
DASHDOT
 10
228.174000
 20
432.046400
 11
228.149000
 21
398.874000
  0
LINE
  8
128
 62
7
  6
DASHDOT
 10
34.548800
 20
164.298200
 11
67.721200
 21
164.298200
  0
ARC
  8
1
 62
7
  6
CONTINUOUS
 10
228.162800
 20
401.217400
 40
17.187600
 50
69.303600
 51
110.696400
  0
ARC
  8
1
 62
7
  6
CONTINUOUS
 10
237.256800
 20
413.740600
 40
4.657600
 50
89.923700
 51
130.416000
  0
ARC
  8
1
 62
7
  6
CONTINUOUS
 10
219.063600
 20
413.754400
 40
4.657600
 50
49.497200
 51
89.989600
  0
ARC
  8
1
 62
7
  6
CONTINUOUS
 10
230.071000
 20
428.098600
 40
2.305000
 50
34.439500
 51
145.473700
  0
ARC
  8
1
 62
7
  6
CONTINUOUS
 10
230.073000
 20
430.708600
 40
2.305000
 50
-145.560500
 51
-34.526300
  0
ARC
  8
1
 62
7
  6
CONTINUOUS
 10
226.271000
 20
428.101400
 40
2.305000
 50
34.439500
 51
145.473700
  0
ARC
  8
1
 62
7
  6
CONTINUOUS
 10
213.990200
 20
329.293600
 40
5.800000
 50
136.397200
 51
-136.397200
  0
ARC
  8
1
 62
7
  6
CONTINUOUS
 10
213.990200
 20
395.293600
 40
5.800000
 50
136.397200
 51
-136.397200
  0
CIRCLE
  8
1
 62
7
  6
CONTINUOUS
 10
300.988800
 20
391.992200
 40
4.250000
  0
CIRCLE
  8
1
 62
7
  6
CONTINUOUS
 10
300.988800
 20
332.595200
 40
2.290000
  0
CIRCLE
  8
1
 62
7
  6
CONTINUOUS
 10
300.988800
 20
332.595200
 40
4.250000
  0
ARC
  8
1
 62
7
  6
CONTINUOUS
 10
292.290200
 20
363.293600
 40
0.500000
 50
180.000000
 51
-90.000000
  0
ARC
  8
1
 62
7
  6
CONTINUOUS
 10
292.290200
 20
361.293600
 40
0.500000
 50
90.000000
 51
180.000000
  0
ARC
  8
1
 62
7
  6
CONTINUOUS
 10
290.290200
 20
361.293600
 40
0.500000
 50
0.000000
 51
90.000000
  0
ARC
  8
1
 62
7
  6
CONTINUOUS
 10
290.290200
 20
363.293600
 40
0.500000
 50
-90.000000
 51
0.000000
  0
CIRCLE
  8
1
 62
7
  6
CONTINUOUS
 10
291.290200
 20
362.293600
 40
2.800000
  0
ARC
  8
1
 62
7
  6
CONTINUOUS
 10
211.790200
 20
398.793600
 40
0.500000
 50
90.000000
 51
180.000000
  0
ARC
  8
1
 62
7
  6
CONTINUOUS
 10
211.790200
 20
325.793600
 40
0.500000
 50
180.000000
 51
-90.000000
  0
ARC
  8
1
 62
7
  6
CONTINUOUS
 10
291.290200
 20
352.293600
 40
4.000000
 50
90.000000
 51
180.000000
  0
ARC
  8
1
 62
7
  6
CONTINUOUS
 10
281.290200
 20
349.293600
 40
6.000000
 50
-90.000000
 51
0.000000
  0
ARC
  8
1
 62
7
  6
CONTINUOUS
 10
291.290200
 20
372.293600
 40
4.000000
 50
180.000000
 51
-90.000000
  0
CIRCLE
  8
1
 62
7
  6
CONTINUOUS
 10
291.290200
 20
362.293600
 40
3.250000
  0
ARC
  8
1
 62
7
  6
CONTINUOUS
 10
261.290200
 20
372.293600
 40
9.000000
 50
90.000000
 51
180.000000
  0
ARC
  8
1
 62
7
  6
CONTINUOUS
 10
281.290200
 20
375.293600
 40
6.000000
 50
0.000000
 51
90.000000
  0
CIRCLE
  8
1
 62
7
  6
CONTINUOUS
 10
271.290200
 20
362.293600
 40
10.000000
  0
ARC
  8
1
 62
7
  6
CONTINUOUS
 10
291.290200
 20
362.293600
 40
6.000000
 50
-90.000000
 51
0.000000
  0
ARC
  8
1
 62
7
  6
CONTINUOUS
 10
261.290200
 20
352.293600
 40
9.000000
 50
180.000000
 51
-90.000000
  0
ARC
  8
1
 62
7
  6
CONTINUOUS
 10
257.290200
 20
328.793600
 40
1.000000
 50
-90.000000
 51
0.000000
  0
ARC
  8
1
 62
7
  6
CONTINUOUS
 10
291.290200
 20
354.293600
 40
2.000000
 50
90.000000
 51
180.000000
  0
ARC
  8
1
 62
7
  6
CONTINUOUS
 10
257.290200
 20
395.793600
 40
1.000000
 50
0.000000
 51
90.000000
  0
ARC
  8
1
 62
7
  6
CONTINUOUS
 10
291.290200
 20
362.293600
 40
6.000000
 50
-90.000000
 51
0.000000
  0
ARC
  8
1
 62
7
  6
CONTINUOUS
 10
291.290200
 20
370.293600
 40
2.000000
 50
180.000000
 51
-90.000000
  0
ARC
  8
1
 62
7
  6
CONTINUOUS
 10
288.290200
 20
380.293600
 40
3.000000
 50
0.000000
 51
90.000000
  0
ARC
  8
1
 62
7
  6
CONTINUOUS
 10
286.290200
 20
380.293600
 40
3.000000
 50
0.000000
 51
90.000000
  0
ARC
  8
1
 62
7
  6
CONTINUOUS
 10
286.290200
 20
344.293600
 40
3.000000
 50
-90.000000
 51
0.000000
  0
ARC
  8
1
 62
7
  6
CONTINUOUS
 10
288.290200
 20
344.293600
 40
3.000000
 50
-90.000000
 51
0.000000
  0
ARC
  8
1
 62
7
  6
CONTINUOUS
 10
291.290200
 20
362.293600
 40
6.000000
 50
0.000000
 51
90.000000
  0
ARC
  8
1
 62
7
  6
CONTINUOUS
 10
255.290200
 20
339.293600
 40
2.000000
 50
90.000000
 51
180.000000
  0
ARC
  8
1
 62
7
  6
CONTINUOUS
 10
255.290200
 20
385.293600
 40
2.000000
 50
180.000000
 51
-90.000000
  0
ARC
  8
1
 62
7
  6
CONTINUOUS
 10
252.290200
 20
326.293600
 40
1.000000
 50
-90.000000
 51
0.000000
  0
CIRCLE
  8
1
 62
7
  6
CONTINUOUS
 10
300.988800
 20
391.992200
 40
2.290000
  0
ARC
  8
1
 62
7
  6
CONTINUOUS
 10
252.290200
 20
398.293600
 40
1.000000
 50
0.000000
 51
90.000000
  0
ARC
  8
1
 62
7
  6
CONTINUOUS
 10
216.290200
 20
411.293600
 40
1.000000
 50
90.000000
 51
180.000000
  0
ARC
  8
1
 62
7
  6
CONTINUOUS
 10
301.290200
 20
332.293600
 40
5.000000
 50
-90.000000
 51
0.000000
  0
ARC
  8
1
 62
7
  6
CONTINUOUS
 10
214.290200
 20
400.293600
 40
1.000000
 50
-90.000000
 51
0.000000
  0
ARC
  8
1
 62
7
  6
CONTINUOUS
 10
301.290200
 20
392.293600
 40
5.000000
 50
0.000000
 51
90.000000
  0
ARC
  8
1
 62
7
  6
CONTINUOUS
 10
240.290200
 20
411.293600
 40
1.000000
 50
0.000000
 51
90.000000
  0
ARC
  8
1
 62
7
  6
CONTINUOUS
 10
242.290200
 20
400.293600
 40
1.000000
 50
180.000000
 51
-90.000000
  0
LINE
  8
1
 62
7
  6
CONTINUOUS
 10
287.290200
 20
372.293600
 11
287.290200
 21
375.293600
  0
LINE
  8
1
 62
7
  6
CONTINUOUS
 10
306.290200
 20
347.293600
 11
311.290200
 21
347.293600
  0
LINE
  8
1
 62
7
  6
CONTINUOUS
 10
306.290200
 20
377.293600
 11
311.290200
 21
377.293600
  0
LINE
  8
1
 62
7
  6
CONTINUOUS
 10
311.290200
 20
342.943600
 11
311.290200
 21
381.643600
  0
LINE
  8
1
 62
7
  6
CONTINUOUS
 10
311.290200
 20
342.943600
 11
316.290200
 21
342.943600
  0
LINE
  8
1
 62
7
  6
CONTINUOUS
 10
311.290200
 20
381.643600
 11
316.290200
 21
381.643600
  0
LINE
  8
1
 62
7
  6
CONTINUOUS
 10
306.290200
 20
385.293600
 11
316.290200
 21
385.293600
  0
LINE
  8
1
 62
7
  6
CONTINUOUS
 10
306.290200
 20
339.293600
 11
316.290200
 21
339.293600
  0
LINE
  8
1
 62
7
  6
CONTINUOUS
 10
316.290200
 20
339.293600
 11
316.290200
 21
385.293600
  0
LINE
  8
1
 62
7
  6
CONTINUOUS
 10
222.088600
 20
417.295800
 11
222.087000
 21
415.409600
  0
LINE
  8
1
 62
7
  6
CONTINUOUS
 10
234.237200
 20
417.295800
 11
234.235800
 21
415.400400
  0
LINE
  8
1
 62
7
  6
CONTINUOUS
 10
224.363800
 20
418.407800
 11
217.663800
 21
418.413000
  0
LINE
  8
1
 62
7
  6
CONTINUOUS
 10
231.972000
 20
429.402000
 11
231.963800
 21
418.402000
  0
LINE
  8
1
 62
7
  6
CONTINUOUS
 10
224.372000
 20
429.407800
 11
224.363800
 21
418.407800
  0
LINE
  8
1
 62
7
  6
CONTINUOUS
 10
218.961400
 20
415.412000
 11
216.037000
 21
415.414200
  0
LINE
  8
1
 62
7
  6
CONTINUOUS
 10
237.475800
 20
413.898000
 11
237.474600
 21
412.293600
  0
LINE
  8
1
 62
7
  6
CONTINUOUS
 10
218.960400
 20
413.912000
 11
217.682800
 21
413.912800
  0
LINE
  8
1
 62
7
  6
CONTINUOUS
 10
218.844800
 20
413.912000
 11
218.843600
 21
412.293600
  0
LINE
  8
1
 62
7
  6
CONTINUOUS
 10
238.637800
 20
413.897000
 11
238.636600
 21
412.293600
  0
LINE
  8
1
 62
7
  6
CONTINUOUS
 10
217.682800
 20
413.912800
 11
217.681600
 21
412.293600
  0
LINE
  8
1
 62
7
  6
CONTINUOUS
 10
238.663800
 20
418.397000
 11
240.287400
 21
417.458000
  0
LINE
  8
1
 62
7
  6
CONTINUOUS
 10
237.361400
 20
415.398000
 11
237.360400
 21
413.898000
  0
LINE
  8
1
 62
7
  6
CONTINUOUS
 10
217.663800
 20
418.413000
 11
216.038600
 21
417.476400
  0
LINE
  8
1
 62
7
  6
CONTINUOUS
 10
216.038600
 20
417.476400
 11
216.037000
 21
415.414200
  0
LINE
  8
1
 62
7
  6
CONTINUOUS
 10
240.285800
 20
415.395800
 11
218.205600
 21
415.412400
  0
LINE
  8
1
 62
7
  6
CONTINUOUS
 10
218.961400
 20
415.412000
 11
218.960400
 21
413.912000
  0
LINE
  8
1
 62
7
  6
CONTINUOUS
 10
238.637800
 20
413.897000
 11
218.625600
 21
413.912200
  0
LINE
  8
1
 62
7
  6
CONTINUOUS
 10
240.287400
 20
417.458000
 11
240.285800
 21
415.395800
  0
LINE
  8
1
 62
7
  6
CONTINUOUS
 10
238.663800
 20
418.397000
 11
222.757600
 21
418.409000
  0
LINE
  8
1
 62
7
  6
CONTINUOUS
 10
216.290200
 20
412.293600
 11
240.290200
 21
412.293600
  0
LINE
  8
1
 62
7
  6
CONTINUOUS
 10
213.290200
 20
399.293600
 11
213.290200
 21
325.293600
  0
LINE
  8
1
 62
7
  6
CONTINUOUS
 10
211.290200
 20
362.293600
 11
211.290200
 21
325.293600
  0
LINE
  8
1
 62
7
  6
CONTINUOUS
 10
211.290200
 20
362.293600
 11
211.290200
 21
399.293600
  0
LINE
  8
1
 62
7
  6
CONTINUOUS
 10
209.790200
 20
325.293600
 11
215.799400
 21
325.293600
  0
LINE
  8
1
 62
7
  6
CONTINUOUS
 10
209.790200
 20
333.293600
 11
211.290200
 21
333.293600
  0
LINE
  8
1
 62
7
  6
CONTINUOUS
 10
209.790200
 20
391.293600
 11
211.290200
 21
391.293600
  0
LINE
  8
1
 62
7
  6
CONTINUOUS
 10
209.790200
 20
399.293600
 11
215.799400
 21
399.293600
  0
LINE
  8
1
 62
7
  6
CONTINUOUS
 10
300.396000
 20
330.383200
 11
302.608000
 21
330.975800
  0
LINE
  8
1
 62
7
  6
CONTINUOUS
 10
300.396000
 20
394.204000
 11
302.608000
 21
393.611400
  0
LINE
  8
1
 62
7
  6
CONTINUOUS
 10
302.608000
 20
393.611400
 11
303.200800
 21
391.399400
  0
LINE
  8
1
 62
7
  6
CONTINUOUS
 10
298.776800
 20
392.584800
 11
300.396000
 21
394.204000
  0
LINE
  8
1
 62
7
  6
CONTINUOUS
 10
299.369600
 20
390.372800
 11
298.776800
 21
392.584800
  0
LINE
  8
1
 62
7
  6
CONTINUOUS
 10
299.369600
 20
334.214400
 11
301.581400
 21
334.807200
  0
LINE
  8
1
 62
7
  6
CONTINUOUS
 10
301.581400
 20
334.807200
 11
303.200800
 21
333.187800
  0
LINE
  8
1
 62
7
  6
CONTINUOUS
 10
299.369600
 20
334.214400
 11
298.776800
 21
332.002400
  0
LINE
  8
1
 62
7
  6
CONTINUOUS
 10
298.776800
 20
332.002400
 11
300.396000
 21
330.383200
  0
LINE
  8
1
 62
7
  6
CONTINUOUS
 10
301.581400
 20
389.780200
 11
303.200800
 21
391.399400
  0
LINE
  8
1
 62
7
  6
CONTINUOUS
 10
299.369600
 20
390.372800
 11
301.581400
 21
389.780200
  0
LINE
  8
1
 62
7
  6
CONTINUOUS
 10
291.790200
 20
363.793600
 11
291.790200
 21
363.293600
  0
LINE
  8
1
 62
7
  6
CONTINUOUS
 10
289.790200
 20
361.793600
 11
290.290200
 21
361.793600
  0
LINE
  8
1
 62
7
  6
CONTINUOUS
 10
290.790200
 20
363.793600
 11
290.790200
 21
363.293600
  0
LINE
  8
1
 62
7
  6
CONTINUOUS
 10
289.790200
 20
362.793600
 11
290.290200
 21
362.793600
  0
LINE
  8
1
 62
7
  6
CONTINUOUS
 10
292.790200
 20
362.793600
 11
292.290200
 21
362.793600
  0
LINE
  8
1
 62
7
  6
CONTINUOUS
 10
290.790200
 20
360.793600
 11
290.790200
 21
361.293600
  0
LINE
  8
1
 62
7
  6
CONTINUOUS
 10
291.790200
 20
363.793600
 11
290.790200
 21
363.793600
  0
LINE
  8
1
 62
7
  6
CONTINUOUS
 10
289.790200
 20
361.793600
 11
289.790200
 21
362.793600
  0
LINE
  8
1
 62
7
  6
CONTINUOUS
 10
291.790200
 20
360.793600
 11
291.790200
 21
361.293600
  0
LINE
  8
1
 62
7
  6
CONTINUOUS
 10
292.790200
 20
361.793600
 11
292.290200
 21
361.793600
  0
LINE
  8
1
 62
7
  6
CONTINUOUS
 10
292.790200
 20
361.793600
 11
292.790200
 21
362.793600
  0
LINE
  8
1
 62
7
  6
CONTINUOUS
 10
291.790200
 20
360.793600
 11
290.790200
 21
360.793600
  0
LINE
  8
1
 62
7
  6
CONTINUOUS
 10
248.440200
 20
325.293600
 11
248.440200
 21
399.293600
  0
LINE
  8
1
 62
7
  6
CONTINUOUS
 10
214.290200
 20
325.293600
 11
214.290200
 21
399.293600
  0
LINE
  8
1
 62
7
  6
CONTINUOUS
 10
211.790200
 20
325.293600
 11
250.290200
 21
325.293600
  0
LINE
  8
1
 62
7
  6
CONTINUOUS
 10
261.290200
 20
343.293600
 11
281.290200
 21
343.293600
  0
LINE
  8
1
 62
7
  6
CONTINUOUS
 10
261.290200
 20
381.293600
 11
281.290200
 21
381.293600
  0
LINE
  8
1
 62
7
  6
CONTINUOUS
 10
252.290200
 20
352.293600
 11
252.290200
 21
372.293600
  0
LINE
  8
1
 62
7
  6
CONTINUOUS
 10
287.290200
 20
349.293600
 11
287.290200
 21
352.293600
  0
LINE
  8
1
 62
7
  6
CONTINUOUS
 10
302.608000
 20
330.975800
 11
303.200800
 21
333.187800
  0
LINE
  8
1
 62
7
  6
CONTINUOUS
 10
258.290200
 20
328.793600
 11
258.290200
 21
341.293600
  0
LINE
  8
1
 62
7
  6
CONTINUOUS
 10
253.290200
 20
396.793600
 11
257.290200
 21
396.793600
  0
LINE
  8
1
 62
7
  6
CONTINUOUS
 10
253.290200
 20
327.793600
 11
257.290200
 21
327.793600
  0
LINE
  8
1
 62
7
  6
CONTINUOUS
 10
253.290200
 20
327.293600
 11
301.290200
 21
327.293600
  0
LINE
  8
1
 62
7
  6
CONTINUOUS
 10
253.290200
 20
397.293600
 11
301.290200
 21
397.293600
  0
LINE
  8
1
 62
7
  6
CONTINUOUS
 10
258.290200
 20
383.293600
 11
258.290200
 21
395.793600
  0
LINE
  8
1
 62
7
  6
CONTINUOUS
 10
289.290200
 20
370.293600
 11
289.290200
 21
380.293600
  0
LINE
  8
1
 62
7
  6
CONTINUOUS
 10
291.290200
 20
368.293600
 11
291.290200
 21
380.293600
  0
LINE
  8
1
 62
7
  6
CONTINUOUS
 10
255.290200
 20
383.293600
 11
288.290200
 21
383.293600
  0
LINE
  8
1
 62
7
  6
CONTINUOUS
 10
255.290200
 20
341.293600
 11
288.290200
 21
341.293600
  0
LINE
  8
1
 62
7
  6
CONTINUOUS
 10
253.290200
 20
385.293600
 11
253.290200
 21
398.293600
  0
LINE
  8
1
 62
7
  6
CONTINUOUS
 10
291.290200
 20
344.293600
 11
291.290200
 21
356.293600
  0
LINE
  8
1
 62
7
  6
CONTINUOUS
 10
289.290200
 20
344.293600
 11
289.290200
 21
354.293600
  0
LINE
  8
1
 62
7
  6
CONTINUOUS
 10
253.290200
 20
326.293600
 11
253.290200
 21
339.293600
  0
LINE
  8
1
 62
7
  6
CONTINUOUS
 10
211.790200
 20
399.293600
 11
252.290200
 21
399.293600
  0
LINE
  8
1
 62
7
  6
CONTINUOUS
 10
250.290200
 20
325.293600
 11
252.290200
 21
325.293600
  0
LINE
  8
1
 62
7
  6
CONTINUOUS
 10
250.290200
 20
325.293600
 11
250.290200
 21
399.293600
  0
LINE
  8
1
 62
7
  6
CONTINUOUS
 10
241.290200
 20
400.293600
 11
241.290200
 21
411.293600
  0
LINE
  8
1
 62
7
  6
CONTINUOUS
 10
215.290200
 20
400.293600
 11
215.290200
 21
411.293600
  0
LINE
  8
1
 62
7
  6
CONTINUOUS
 10
306.290200
 20
332.293600
 11
306.290200
 21
392.293600
  0
CIRCLE
  8
1
 62
7
  6
CONTINUOUS
 10
104.290200
 20
101.793600
 40
16.300000
  0
ARC
  8
1
 62
7
  6
CONTINUOUS
 10
38.495200
 20
166.198200
 40
2.305000
 50
124.482900
 51
-124.482900
  0
ARC
  8
1
 62
7
  6
CONTINUOUS
 10
35.885200
 20
166.198200
 40
2.305000
 50
-55.517100
 51
55.517100
  0
ARC
  8
1
 62
7
  6
CONTINUOUS
 10
38.495200
 20
162.398200
 40
2.305000
 50
124.482900
 51
-124.482900
  0
ARC
  8
1
 62
7
  6
CONTINUOUS
 10
115.290200
 20
222.293600
 40
1.000000
 50
90.000000
 51
180.000000
  0
ARC
  8
1
 62
7
  6
CONTINUOUS
 10
93.290200
 20
222.293600
 40
1.000000
 50
0.000000
 51
90.000000
  0
ARC
  8
1
 62
7
  6
CONTINUOUS
 10
118.290200
 20
235.293600
 40
4.000000
 50
180.000000
 51
-90.000000
  0
ARC
  8
1
 62
7
  6
CONTINUOUS
 10
90.290200
 20
235.293600
 40
4.000000
 50
-90.000000
 51
0.000000
  0
ARC
  8
1
 62
7
  6
CONTINUOUS
 10
88.290200
 20
228.293600
 40
3.000000
 50
90.000000
 51
180.000000
  0
ARC
  8
1
 62
7
  6
CONTINUOUS
 10
98.290200
 20
249.293600
 40
4.000000
 50
90.000000
 51
180.000000
  0
ARC
  8
1
 62
7
  6
CONTINUOUS
 10
110.290200
 20
249.293600
 40
4.000000
 50
0.000000
 51
90.000000
  0
ARC
  8
1
 62
7
  6
CONTINUOUS
 10
120.290200
 20
228.293600
 40
3.000000
 50
0.000000
 51
90.000000
  0
ARC
  8
1
 62
7
  6
CONTINUOUS
 10
81.290200
 20
144.793600
 40
2.000000
 50
-90.000000
 51
0.000000
  0
ARC
  8
1
 62
7
  6
CONTINUOUS
 10
72.790200
 20
150.793600
 40
1.000000
 50
180.000000
 51
-90.000000
  0
ARC
  8
1
 62
7
  6
CONTINUOUS
 10
69.790200
 20
147.793600
 40
1.000000
 50
0.000000
 51
30.431000
  0
CIRCLE
  8
1
 62
7
  6
CONTINUOUS
 10
71.290200
 20
149.293600
 40
4.000000
  0
ARC
  8
1
 62
7
  6
CONTINUOUS
 10
72.790200
 20
147.793600
 40
1.000000
 50
90.000000
 51
180.000000
  0
ARC
  8
1
 62
7
  6
CONTINUOUS
 10
69.790200
 20
147.793600
 40
1.000000
 50
34.288000
 51
90.000000
  0
ARC
  8
1
 62
7
  6
CONTINUOUS
 10
69.790200
 20
150.793600
 40
1.000000
 50
-90.000000
 51
0.000000
  0
ARC
  8
1
 62
7
  6
CONTINUOUS
 10
137.290200
 20
215.293600
 40
4.000000
 50
0.000000
 51
90.000000
  0
ARC
  8
1
 62
7
  6
CONTINUOUS
 10
71.290200
 20
215.293600
 40
4.000000
 50
90.000000
 51
180.000000
  0
ARC
  8
1
 62
7
  6
CONTINUOUS
 10
137.290200
 20
149.293600
 40
4.000000
 50
-90.000000
 51
0.000000
  0
ARC
  8
1
 62
7
  6
CONTINUOUS
 10
70.290200
 20
141.793600
 40
1.000000
 50
90.000000
 51
180.000000
  0
ARC
  8
1
 62
7
  6
CONTINUOUS
 10
138.290200
 20
141.793600
 40
1.000000
 50
0.000000
 51
90.000000
  0
ARC
  8
1
 62
7
  6
CONTINUOUS
 10
127.290200
 20
144.793600
 40
2.000000
 50
180.000000
 51
-90.000000
  0
ARC
  8
1
 62
7
  6
CONTINUOUS
 10
71.290200
 20
149.293600
 40
4.000000
 50
180.000000
 51
-90.000000
  0
ARC
  8
1
 62
7
  6
CONTINUOUS
 10
138.290200
 20
133.293600
 40
1.000000
 50
-90.000000
 51
0.000000
  0
ARC
  8
1
 62
7
  6
CONTINUOUS
 10
70.290200
 20
133.293600
 40
1.000000
 50
180.000000
 51
-90.000000
  0
ARC
  8
1
 62
7
  6
CONTINUOUS
 10
104.290200
 20
117.310200
 40
38.016600
 50
-52.771300
 51
-42.388100
  0
ARC
  8
1
 62
7
  6
CONTINUOUS
 10
104.290200
 20
101.793600
 40
24.500000
 50
-142.248000
 51
-42.891400
  0
ARC
  8
1
 62
7
  6
CONTINUOUS
 10
104.290200
 20
117.310200
 40
38.016600
 50
-66.973600
 51
-53.390500
  0
ARC
  8
1
 62
7
  6
CONTINUOUS
 10
121.290200
 20
101.793600
 40
15.000000
 50
-42.388100
 51
0.000000
  0
ARC
  8
1
 62
7
  6
CONTINUOUS
 10
104.290200
 20
101.793600
 40
24.500000
 50
-41.669900
 51
-37.752000
  0
ARC
  8
1
 62
7
  6
CONTINUOUS
 10
104.290200
 20
117.310200
 40
38.016600
 50
-137.611900
 51
-127.228700
  0
ARC
  8
1
 62
7
  6
CONTINUOUS
 10
104.290200
 20
117.310200
 40
38.016600
 50
-126.609500
 51
-113.026400
  0
CIRCLE
  8
1
 62
7
  6
CONTINUOUS
 10
104.104200
 20
101.575000
 40
17.100000
  0
CIRCLE
  8
1
 62
7
  6
CONTINUOUS
 10
104.290200
 20
101.793600
 40
15.100000
  0
ARC
  8
1
 62
7
  6
CONTINUOUS
 10
104.290200
 20
117.310200
 40
38.016600
 50
-126.609500
 51
-113.026400
  0
ARC
  8
1
 62
7
  6
CONTINUOUS
 10
121.290200
 20
101.793600
 40
15.000000
 50
-42.388100
 51
0.000000
  0
ARC
  8
1
 62
7
  6
CONTINUOUS
 10
87.290200
 20
101.793600
 40
15.000000
 50
-180.000000
 51
-137.611900
  0
ARC
  8
1
 62
7
  6
CONTINUOUS
 10
104.290200
 20
117.310200
 40
38.016600
 50
-66.973600
 51
-42.388100
  0
ARC
  8
1
 62
7
  6
CONTINUOUS
 10
104.290200
 20
101.793600
 40
24.500000
 50
37.752000
 51
142.248000
  0
LINE
  8
1
 62
7
  6
CONTINUOUS
 10
48.190200
 20
174.798200
 11
49.128200
 21
176.422600
  0
LINE
  8
1
 62
7
  6
CONTINUOUS
 10
51.190200
 20
173.498200
 11
52.690200
 21
173.498200
  0
LINE
  8
1
 62
7
  6
CONTINUOUS
 10
48.190200
 20
153.798200
 11
49.128200
 21
152.174000
  0
LINE
  8
1
 62
7
  6
CONTINUOUS
 10
49.128200
 20
152.174000
 11
51.190200
 21
152.174000
  0
LINE
  8
1
 62
7
  6
CONTINUOUS
 10
54.290200
 20
150.298200
 11
67.290200
 21
150.298200
  0
LINE
  8
1
 62
7
  6
CONTINUOUS
 10
51.190200
 20
155.098200
 11
52.690200
 21
155.098200
  0
LINE
  8
1
 62
7
  6
CONTINUOUS
 10
49.128200
 20
176.422600
 11
51.190200
 21
176.422600
  0
LINE
  8
1
 62
7
  6
CONTINUOUS
 10
54.290200
 20
178.298200
 11
67.290200
 21
178.298200
  0
LINE
  8
1
 62
7
  6
CONTINUOUS
 10
73.841800
 20
142.793600
 11
73.841800
 21
145.293600
  0
LINE
  8
1
 62
7
  6
CONTINUOUS
 10
74.841800
 20
142.793600
 11
74.841800
 21
145.293600
  0
LINE
  8
1
 62
7
  6
CONTINUOUS
 10
78.841800
 20
142.793600
 11
78.841800
 21
145.293600
  0
LINE
  8
1
 62
7
  6
CONTINUOUS
 10
72.841800
 20
142.793600
 11
72.841800
 21
145.293600
  0
LINE
  8
1
 62
7
  6
CONTINUOUS
 10
74.341800
 20
142.793600
 11
74.341800
 21
145.293600
  0
LINE
  8
1
 62
7
  6
CONTINUOUS
 10
73.341800
 20
142.793600
 11
73.341800
 21
145.293600
  0
LINE
  8
1
 62
7
  6
CONTINUOUS
 10
70.341800
 20
142.793600
 11
70.341800
 21
145.407800
  0
LINE
  8
1
 62
7
  6
CONTINUOUS
 10
75.341800
 20
142.793600
 11
75.341800
 21
145.293600
  0
LINE
  8
1
 62
7
  6
CONTINUOUS
 10
72.341800
 20
142.793600
 11
72.341800
 21
145.293600
  0
LINE
  8
1
 62
7
  6
CONTINUOUS
 10
71.841800
 20
142.793600
 11
71.841800
 21
145.293600
  0
LINE
  8
1
 62
7
  6
CONTINUOUS
 10
71.341800
 20
142.793600
 11
71.341800
 21
145.293600
  0
LINE
  8
1
 62
7
  6
CONTINUOUS
 10
70.841800
 20
142.793600
 11
70.841800
 21
145.293600
  0
LINE
  8
1
 62
7
  6
CONTINUOUS
 10
78.841800
 20
142.793600
 11
78.841800
 21
145.293600
  0
LINE
  8
1
 62
7
  6
CONTINUOUS
 10
78.341800
 20
142.793600
 11
78.341800
 21
145.293600
  0
LINE
  8
1
 62
7
  6
CONTINUOUS
 10
77.841800
 20
142.793600
 11
77.841800
 21
145.293600
  0
LINE
  8
1
 62
7
  6
CONTINUOUS
 10
77.341800
 20
142.793600
 11
77.341800
 21
145.293600
  0
LINE
  8
1
 62
7
  6
CONTINUOUS
 10
76.841800
 20
142.793600
 11
76.841800
 21
145.293600
  0
LINE
  8
1
 62
7
  6
CONTINUOUS
 10
76.341800
 20
142.793600
 11
76.341800
 21
145.293600
  0
LINE
  8
1
 62
7
  6
CONTINUOUS
 10
75.841800
 20
142.793600
 11
75.841800
 21
145.293600
  0
LINE
  8
1
 62
7
  6
CONTINUOUS
 10
134.738800
 20
142.793600
 11
134.738800
 21
145.293600
  0
LINE
  8
1
 62
7
  6
CONTINUOUS
 10
133.738800
 20
142.793600
 11
133.738800
 21
145.293600
  0
LINE
  8
1
 62
7
  6
CONTINUOUS
 10
129.738800
 20
142.793600
 11
129.738800
 21
145.293600
  0
LINE
  8
1
 62
7
  6
CONTINUOUS
 10
135.738800
 20
142.793600
 11
135.738800
 21
145.293600
  0
LINE
  8
1
 62
7
  6
CONTINUOUS
 10
134.238800
 20
142.793600
 11
134.238800
 21
145.293600
  0
LINE
  8
1
 62
7
  6
CONTINUOUS
 10
135.238800
 20
142.793600
 11
135.238800
 21
145.293600
  0
LINE
  8
1
 62
7
  6
CONTINUOUS
 10
138.238800
 20
142.793600
 11
138.238800
 21
145.293600
  0
LINE
  8
1
 62
7
  6
CONTINUOUS
 10
133.238800
 20
142.793600
 11
133.238800
 21
145.293600
  0
LINE
  8
1
 62
7
  6
CONTINUOUS
 10
136.238800
 20
142.793600
 11
136.238800
 21
145.293600
  0
LINE
  8
1
 62
7
  6
CONTINUOUS
 10
136.738800
 20
142.793600
 11
136.738800
 21
145.293600
  0
LINE
  8
1
 62
7
  6
CONTINUOUS
 10
137.238800
 20
142.793600
 11
137.238800
 21
145.293600
  0
LINE
  8
1
 62
7
  6
CONTINUOUS
 10
137.738800
 20
142.793600
 11
137.738800
 21
145.293600
  0
LINE
  8
1
 62
7
  6
CONTINUOUS
 10
132.738800
 20
142.793600
 11
132.738800
 21
145.293600
  0
LINE
  8
1
 62
7
  6
CONTINUOUS
 10
132.238800
 20
142.793600
 11
132.238800
 21
145.293600
  0
LINE
  8
1
 62
7
  6
CONTINUOUS
 10
131.738800
 20
142.793600
 11
131.738800
 21
145.293600
  0
LINE
  8
1
 62
7
  6
CONTINUOUS
 10
131.238800
 20
142.793600
 11
131.238800
 21
145.293600
  0
LINE
  8
1
 62
7
  6
CONTINUOUS
 10
130.738800
 20
142.793600
 11
130.738800
 21
145.293600
  0
LINE
  8
1
 62
7
  6
CONTINUOUS
 10
130.238800
 20
142.793600
 11
130.238800
 21
145.293600
  0
LINE
  8
1
 62
7
  6
CONTINUOUS
 10
87.290200
 20
223.293600
 11
87.290200
 21
219.693600
  0
LINE
  8
1
 62
7
  6
CONTINUOUS
 10
89.290200
 20
223.293600
 11
89.290200
 21
219.693600
  0
LINE
  8
1
 62
7
  6
CONTINUOUS
 10
119.290200
 20
223.293600
 11
119.290200
 21
219.693600
  0
LINE
  8
1
 62
7
  6
CONTINUOUS
 10
115.290200
 20
223.293600
 11
123.290200
 21
223.293600
  0
LINE
  8
1
 62
7
  6
CONTINUOUS
 10
121.290200
 20
223.293600
 11
121.290200
 21
219.693600
  0
LINE
  8
1
 62
7
  6
CONTINUOUS
 10
85.290200
 20
223.293600
 11
93.290200
 21
223.293600
  0
LINE
  8
1
 62
7
  6
CONTINUOUS
 10
114.290200
 20
222.293600
 11
114.290200
 21
219.693600
  0
LINE
  8
1
 62
7
  6
CONTINUOUS
 10
85.290200
 20
219.693600
 11
123.290200
 21
219.693600
  0
LINE
  8
1
 62
7
  6
CONTINUOUS
 10
94.290200
 20
222.293600
 11
94.290200
 21
219.693600
  0
LINE
  8
1
 62
7
  6
CONTINUOUS
 10
85.290200
 20
228.293600
 11
85.290200
 21
219.693600
  0
LINE
  8
1
 62
7
  6
CONTINUOUS
 10
123.290200
 20
228.293600
 11
123.290200
 21
219.693600
  0
LINE
  8
1
 62
7
  6
CONTINUOUS
 10
94.290200
 20
249.293600
 11
94.290200
 21
235.293600
  0
LINE
  8
1
 62
7
  6
CONTINUOUS
 10
88.290200
 20
231.293600
 11
120.290200
 21
231.293600
  0
LINE
  8
1
 62
7
  6
CONTINUOUS
 10
114.290200
 20
249.293600
 11
114.290200
 21
235.293600
  0
LINE
  8
1
 62
7
  6
CONTINUOUS
 10
70.290200
 20
142.793600
 11
138.290200
 21
142.793600
  0
LINE
  8
1
 62
7
  6
CONTINUOUS
 10
98.290200
 20
253.293600
 11
110.290200
 21
253.293600
  0
LINE
  8
1
 62
7
  6
CONTINUOUS
 10
71.790200
 20
147.793600
 11
71.790200
 21
147.093600
  0
LINE
  8
1
 62
7
  6
CONTINUOUS
 10
73.490200
 20
149.793600
 11
72.790200
 21
149.793600
  0
LINE
  8
1
 62
7
  6
CONTINUOUS
 10
73.490200
 20
149.793600
 11
73.490200
 21
148.793600
  0
LINE
  8
1
 62
7
  6
CONTINUOUS
 10
71.790200
 20
151.493600
 11
71.790200
 21
150.793600
  0
LINE
  8
1
 62
7
  6
CONTINUOUS
 10
69.090200
 20
149.793600
 11
69.790200
 21
149.793600
  0
LINE
  8
1
 62
7
  6
CONTINUOUS
 10
70.790200
 20
151.493600
 11
70.790200
 21
150.793600
  0
LINE
  8
1
 62
7
  6
CONTINUOUS
 10
69.090200
 20
149.793600
 11
69.090200
 21
148.793600
  0
LINE
  8
1
 62
7
  6
CONTINUOUS
 10
70.790200
 20
151.493600
 11
71.790200
 21
151.493600
  0
LINE
  8
1
 62
7
  6
CONTINUOUS
 10
70.790200
 20
147.093600
 11
71.790200
 21
147.093600
  0
LINE
  8
1
 62
7
  6
CONTINUOUS
 10
71.290200
 20
145.293600
 11
137.290200
 21
145.293600
  0
LINE
  8
1
 62
7
  6
CONTINUOUS
 10
73.490200
 20
148.793600
 11
72.790200
 21
148.793600
  0
LINE
  8
1
 62
7
  6
CONTINUOUS
 10
69.090200
 20
148.793600
 11
69.790200
 21
148.793600
  0
LINE
  8
1
 62
7
  6
CONTINUOUS
 10
70.790200
 20
147.793600
 11
70.790200
 21
147.093600
  0
LINE
  8
1
 62
7
  6
CONTINUOUS
 10
67.290200
 20
160.493600
 11
67.290200
 21
149.293600
  0
LINE
  8
1
 62
7
  6
CONTINUOUS
 10
67.290200
 20
215.293600
 11
67.290200
 21
160.493600
  0
LINE
  8
1
 62
7
  6
CONTINUOUS
 10
141.290200
 20
215.293600
 11
141.290200
 21
149.293600
  0
LINE
  8
1
 62
7
  6
CONTINUOUS
 10
71.290200
 20
219.293600
 11
137.290200
 21
219.293600
  0
LINE
  8
1
 62
7
  6
CONTINUOUS
 10
71.290200
 20
145.293600
 11
137.290200
 21
145.293600
  0
LINE
  8
1
 62
7
  6
CONTINUOUS
 10
129.738800
 20
142.793600
 11
129.738800
 21
145.293600
  0
LINE
  8
1
 62
7
  6
CONTINUOUS
 10
125.290200
 20
145.293600
 11
125.290200
 21
144.793600
  0
LINE
  8
1
 62
7
  6
CONTINUOUS
 10
83.290200
 20
145.293600
 11
83.290200
 21
144.793600
  0
LINE
  8
1
 62
7
  6
CONTINUOUS
 10
139.290200
 20
138.293600
 11
127.290200
 21
138.293600
  0
LINE
  8
1
 62
7
  6
CONTINUOUS
 10
70.290200
 20
132.293600
 11
138.290200
 21
132.293600
  0
LINE
  8
1
 62
7
  6
CONTINUOUS
 10
69.290200
 20
138.293600
 11
139.290200
 21
138.293600
  0
LINE
  8
1
 62
7
  6
CONTINUOUS
 10
69.290200
 20
141.793600
 11
69.290200
 21
133.293600
  0
LINE
  8
1
 62
7
  6
CONTINUOUS
 10
123.661600
 20
86.793600
 11
127.290200
 21
86.793600
  0
LINE
  8
1
 62
7
  6
CONTINUOUS
 10
123.661600
 20
116.793600
 11
127.290200
 21
116.793600
  0
LINE
  8
1
 62
7
  6
CONTINUOUS
 10
136.290200
 20
132.293600
 11
136.290200
 21
101.793600
  0
LINE
  8
1
 62
7
  6
CONTINUOUS
 10
72.290200
 20
132.293600
 11
72.290200
 21
101.793600
  0
LINE
  8
1
 62
7
  6
CONTINUOUS
 10
139.290200
 20
141.793600
 11
139.290200
 21
133.293600
  0
LINE
  8
1
 62
7
  6
CONTINUOUS
 10
81.290200
 20
86.793600
 11
84.919000
 21
86.793600
  0
LINE
  8
1
 62
7
  6
CONTINUOUS
 10
81.290200
 20
116.793600
 11
84.919000
 21
116.793600
  0
LINE
  8
1
 62
7
  6
CONTINUOUS
 10
127.290200
 20
116.793600
 11
127.290200
 21
86.793600
  0
LINE
  8
1
 62
7
  6
CONTINUOUS
 10
81.290200
 20
116.793600
 11
81.290200
 21
86.793600
  0
ARC
  8
1
 62
7
  6
CONTINUOUS
 10
135.790200
 20
150.793600
 40
1.000000
 50
-90.000000
 51
0.000000
  0
ARC
  8
1
 62
7
  6
CONTINUOUS
 10
138.790200
 20
147.793600
 40
1.000000
 50
149.569000
 51
180.000000
  0
CIRCLE
  8
1
 62
7
  6
CONTINUOUS
 10
137.290200
 20
149.293600
 40
4.000000
  0
ARC
  8
1
 62
7
  6
CONTINUOUS
 10
135.790200
 20
147.793600
 40
1.000000
 50
0.000000
 51
90.000000
  0
ARC
  8
1
 62
7
  6
CONTINUOUS
 10
138.790200
 20
147.793600
 40
1.000000
 50
90.000000
 51
145.712000
  0
ARC
  8
1
 62
7
  6
CONTINUOUS
 10
138.790200
 20
150.793600
 40
1.000000
 50
180.000000
 51
-90.000000
  0
LINE
  8
1
 62
7
  6
CONTINUOUS
 10
136.790200
 20
147.793600
 11
136.790200
 21
147.093600
  0
LINE
  8
1
 62
7
  6
CONTINUOUS
 10
135.090200
 20
149.793600
 11
135.790200
 21
149.793600
  0
LINE
  8
1
 62
7
  6
CONTINUOUS
 10
135.090200
 20
149.793600
 11
135.090200
 21
148.793600
  0
LINE
  8
1
 62
7
  6
CONTINUOUS
 10
136.790200
 20
151.493600
 11
136.790200
 21
150.793600
  0
LINE
  8
1
 62
7
  6
CONTINUOUS
 10
139.490200
 20
149.793600
 11
138.790200
 21
149.793600
  0
LINE
  8
1
 62
7
  6
CONTINUOUS
 10
137.790200
 20
151.493600
 11
137.790200
 21
150.793600
  0
LINE
  8
1
 62
7
  6
CONTINUOUS
 10
139.490200
 20
149.793600
 11
139.490200
 21
148.793600
  0
LINE
  8
1
 62
7
  6
CONTINUOUS
 10
137.790200
 20
151.493600
 11
136.790200
 21
151.493600
  0
LINE
  8
1
 62
7
  6
CONTINUOUS
 10
137.790200
 20
147.093600
 11
136.790200
 21
147.093600
  0
LINE
  8
1
 62
7
  6
CONTINUOUS
 10
135.090200
 20
148.793600
 11
135.790200
 21
148.793600
  0
LINE
  8
1
 62
7
  6
CONTINUOUS
 10
139.490200
 20
148.793600
 11
138.790200
 21
148.793600
  0
LINE
  8
1
 62
7
  6
CONTINUOUS
 10
137.790200
 20
147.793600
 11
137.790200
 21
147.093600
  0
ARC
  8
1
 62
7
  6
CONTINUOUS
 10
72.790200
 20
213.793600
 40
1.000000
 50
90.000000
 51
180.000000
  0
ARC
  8
1
 62
7
  6
CONTINUOUS
 10
69.790200
 20
216.793600
 40
1.000000
 50
-30.431000
 51
0.000000
  0
CIRCLE
  8
1
 62
7
  6
CONTINUOUS
 10
71.290200
 20
215.293600
 40
4.000000
  0
ARC
  8
1
 62
7
  6
CONTINUOUS
 10
72.790200
 20
216.793600
 40
1.000000
 50
180.000000
 51
-90.000000
  0
ARC
  8
1
 62
7
  6
CONTINUOUS
 10
69.790200
 20
216.793600
 40
1.000000
 50
-90.000000
 51
-34.288000
  0
ARC
  8
1
 62
7
  6
CONTINUOUS
 10
69.790200
 20
213.793600
 40
1.000000
 50
0.000000
 51
90.000000
  0
LINE
  8
1
 62
7
  6
CONTINUOUS
 10
71.790200
 20
216.793600
 11
71.790200
 21
217.493600
  0
LINE
  8
1
 62
7
  6
CONTINUOUS
 10
73.490200
 20
214.793600
 11
72.790200
 21
214.793600
  0
LINE
  8
1
 62
7
  6
CONTINUOUS
 10
73.490200
 20
214.793600
 11
73.490200
 21
215.793600
  0
LINE
  8
1
 62
7
  6
CONTINUOUS
 10
71.790200
 20
213.093600
 11
71.790200
 21
213.793600
  0
LINE
  8
1
 62
7
  6
CONTINUOUS
 10
69.090200
 20
214.793600
 11
69.790200
 21
214.793600
  0
LINE
  8
1
 62
7
  6
CONTINUOUS
 10
70.790200
 20
213.093600
 11
70.790200
 21
213.793600
  0
LINE
  8
1
 62
7
  6
CONTINUOUS
 10
69.090200
 20
214.793600
 11
69.090200
 21
215.793600
  0
LINE
  8
1
 62
7
  6
CONTINUOUS
 10
70.790200
 20
213.093600
 11
71.790200
 21
213.093600
  0
LINE
  8
1
 62
7
  6
CONTINUOUS
 10
70.790200
 20
217.493600
 11
71.790200
 21
217.493600
  0
LINE
  8
1
 62
7
  6
CONTINUOUS
 10
73.490200
 20
215.793600
 11
72.790200
 21
215.793600
  0
LINE
  8
1
 62
7
  6
CONTINUOUS
 10
69.090200
 20
215.793600
 11
69.790200
 21
215.793600
  0
LINE
  8
1
 62
7
  6
CONTINUOUS
 10
70.790200
 20
216.793600
 11
70.790200
 21
217.493600
  0
ARC
  8
1
 62
7
  6
CONTINUOUS
 10
135.790200
 20
213.793600
 40
1.000000
 50
0.000000
 51
90.000000
  0
ARC
  8
1
 62
7
  6
CONTINUOUS
 10
138.790200
 20
216.793600
 40
1.000000
 50
180.000000
 51
-149.569000
  0
CIRCLE
  8
1
 62
7
  6
CONTINUOUS
 10
137.290200
 20
215.293600
 40
4.000000
  0
ARC
  8
1
 62
7
  6
CONTINUOUS
 10
135.790200
 20
216.793600
 40
1.000000
 50
-90.000000
 51
0.000000
  0
ARC
  8
1
 62
7
  6
CONTINUOUS
 10
138.790200
 20
216.793600
 40
1.000000
 50
-145.712000
 51
-90.000000
  0
ARC
  8
1
 62
7
  6
CONTINUOUS
 10
138.790200
 20
213.793600
 40
1.000000
 50
90.000000
 51
180.000000
  0
LINE
  8
1
 62
7
  6
CONTINUOUS
 10
136.790200
 20
216.793600
 11
136.790200
 21
217.493600
  0
LINE
  8
1
 62
7
  6
CONTINUOUS
 10
135.090200
 20
214.793600
 11
135.790200
 21
214.793600
  0
LINE
  8
1
 62
7
  6
CONTINUOUS
 10
135.090200
 20
214.793600
 11
135.090200
 21
215.793600
  0
LINE
  8
1
 62
7
  6
CONTINUOUS
 10
136.790200
 20
213.093600
 11
136.790200
 21
213.793600
  0
LINE
  8
1
 62
7
  6
CONTINUOUS
 10
139.490200
 20
214.793600
 11
138.790200
 21
214.793600
  0
LINE
  8
1
 62
7
  6
CONTINUOUS
 10
137.790200
 20
213.093600
 11
137.790200
 21
213.793600
  0
LINE
  8
1
 62
7
  6
CONTINUOUS
 10
139.490200
 20
214.793600
 11
139.490200
 21
215.793600
  0
LINE
  8
1
 62
7
  6
CONTINUOUS
 10
137.790200
 20
213.093600
 11
136.790200
 21
213.093600
  0
LINE
  8
1
 62
7
  6
CONTINUOUS
 10
137.790200
 20
217.493600
 11
136.790200
 21
217.493600
  0
LINE
  8
1
 62
7
  6
CONTINUOUS
 10
135.090200
 20
215.793600
 11
135.790200
 21
215.793600
  0
LINE
  8
1
 62
7
  6
CONTINUOUS
 10
139.490200
 20
215.793600
 11
138.790200
 21
215.793600
  0
LINE
  8
1
 62
7
  6
CONTINUOUS
 10
137.790200
 20
216.793600
 11
137.790200
 21
217.493600
  0
LINE
  8
1
 62
7
  6
CONTINUOUS
 10
52.690200
 20
174.775800
 11
52.690200
 21
164.298200
  0
LINE
  8
1
 62
7
  6
CONTINUOUS
 10
54.290200
 20
178.298200
 11
54.290200
 21
164.298200
  0
LINE
  8
1
 62
7
  6
CONTINUOUS
 10
51.190200
 20
176.422600
 11
51.190200
 21
164.298200
  0
LINE
  8
1
 62
7
  6
CONTINUOUS
 10
54.290200
 20
164.298200
 11
54.290200
 21
150.298200
  0
LINE
  8
1
 62
7
  6
CONTINUOUS
 10
52.690200
 20
164.298200
 11
52.690200
 21
153.820800
  0
LINE
  8
1
 62
7
  6
CONTINUOUS
 10
51.190200
 20
164.298200
 11
51.190200
 21
152.174000
  0
LINE
  8
1
 62
7
  6
CONTINUOUS
 10
52.690200
 20
174.775800
 11
54.290200
 21
174.775800
  0
LINE
  8
1
 62
7
  6
CONTINUOUS
 10
52.690200
 20
153.820800
 11
54.290200
 21
153.820800
  0
LINE
  8
1
 62
7
  6
CONTINUOUS
 10
37.190200
 20
168.098200
 11
48.190200
 21
168.098200
  0
LINE
  8
1
 62
7
  6
CONTINUOUS
 10
37.190200
 20
160.498200
 11
48.190200
 21
160.498200
  0
LINE
  8
1
 62
7
  6
CONTINUOUS
 10
48.190200
 20
174.798200
 11
48.190200
 21
164.298200
  0
LINE
  8
1
 62
7
  6
CONTINUOUS
 10
48.190200
 20
164.298200
 11
48.190200
 21
153.798200
  0
ARC
  8
1
 62
7
  6
CONTINUOUS
 10
448.290200
 20
204.293600
 40
1.000000
 50
90.000000
 51
180.000000
  0
ARC
  8
1
 62
7
  6
CONTINUOUS
 10
448.290200
 20
178.293600
 40
1.000000
 50
180.000000
 51
-90.000000
  0
ARC
  8
1
 62
7
  6
CONTINUOUS
 10
474.290200
 20
178.293600
 40
1.000000
 50
-90.000000
 51
0.000000
  0
ARC
  8
1
 62
7
  6
CONTINUOUS
 10
474.290200
 20
204.293600
 40
1.000000
 50
0.000000
 51
90.000000
  0
CIRCLE
  8
1
 62
7
  6
CONTINUOUS
 10
488.290200
 20
206.293600
 40
2.290000
  0
CIRCLE
  8
1
 62
7
  6
CONTINUOUS
 10
488.290200
 20
158.293600
 40
2.290000
  0
CIRCLE
  8
1
 62
7
  6
CONTINUOUS
 10
434.290200
 20
158.293600
 40
2.290000
  0
CIRCLE
  8
1
 62
7
  6
CONTINUOUS
 10
434.290200
 20
206.293600
 40
2.290000
  0
CIRCLE
  8
1
 62
7
  6
CONTINUOUS
 10
488.290200
 20
158.293600
 40
4.250000
  0
CIRCLE
  8
1
 62
7
  6
CONTINUOUS
 10
434.290200
 20
158.293600
 40
4.250000
  0
CIRCLE
  8
1
 62
7
  6
CONTINUOUS
 10
488.290200
 20
206.293600
 40
4.250000
  0
CIRCLE
  8
1
 62
7
  6
CONTINUOUS
 10
434.290200
 20
206.293600
 40
4.250000
  0
ARC
  8
1
 62
7
  6
CONTINUOUS
 10
477.290200
 20
228.293600
 40
3.000000
 50
0.000000
 51
90.000000
  0
ARC
  8
1
 62
7
  6
CONTINUOUS
 10
467.290200
 20
249.293600
 40
4.000000
 50
0.000000
 51
90.000000
  0
ARC
  8
1
 62
7
  6
CONTINUOUS
 10
455.290200
 20
249.293600
 40
4.000000
 50
90.000000
 51
180.000000
  0
ARC
  8
1
 62
7
  6
CONTINUOUS
 10
445.290200
 20
228.293600
 40
3.000000
 50
90.000000
 51
180.000000
  0
ARC
  8
1
 62
7
  6
CONTINUOUS
 10
447.290200
 20
235.293600
 40
4.000000
 50
-90.000000
 51
0.000000
  0
ARC
  8
1
 62
7
  6
CONTINUOUS
 10
475.290200
 20
235.293600
 40
4.000000
 50
180.000000
 51
-90.000000
  0
ARC
  8
1
 62
7
  6
CONTINUOUS
 10
450.290200
 20
222.293600
 40
1.000000
 50
0.000000
 51
90.000000
  0
ARC
  8
1
 62
7
  6
CONTINUOUS
 10
472.290200
 20
222.293600
 40
1.000000
 50
90.000000
 51
180.000000
  0
ARC
  8
1
 62
7
  6
CONTINUOUS
 10
464.290200
 20
228.293600
 40
3.000000
 50
0.000000
 51
90.000000
  0
ARC
  8
1
 62
7
  6
CONTINUOUS
 10
458.290200
 20
228.293600
 40
3.000000
 50
90.000000
 51
180.000000
  0
ARC
  8
1
 62
7
  6
CONTINUOUS
 10
466.290200
 20
214.293600
 40
1.000000
 50
-90.000000
 51
0.000000
  0
ARC
  8
1
 62
7
  6
CONTINUOUS
 10
456.290200
 20
214.293600
 40
1.000000
 50
180.000000
 51
-90.000000
  0
ARC
  8
1
 62
7
  6
CONTINUOUS
 10
448.290200
 20
178.293600
 40
2.000000
 50
180.000000
 51
-90.000000
  0
ARC
  8
1
 62
7
  6
CONTINUOUS
 10
448.290200
 20
204.293600
 40
2.000000
 50
90.000000
 51
180.000000
  0
ARC
  8
1
 62
7
  6
CONTINUOUS
 10
474.290200
 20
178.293600
 40
2.000000
 50
-90.000000
 51
0.000000
  0
ARC
  8
1
 62
7
  6
CONTINUOUS
 10
474.290200
 20
204.293600
 40
2.000000
 50
0.000000
 51
90.000000
  0
ARC
  8
1
 62
7
  6
CONTINUOUS
 10
484.290200
 20
215.793600
 40
2.000000
 50
180.000000
 51
-90.000000
  0
CIRCLE
  8
1
 62
7
  6
CONTINUOUS
 10
488.290200
 20
206.293600
 40
5.500000
  0
ARC
  8
1
 62
7
  6
CONTINUOUS
 10
488.290200
 20
206.293600
 40
7.500000
 50
-90.000000
 51
90.000000
  0
ARC
  8
1
 62
7
  6
CONTINUOUS
 10
484.290200
 20
196.793600
 40
2.000000
 50
90.000000
 51
180.000000
  0
ARC
  8
1
 62
7
  6
CONTINUOUS
 10
488.290200
 20
158.293600
 40
7.500000
 50
-90.000000
 51
90.000000
  0
ARC
  8
1
 62
7
  6
CONTINUOUS
 10
438.290200
 20
215.793600
 40
2.000000
 50
-90.000000
 51
0.000000
  0
ARC
  8
1
 62
7
  6
CONTINUOUS
 10
438.290200
 20
148.793600
 40
2.000000
 50
0.000000
 51
90.000000
  0
CIRCLE
  8
1
 62
7
  6
CONTINUOUS
 10
434.290200
 20
206.293600
 40
5.500000
  0
ARC
  8
1
 62
7
  6
CONTINUOUS
 10
438.290200
 20
167.793600
 40
2.000000
 50
-90.000000
 51
0.000000
  0
ARC
  8
1
 62
7
  6
CONTINUOUS
 10
484.290200
 20
167.793600
 40
2.000000
 50
180.000000
 51
-90.000000
  0
ARC
  8
1
 62
7
  6
CONTINUOUS
 10
434.290200
 20
158.293600
 40
7.500000
 50
90.000000
 51
-90.000000
  0
CIRCLE
  8
1
 62
7
  6
CONTINUOUS
 10
488.290200
 20
158.293600
 40
5.500000
  0
ARC
  8
1
 62
7
  6
CONTINUOUS
 10
434.290200
 20
206.293600
 40
7.500000
 50
90.000000
 51
-90.000000
  0
CIRCLE
  8
1
 62
7
  6
CONTINUOUS
 10
434.290200
 20
158.293600
 40
5.500000
  0
ARC
  8
1
 62
7
  6
CONTINUOUS
 10
484.290200
 20
148.793600
 40
2.000000
 50
90.000000
 51
180.000000
  0
ARC
  8
1
 62
7
  6
CONTINUOUS
 10
495.290200
 20
141.793600
 40
1.000000
 50
0.000000
 51
90.000000
  0
ARC
  8
1
 62
7
  6
CONTINUOUS
 10
438.290200
 20
144.793600
 40
2.000000
 50
-90.000000
 51
0.000000
  0
ARC
  8
1
 62
7
  6
CONTINUOUS
 10
484.290200
 20
144.793600
 40
2.000000
 50
180.000000
 51
-90.000000
  0
ARC
  8
1
 62
7
  6
CONTINUOUS
 10
484.290200
 20
148.293600
 40
2.000000
 50
90.000000
 51
180.000000
  0
ARC
  8
1
 62
7
  6
CONTINUOUS
 10
438.290200
 20
148.293600
 40
2.000000
 50
0.000000
 51
90.000000
  0
ARC
  8
1
 62
7
  6
CONTINUOUS
 10
428.290200
 20
154.293600
 40
4.000000
 50
180.000000
 51
-90.000000
  0
ARC
  8
1
 62
7
  6
CONTINUOUS
 10
427.290200
 20
141.793600
 40
1.000000
 50
90.000000
 51
180.000000
  0
ARC
  8
1
 62
7
  6
CONTINUOUS
 10
443.290200
 20
216.293600
 40
3.000000
 50
90.000000
 51
180.000000
  0
ARC
  8
1
 62
7
  6
CONTINUOUS
 10
479.290200
 20
216.293600
 40
3.000000
 50
0.000000
 51
90.000000
  0
ARC
  8
1
 62
7
  6
CONTINUOUS
 10
494.290200
 20
154.293600
 40
4.000000
 50
-90.000000
 51
0.000000
  0
ARC
  8
1
 62
7
  6
CONTINUOUS
 10
428.290200
 20
215.293600
 40
4.000000
 50
90.000000
 51
180.000000
  0
ARC
  8
1
 62
7
  6
CONTINUOUS
 10
494.290200
 20
215.293600
 40
4.000000
 50
0.000000
 51
90.000000
  0
ARC
  8
1
 62
7
  6
CONTINUOUS
 10
438.290200
 20
196.793600
 40
2.000000
 50
0.000000
 51
90.000000
  0
ARC
  8
1
 62
7
  6
CONTINUOUS
 10
444.290200
 20
101.793600
 40
15.000000
 50
137.611900
 51
-180.000000
  0
ARC
  8
1
 62
7
  6
CONTINUOUS
 10
461.290200
 20
86.277000
 40
38.016600
 50
113.026400
 51
126.609500
  0
ARC
  8
1
 62
7
  6
CONTINUOUS
 10
478.290200
 20
101.793600
 40
15.000000
 50
0.000000
 51
42.388100
  0
ARC
  8
1
 62
7
  6
CONTINUOUS
 10
461.290200
 20
86.277000
 40
38.016600
 50
42.388100
 51
52.771300
  0
ARC
  8
1
 62
7
  6
CONTINUOUS
 10
461.290200
 20
86.277000
 40
38.016600
 50
53.390500
 51
66.973600
  0
ARC
  8
1
 62
7
  6
CONTINUOUS
 10
461.290200
 20
86.277000
 40
38.016600
 50
127.228700
 51
137.611900
  0
ARC
  8
1
 62
7
  6
CONTINUOUS
 10
461.290200
 20
101.793600
 40
24.500000
 50
37.752000
 51
142.248000
  0
ARC
  8
1
 62
7
  6
CONTINUOUS
 10
461.290200
 20
117.310200
 40
38.016600
 50
-66.973600
 51
-42.388100
  0
ARC
  8
1
 62
7
  6
CONTINUOUS
 10
444.290200
 20
101.793600
 40
15.000000
 50
-180.000000
 51
-137.611900
  0
ARC
  8
1
 62
7
  6
CONTINUOUS
 10
478.290200
 20
101.793600
 40
15.000000
 50
-42.388100
 51
0.000000
  0
ARC
  8
1
 62
7
  6
CONTINUOUS
 10
461.290200
 20
117.310200
 40
38.016600
 50
-126.609500
 51
-113.026400
  0
CIRCLE
  8
1
 62
7
  6
CONTINUOUS
 10
461.290200
 20
101.793600
 40
15.100000
  0
CIRCLE
  8
1
 62
7
  6
CONTINUOUS
 10
461.104200
 20
101.575000
 40
17.100000
  0
ARC
  8
1
 62
7
  6
CONTINUOUS
 10
461.290200
 20
117.310200
 40
38.016600
 50
-126.609500
 51
-113.026400
  0
ARC
  8
1
 62
7
  6
CONTINUOUS
 10
461.290200
 20
117.310200
 40
38.016600
 50
-137.611900
 51
-127.228700
  0
ARC
  8
1
 62
7
  6
CONTINUOUS
 10
461.290200
 20
101.793600
 40
24.500000
 50
-41.669900
 51
-37.752000
  0
ARC
  8
1
 62
7
  6
CONTINUOUS
 10
478.290200
 20
101.793600
 40
15.000000
 50
-42.388100
 51
0.000000
  0
ARC
  8
1
 62
7
  6
CONTINUOUS
 10
461.290200
 20
117.310200
 40
38.016600
 50
-66.973600
 51
-53.390500
  0
ARC
  8
1
 62
7
  6
CONTINUOUS
 10
461.290200
 20
101.793600
 40
24.500000
 50
-142.248000
 51
-42.891400
  0
ARC
  8
1
 62
7
  6
CONTINUOUS
 10
461.290200
 20
117.310200
 40
38.016600
 50
-52.771300
 51
-42.388100
  0
ARC
  8
1
 62
7
  6
CONTINUOUS
 10
427.290200
 20
133.293600
 40
1.000000
 50
180.000000
 51
-90.000000
  0
ARC
  8
1
 62
7
  6
CONTINUOUS
 10
495.290200
 20
133.293600
 40
1.000000
 50
-90.000000
 51
0.000000
  0
LINE
  8
1
 62
7
  6
CONTINUOUS
 10
448.290200
 20
191.293600
 11
448.290200
 21
187.293600
  0
LINE
  8
1
 62
7
  6
CONTINUOUS
 10
474.290200
 20
191.293600
 11
474.290200
 21
187.293600
  0
LINE
  8
1
 62
7
  6
CONTINUOUS
 10
448.290200
 20
187.293600
 11
474.290200
 21
187.293600
  0
LINE
  8
1
 62
7
  6
CONTINUOUS
 10
448.290200
 20
191.293600
 11
474.290200
 21
191.293600
  0
LINE
  8
1
 62
7
  6
CONTINUOUS
 10
465.790200
 20
196.293600
 11
465.790200
 21
192.293600
  0
LINE
  8
1
 62
7
  6
CONTINUOUS
 10
457.790200
 20
196.293600
 11
457.790200
 21
192.293600
  0
LINE
  8
1
 62
7
  6
CONTINUOUS
 10
457.790200
 20
192.293600
 11
465.790200
 21
192.293600
  0
LINE
  8
1
 62
7
  6
CONTINUOUS
 10
457.790200
 20
196.293600
 11
465.790200
 21
196.293600
  0
LINE
  8
1
 62
7
  6
CONTINUOUS
 10
475.290200
 20
204.293600
 11
475.290200
 21
178.293600
  0
LINE
  8
1
 62
7
  6
CONTINUOUS
 10
448.290200
 20
177.293600
 11
474.290200
 21
177.293600
  0
LINE
  8
1
 62
7
  6
CONTINUOUS
 10
447.290200
 20
204.293600
 11
447.290200
 21
178.293600
  0
LINE
  8
1
 62
7
  6
CONTINUOUS
 10
448.290200
 20
205.293600
 11
474.290200
 21
205.293600
  0
LINE
  8
1
 62
7
  6
CONTINUOUS
 10
494.738800
 20
147.793600
 11
495.238800
 21
147.293600
  0
LINE
  8
1
 62
7
  6
CONTINUOUS
 10
486.738800
 20
147.293600
 11
487.238800
 21
147.793600
  0
LINE
  8
1
 62
7
  6
CONTINUOUS
 10
495.238800
 20
147.293600
 11
486.738800
 21
147.293600
  0
LINE
  8
1
 62
7
  6
CONTINUOUS
 10
427.341800
 20
147.293600
 11
427.841800
 21
147.793600
  0
LINE
  8
1
 62
7
  6
CONTINUOUS
 10
435.341800
 20
147.793600
 11
435.841800
 21
147.293600
  0
LINE
  8
1
 62
7
  6
CONTINUOUS
 10
427.341800
 20
147.293600
 11
435.841800
 21
147.293600
  0
LINE
  8
1
 62
7
  6
CONTINUOUS
 10
486.078400
 20
158.886400
 11
486.671000
 21
156.674400
  0
LINE
  8
1
 62
7
  6
CONTINUOUS
 10
489.909600
 20
159.912800
 11
490.502200
 21
157.701000
  0
LINE
  8
1
 62
7
  6
CONTINUOUS
 10
490.502200
 20
157.701000
 11
488.883000
 21
156.081600
  0
LINE
  8
1
 62
7
  6
CONTINUOUS
 10
489.909600
 20
159.912800
 11
487.697600
 21
160.505600
  0
LINE
  8
1
 62
7
  6
CONTINUOUS
 10
487.697600
 20
160.505600
 11
486.078400
 21
158.886400
  0
LINE
  8
1
 62
7
  6
CONTINUOUS
 10
486.671000
 20
156.674400
 11
488.883000
 21
156.081600
  0
LINE
  8
1
 62
7
  6
CONTINUOUS
 10
432.078400
 20
158.886400
 11
432.671000
 21
156.674400
  0
LINE
  8
1
 62
7
  6
CONTINUOUS
 10
435.909600
 20
159.912800
 11
436.502200
 21
157.701000
  0
LINE
  8
1
 62
7
  6
CONTINUOUS
 10
436.502200
 20
157.701000
 11
434.883000
 21
156.081600
  0
LINE
  8
1
 62
7
  6
CONTINUOUS
 10
435.909600
 20
159.912800
 11
433.697600
 21
160.505600
  0
LINE
  8
1
 62
7
  6
CONTINUOUS
 10
433.697600
 20
160.505600
 11
432.078400
 21
158.886400
  0
LINE
  8
1
 62
7
  6
CONTINUOUS
 10
432.671000
 20
156.674400
 11
434.883000
 21
156.081600
  0
LINE
  8
1
 62
7
  6
CONTINUOUS
 10
486.078400
 20
206.886400
 11
486.671000
 21
204.674400
  0
LINE
  8
1
 62
7
  6
CONTINUOUS
 10
489.909600
 20
207.912800
 11
490.502200
 21
205.701000
  0
LINE
  8
1
 62
7
  6
CONTINUOUS
 10
490.502200
 20
205.701000
 11
488.883000
 21
204.081600
  0
LINE
  8
1
 62
7
  6
CONTINUOUS
 10
489.909600
 20
207.912800
 11
487.697600
 21
208.505600
  0
LINE
  8
1
 62
7
  6
CONTINUOUS
 10
487.697600
 20
208.505600
 11
486.078400
 21
206.886400
  0
LINE
  8
1
 62
7
  6
CONTINUOUS
 10
486.671000
 20
204.674400
 11
488.883000
 21
204.081600
  0
LINE
  8
1
 62
7
  6
CONTINUOUS
 10
432.078400
 20
206.886400
 11
432.671000
 21
204.674400
  0
LINE
  8
1
 62
7
  6
CONTINUOUS
 10
435.909600
 20
207.912800
 11
436.502200
 21
205.701000
  0
LINE
  8
1
 62
7
  6
CONTINUOUS
 10
436.502200
 20
205.701000
 11
434.883000
 21
204.081600
  0
LINE
  8
1
 62
7
  6
CONTINUOUS
 10
435.909600
 20
207.912800
 11
433.697600
 21
208.505600
  0
LINE
  8
1
 62
7
  6
CONTINUOUS
 10
433.697600
 20
208.505600
 11
432.078400
 21
206.886400
  0
LINE
  8
1
 62
7
  6
CONTINUOUS
 10
435.841800
 20
142.793600
 11
435.841800
 21
147.293600
  0
LINE
  8
1
 62
7
  6
CONTINUOUS
 10
435.341800
 20
142.793600
 11
435.341800
 21
147.293600
  0
LINE
  8
1
 62
7
  6
CONTINUOUS
 10
434.841800
 20
142.793600
 11
434.841800
 21
147.293600
  0
LINE
  8
1
 62
7
  6
CONTINUOUS
 10
434.341800
 20
142.793600
 11
434.341800
 21
147.293600
  0
LINE
  8
1
 62
7
  6
CONTINUOUS
 10
433.841800
 20
142.793600
 11
433.841800
 21
147.293600
  0
LINE
  8
1
 62
7
  6
CONTINUOUS
 10
433.341800
 20
142.793600
 11
433.341800
 21
147.293600
  0
LINE
  8
1
 62
7
  6
CONTINUOUS
 10
432.841800
 20
142.793600
 11
432.841800
 21
147.293600
  0
LINE
  8
1
 62
7
  6
CONTINUOUS
 10
427.841800
 20
142.793600
 11
427.841800
 21
147.293600
  0
LINE
  8
1
 62
7
  6
CONTINUOUS
 10
428.341800
 20
142.793600
 11
428.341800
 21
147.293600
  0
LINE
  8
1
 62
7
  6
CONTINUOUS
 10
428.841800
 20
142.793600
 11
428.841800
 21
147.293600
  0
LINE
  8
1
 62
7
  6
CONTINUOUS
 10
429.341800
 20
142.793600
 11
429.341800
 21
147.293600
  0
LINE
  8
1
 62
7
  6
CONTINUOUS
 10
432.341800
 20
142.793600
 11
432.341800
 21
147.293600
  0
LINE
  8
1
 62
7
  6
CONTINUOUS
 10
427.341800
 20
142.793600
 11
427.341800
 21
147.293600
  0
LINE
  8
1
 62
7
  6
CONTINUOUS
 10
430.341800
 20
142.793600
 11
430.341800
 21
147.293600
  0
LINE
  8
1
 62
7
  6
CONTINUOUS
 10
431.341800
 20
142.793600
 11
431.341800
 21
147.293600
  0
LINE
  8
1
 62
7
  6
CONTINUOUS
 10
429.841800
 20
142.793600
 11
429.841800
 21
147.293600
  0
LINE
  8
1
 62
7
  6
CONTINUOUS
 10
435.841800
 20
142.793600
 11
435.841800
 21
147.293600
  0
LINE
  8
1
 62
7
  6
CONTINUOUS
 10
431.841800
 20
142.793600
 11
431.841800
 21
147.293600
  0
LINE
  8
1
 62
7
  6
CONTINUOUS
 10
430.841800
 20
142.793600
 11
430.841800
 21
147.293600
  0
LINE
  8
1
 62
7
  6
CONTINUOUS
 10
427.841800
 20
147.793600
 11
435.341800
 21
147.793600
  0
LINE
  8
1
 62
7
  6
CONTINUOUS
 10
432.671000
 20
204.674400
 11
434.883000
 21
204.081600
  0
LINE
  8
1
 62
7
  6
CONTINUOUS
 10
486.738800
 20
142.793600
 11
486.738800
 21
147.293600
  0
LINE
  8
1
 62
7
  6
CONTINUOUS
 10
487.238800
 20
142.793600
 11
487.238800
 21
147.293600
  0
LINE
  8
1
 62
7
  6
CONTINUOUS
 10
487.738800
 20
142.793600
 11
487.738800
 21
147.293600
  0
LINE
  8
1
 62
7
  6
CONTINUOUS
 10
488.238800
 20
142.793600
 11
488.238800
 21
147.293600
  0
LINE
  8
1
 62
7
  6
CONTINUOUS
 10
488.738800
 20
142.793600
 11
488.738800
 21
147.293600
  0
LINE
  8
1
 62
7
  6
CONTINUOUS
 10
489.238800
 20
142.793600
 11
489.238800
 21
147.293600
  0
LINE
  8
1
 62
7
  6
CONTINUOUS
 10
489.738800
 20
142.793600
 11
489.738800
 21
147.293600
  0
LINE
  8
1
 62
7
  6
CONTINUOUS
 10
494.738800
 20
142.793600
 11
494.738800
 21
147.293600
  0
LINE
  8
1
 62
7
  6
CONTINUOUS
 10
494.238800
 20
142.793600
 11
494.238800
 21
147.293600
  0
LINE
  8
1
 62
7
  6
CONTINUOUS
 10
493.738800
 20
142.793600
 11
493.738800
 21
147.293600
  0
LINE
  8
1
 62
7
  6
CONTINUOUS
 10
493.238800
 20
142.793600
 11
493.238800
 21
147.293600
  0
LINE
  8
1
 62
7
  6
CONTINUOUS
 10
490.238800
 20
142.793600
 11
490.238800
 21
147.293600
  0
LINE
  8
1
 62
7
  6
CONTINUOUS
 10
495.238800
 20
142.793600
 11
495.238800
 21
147.293600
  0
LINE
  8
1
 62
7
  6
CONTINUOUS
 10
492.238800
 20
142.793600
 11
492.238800
 21
147.293600
  0
LINE
  8
1
 62
7
  6
CONTINUOUS
 10
491.238800
 20
142.793600
 11
491.238800
 21
147.293600
  0
LINE
  8
1
 62
7
  6
CONTINUOUS
 10
492.738800
 20
142.793600
 11
492.738800
 21
147.293600
  0
LINE
  8
1
 62
7
  6
CONTINUOUS
 10
486.738800
 20
142.793600
 11
486.738800
 21
147.293600
  0
LINE
  8
1
 62
7
  6
CONTINUOUS
 10
490.738800
 20
142.793600
 11
490.738800
 21
147.293600
  0
LINE
  8
1
 62
7
  6
CONTINUOUS
 10
491.738800
 20
142.793600
 11
491.738800
 21
147.293600
  0
LINE
  8
1
 62
7
  6
CONTINUOUS
 10
494.738800
 20
147.793600
 11
487.238800
 21
147.793600
  0
LINE
  8
1
 62
7
  6
CONTINUOUS
 10
455.290200
 20
253.293600
 11
467.290200
 21
253.293600
  0
LINE
  8
1
 62
7
  6
CONTINUOUS
 10
471.290200
 20
249.293600
 11
471.290200
 21
235.293600
  0
LINE
  8
1
 62
7
  6
CONTINUOUS
 10
445.290200
 20
231.293600
 11
477.290200
 21
231.293600
  0
LINE
  8
1
 62
7
  6
CONTINUOUS
 10
451.290200
 20
249.293600
 11
451.290200
 21
235.293600
  0
LINE
  8
1
 62
7
  6
CONTINUOUS
 10
480.290200
 20
228.293600
 11
480.290200
 21
219.293600
  0
LINE
  8
1
 62
7
  6
CONTINUOUS
 10
442.290200
 20
228.293600
 11
442.290200
 21
219.293600
  0
LINE
  8
1
 62
7
  6
CONTINUOUS
 10
451.290200
 20
222.293600
 11
451.290200
 21
219.293600
  0
LINE
  8
1
 62
7
  6
CONTINUOUS
 10
471.290200
 20
222.293600
 11
471.290200
 21
219.293600
  0
LINE
  8
1
 62
7
  6
CONTINUOUS
 10
442.290200
 20
223.293600
 11
450.290200
 21
223.293600
  0
LINE
  8
1
 62
7
  6
CONTINUOUS
 10
478.290200
 20
223.293600
 11
478.290200
 21
219.293600
  0
LINE
  8
1
 62
7
  6
CONTINUOUS
 10
472.290200
 20
223.293600
 11
480.290200
 21
223.293600
  0
LINE
  8
1
 62
7
  6
CONTINUOUS
 10
476.290200
 20
223.293600
 11
476.290200
 21
219.293600
  0
LINE
  8
1
 62
7
  6
CONTINUOUS
 10
446.290200
 20
223.293600
 11
446.290200
 21
219.293600
  0
LINE
  8
1
 62
7
  6
CONTINUOUS
 10
444.290200
 20
223.293600
 11
444.290200
 21
219.293600
  0
LINE
  8
1
 62
7
  6
CONTINUOUS
 10
455.290200
 20
228.293600
 11
455.290200
 21
219.293600
  0
LINE
  8
1
 62
7
  6
CONTINUOUS
 10
467.290200
 20
228.293600
 11
467.290200
 21
219.293600
  0
LINE
  8
1
 62
7
  6
CONTINUOUS
 10
467.290200
 20
219.293600
 11
467.290200
 21
214.293600
  0
LINE
  8
1
 62
7
  6
CONTINUOUS
 10
456.290200
 20
213.293600
 11
466.290200
 21
213.293600
  0
LINE
  8
1
 62
7
  6
CONTINUOUS
 10
455.290200
 20
219.293600
 11
455.290200
 21
214.293600
  0
LINE
  8
1
 62
7
  6
CONTINUOUS
 10
446.290200
 20
204.293600
 11
446.290200
 21
178.293600
  0
LINE
  8
1
 62
7
  6
CONTINUOUS
 10
476.290200
 20
204.293600
 11
476.290200
 21
178.293600
  0
LINE
  8
1
 62
7
  6
CONTINUOUS
 10
448.290200
 20
176.293600
 11
474.290200
 21
176.293600
  0
LINE
  8
1
 62
7
  6
CONTINUOUS
 10
488.290200
 20
213.793600
 11
484.290200
 21
213.793600
  0
LINE
  8
1
 62
7
  6
CONTINUOUS
 10
488.290200
 20
198.793600
 11
484.290200
 21
198.793600
  0
LINE
  8
1
 62
7
  6
CONTINUOUS
 10
434.290200
 20
213.793600
 11
438.290200
 21
213.793600
  0
LINE
  8
1
 62
7
  6
CONTINUOUS
 10
434.290200
 20
198.793600
 11
438.290200
 21
198.793600
  0
LINE
  8
1
 62
7
  6
CONTINUOUS
 10
434.290200
 20
150.793600
 11
438.290200
 21
150.793600
  0
LINE
  8
1
 62
7
  6
CONTINUOUS
 10
440.290200
 20
216.293600
 11
440.290200
 21
144.793600
  0
LINE
  8
1
 62
7
  6
CONTINUOUS
 10
434.290200
 20
165.793600
 11
438.290200
 21
165.793600
  0
LINE
  8
1
 62
7
  6
CONTINUOUS
 10
448.290200
 20
206.293600
 11
474.290200
 21
206.293600
  0
LINE
  8
1
 62
7
  6
CONTINUOUS
 10
488.290200
 20
150.793600
 11
484.290200
 21
150.793600
  0
LINE
  8
1
 62
7
  6
CONTINUOUS
 10
488.290200
 20
165.793600
 11
484.290200
 21
165.793600
  0
LINE
  8
1
 62
7
  6
CONTINUOUS
 10
427.290200
 20
142.793600
 11
461.290200
 21
142.793600
  0
LINE
  8
1
 62
7
  6
CONTINUOUS
 10
461.290200
 20
142.793600
 11
495.290200
 21
142.793600
  0
LINE
  8
1
 62
7
  6
CONTINUOUS
 10
484.290200
 20
150.293600
 11
494.290200
 21
150.293600
  0
LINE
  8
1
 62
7
  6
CONTINUOUS
 10
428.290200
 20
150.293600
 11
438.290200
 21
150.293600
  0
LINE
  8
1
 62
7
  6
CONTINUOUS
 10
482.290200
 20
216.293600
 11
482.290200
 21
144.793600
  0
LINE
  8
1
 62
7
  6
CONTINUOUS
 10
498.290200
 20
215.293600
 11
498.290200
 21
154.293600
  0
LINE
  8
1
 62
7
  6
CONTINUOUS
 10
428.290200
 20
219.293600
 11
494.290200
 21
219.293600
  0
LINE
  8
1
 62
7
  6
CONTINUOUS
 10
424.290200
 20
215.293600
 11
424.290200
 21
154.293600
  0
LINE
  8
1
 62
7
  6
CONTINUOUS
 10
438.290200
 20
116.793600
 11
438.290200
 21
86.793600
  0
LINE
  8
1
 62
7
  6
CONTINUOUS
 10
484.290200
 20
116.793600
 11
484.290200
 21
86.793600
  0
LINE
  8
1
 62
7
  6
CONTINUOUS
 10
438.290200
 20
116.793600
 11
441.919000
 21
116.793600
  0
LINE
  8
1
 62
7
  6
CONTINUOUS
 10
438.290200
 20
86.793600
 11
441.919000
 21
86.793600
  0
LINE
  8
1
 62
7
  6
CONTINUOUS
 10
496.290200
 20
141.793600
 11
496.290200
 21
133.293600
  0
LINE
  8
1
 62
7
  6
CONTINUOUS
 10
429.290200
 20
132.293600
 11
429.290200
 21
101.793600
  0
LINE
  8
1
 62
7
  6
CONTINUOUS
 10
493.290200
 20
132.293600
 11
493.290200
 21
101.793600
  0
LINE
  8
1
 62
7
  6
CONTINUOUS
 10
480.661600
 20
116.793600
 11
484.290200
 21
116.793600
  0
LINE
  8
1
 62
7
  6
CONTINUOUS
 10
480.661600
 20
86.793600
 11
484.290200
 21
86.793600
  0
LINE
  8
1
 62
7
  6
CONTINUOUS
 10
426.290200
 20
141.793600
 11
426.290200
 21
133.293600
  0
LINE
  8
1
 62
7
  6
CONTINUOUS
 10
426.290200
 20
138.293600
 11
496.290200
 21
138.293600
  0
LINE
  8
1
 62
7
  6
CONTINUOUS
 10
427.290200
 20
132.293600
 11
495.290200
 21
132.293600
  0
LINE
  8
1
 62
7
  6
CONTINUOUS
 10
288.968000
 20
231.472400
 11
288.890200
 21
231.093600
  0
LINE
  8
1
 62
7
  6
CONTINUOUS
 10
289.173200
 20
231.800200
 11
288.968000
 21
231.472400
  0
LINE
  8
1
 62
7
  6
CONTINUOUS
 10
289.458200
 20
232.062600
 11
289.173200
 21
231.800200
  0
LINE
  8
1
 62
7
  6
CONTINUOUS
 10
289.789400
 20
232.264000
 11
289.458200
 21
232.062600
  0
LINE
  8
1
 62
7
  6
CONTINUOUS
 10
290.147400
 20
232.412600
 11
289.789400
 21
232.264000
  0
LINE
  8
1
 62
7
  6
CONTINUOUS
 10
290.522400
 20
232.514800
 11
290.147400
 21
232.412600
  0
LINE
  8
1
 62
7
  6
CONTINUOUS
 10
290.905000
 20
232.574200
 11
290.522400
 21
232.514800
  0
LINE
  8
1
 62
7
  6
CONTINUOUS
 10
291.292400
 20
232.593600
 11
290.905000
 21
232.574200
  0
LINE
  8
1
 62
7
  6
CONTINUOUS
 10
291.679800
 20
232.573800
 11
291.292400
 21
232.593600
  0
LINE
  8
1
 62
7
  6
CONTINUOUS
 10
292.063000
 20
232.513800
 11
291.679800
 21
232.573800
  0
LINE
  8
1
 62
7
  6
CONTINUOUS
 10
292.437000
 20
232.411400
 11
292.063000
 21
232.513800
  0
LINE
  8
1
 62
7
  6
CONTINUOUS
 10
292.794800
 20
232.262200
 11
292.437000
 21
232.411400
  0
LINE
  8
1
 62
7
  6
CONTINUOUS
 10
293.125000
 20
232.060600
 11
292.794800
 21
232.262200
  0
LINE
  8
1
 62
7
  6
CONTINUOUS
 10
293.409000
 20
231.798200
 11
293.125000
 21
232.060600
  0
LINE
  8
1
 62
7
  6
CONTINUOUS
 10
293.613200
 20
231.470800
 11
293.409000
 21
231.798200
  0
LINE
  8
1
 62
7
  6
CONTINUOUS
 10
293.690200
 20
231.093600
 11
293.613200
 21
231.470800
  0
LINE
  8
1
 62
7
  6
CONTINUOUS
 10
289.173200
 20
231.800200
 11
288.968000
 21
231.472400
  0
LINE
  8
1
 62
7
  6
CONTINUOUS
 10
289.458200
 20
232.062600
 11
289.173200
 21
231.800200
  0
LINE
  8
1
 62
7
  6
CONTINUOUS
 10
289.789400
 20
232.264000
 11
289.458200
 21
232.062600
  0
LINE
  8
1
 62
7
  6
CONTINUOUS
 10
290.147400
 20
232.412600
 11
289.789400
 21
232.264000
  0
LINE
  8
1
 62
7
  6
CONTINUOUS
 10
290.522400
 20
232.514800
 11
290.147400
 21
232.412600
  0
LINE
  8
1
 62
7
  6
CONTINUOUS
 10
290.905000
 20
232.574200
 11
290.522400
 21
232.514800
  0
LINE
  8
1
 62
7
  6
CONTINUOUS
 10
291.292400
 20
232.593600
 11
290.905000
 21
232.574200
  0
LINE
  8
1
 62
7
  6
CONTINUOUS
 10
291.679800
 20
232.573800
 11
291.292400
 21
232.593600
  0
LINE
  8
1
 62
7
  6
CONTINUOUS
 10
292.063000
 20
232.513800
 11
291.679800
 21
232.573800
  0
LINE
  8
1
 62
7
  6
CONTINUOUS
 10
292.437000
 20
232.411400
 11
292.063000
 21
232.513800
  0
LINE
  8
1
 62
7
  6
CONTINUOUS
 10
292.794800
 20
232.262200
 11
292.437000
 21
232.411400
  0
LINE
  8
1
 62
7
  6
CONTINUOUS
 10
293.125000
 20
232.060600
 11
292.794800
 21
232.262200
  0
LINE
  8
1
 62
7
  6
CONTINUOUS
 10
293.409000
 20
231.798200
 11
293.125000
 21
232.060600
  0
LINE
  8
1
 62
7
  6
CONTINUOUS
 10
293.613200
 20
231.470800
 11
293.409000
 21
231.798200
  0
ARC
  8
1
 62
7
  6
CONTINUOUS
 10
213.990200
 20
215.293600
 40
5.800000
 50
136.397200
 51
-136.397200
  0
ARC
  8
1
 62
7
  6
CONTINUOUS
 10
213.990200
 20
149.293600
 40
5.800000
 50
136.397200
 51
-136.397200
  0
ARC
  8
1
 62
7
  6
CONTINUOUS
 10
294.290200
 20
228.293600
 40
3.000000
 50
0.000000
 51
90.000000
  0
ARC
  8
1
 62
7
  6
CONTINUOUS
 10
265.290200
 20
249.293600
 40
4.000000
 50
90.000000
 51
180.000000
  0
ARC
  8
1
 62
7
  6
CONTINUOUS
 10
277.290200
 20
249.293600
 40
4.000000
 50
0.000000
 51
90.000000
  0
ARC
  8
1
 62
7
  6
CONTINUOUS
 10
255.290200
 20
228.293600
 40
3.000000
 50
90.000000
 51
180.000000
  0
ARC
  8
1
 62
7
  6
CONTINUOUS
 10
285.290200
 20
235.293600
 40
4.000000
 50
180.000000
 51
-90.000000
  0
ARC
  8
1
 62
7
  6
CONTINUOUS
 10
257.290200
 20
235.293600
 40
4.000000
 50
-90.000000
 51
0.000000
  0
ARC
  8
1
 62
7
  6
CONTINUOUS
 10
288.290200
 20
175.293600
 40
1.000000
 50
0.000000
 51
90.000000
  0
ARC
  8
1
 62
7
  6
CONTINUOUS
 10
290.290200
 20
212.293600
 40
1.000000
 50
90.000000
 51
180.000000
  0
ARC
  8
1
 62
7
  6
CONTINUOUS
 10
261.790200
 20
220.793600
 40
1.500000
 50
-90.000000
 51
0.000000
  0
ARC
  8
1
 62
7
  6
CONTINUOUS
 10
261.790200
 20
220.793600
 40
1.500000
 50
0.000000
 51
90.000000
  0
ARC
  8
1
 62
7
  6
CONTINUOUS
 10
288.290200
 20
207.293600
 40
1.000000
 50
-90.000000
 51
0.000000
  0
ARC
  8
1
 62
7
  6
CONTINUOUS
 10
290.290200
 20
155.293600
 40
1.000000
 50
0.000000
 51
90.000000
  0
ARC
  8
1
 62
7
  6
CONTINUOUS
 10
293.290200
 20
144.793600
 40
2.000000
 50
180.000000
 51
-90.000000
  0
ARC
  8
1
 62
7
  6
CONTINUOUS
 10
250.290200
 20
144.293600
 40
1.000000
 50
0.000000
 51
60.000000
  0
ARC
  8
1
 62
7
  6
CONTINUOUS
 10
237.290200
 20
141.793600
 40
1.000000
 50
90.000000
 51
180.000000
  0
ARC
  8
1
 62
7
  6
CONTINUOUS
 10
305.290200
 20
141.793600
 40
1.000000
 50
0.000000
 51
90.000000
  0
ARC
  8
1
 62
7
  6
CONTINUOUS
 10
290.290200
 20
157.293600
 40
1.000000
 50
180.000000
 51
-90.000000
  0
ARC
  8
1
 62
7
  6
CONTINUOUS
 10
250.290200
 20
143.793600
 40
1.000000
 50
-90.000000
 51
0.000000
  0
ARC
  8
1
 62
7
  6
CONTINUOUS
 10
255.383400
 20
81.340600
 40
2.000000
 50
104.219800
 51
130.000000
  0
ARC
  8
1
 62
7
  6
CONTINUOUS
 10
287.197200
 20
81.340600
 40
2.000000
 50
50.000000
 51
144.866000
  0
ARC
  8
1
 62
7
  6
CONTINUOUS
 10
255.383400
 20
81.340600
 40
2.000000
 50
35.134000
 51
130.000000
  0
ARC
  8
1
 62
7
  6
CONTINUOUS
 10
282.290200
 20
84.793600
 40
4.000000
 50
-90.000000
 51
-35.134000
  0
ARC
  8
1
 62
7
  6
CONTINUOUS
 10
293.476200
 20
81.293600
 40
2.000000
 50
-130.000000
 51
-90.000000
  0
ARC
  8
1
 62
7
  6
CONTINUOUS
 10
260.290200
 20
84.793600
 40
4.000000
 50
-144.866000
 51
-90.000000
  0
ARC
  8
1
 62
7
  6
CONTINUOUS
 10
249.104400
 20
81.293600
 40
2.000000
 50
-90.000000
 51
-50.000000
  0
ARC
  8
1
 62
7
  6
CONTINUOUS
 10
232.290200
 20
78.293600
 40
1.000000
 50
90.000000
 51
180.000000
  0
ARC
  8
1
 62
7
  6
CONTINUOUS
 10
310.290200
 20
78.293600
 40
1.000000
 50
0.000000
 51
90.000000
  0
ARC
  8
1
 62
7
  6
CONTINUOUS
 10
312.290200
 20
125.293600
 40
1.000000
 50
90.000000
 51
180.000000
  0
ARC
  8
1
 62
7
  6
CONTINUOUS
 10
304.290200
 20
125.293600
 40
1.000000
 50
180.000000
 51
-90.000000
  0
ARC
  8
1
 62
7
  6
CONTINUOUS
 10
230.290200
 20
125.293600
 40
1.000000
 50
0.000000
 51
90.000000
  0
ARC
  8
1
 62
7
  6
CONTINUOUS
 10
304.290200
 20
131.293600
 40
1.000000
 50
90.000000
 51
180.000000
  0
ARC
  8
1
 62
7
  6
CONTINUOUS
 10
310.290200
 20
125.293600
 40
1.000000
 50
-90.000000
 51
0.000000
  0
ARC
  8
1
 62
7
  6
CONTINUOUS
 10
232.290200
 20
125.293600
 40
1.000000
 50
180.000000
 51
-90.000000
  0
ARC
  8
1
 62
7
  6
CONTINUOUS
 10
238.290200
 20
131.293600
 40
1.000000
 50
0.000000
 51
90.000000
  0
ARC
  8
1
 62
7
  6
CONTINUOUS
 10
238.290200
 20
125.293600
 40
1.000000
 50
-90.000000
 51
0.000000
  0
ARC
  8
1
 62
7
  6
CONTINUOUS
 10
230.290200
 20
78.293600
 40
1.000000
 50
-90.000000
 51
0.000000
  0
ARC
  8
1
 62
7
  6
CONTINUOUS
 10
305.290200
 20
133.293600
 40
1.000000
 50
-90.000000
 51
0.000000
  0
ARC
  8
1
 62
7
  6
CONTINUOUS
 10
237.290200
 20
133.293600
 40
1.000000
 50
180.000000
 51
-90.000000
  0
ARC
  8
1
 62
7
  6
CONTINUOUS
 10
312.290200
 20
78.293600
 40
1.000000
 50
180.000000
 51
-90.000000
  0
LINE
  8
1
 62
7
  6
CONTINUOUS
 10
304.738800
 20
147.793600
 11
305.238800
 21
147.293600
  0
LINE
  8
1
 62
7
  6
CONTINUOUS
 10
296.738800
 20
147.293600
 11
297.238800
 21
147.793600
  0
LINE
  8
1
 62
7
  6
CONTINUOUS
 10
305.238800
 20
147.293600
 11
296.738800
 21
147.293600
  0
LINE
  8
1
 62
7
  6
CONTINUOUS
 10
241.841800
 20
142.793600
 11
241.841800
 21
145.293600
  0
LINE
  8
1
 62
7
  6
CONTINUOUS
 10
240.841800
 20
142.793600
 11
240.841800
 21
145.293600
  0
LINE
  8
1
 62
7
  6
CONTINUOUS
 10
240.341800
 20
142.793600
 11
240.341800
 21
145.293600
  0
LINE
  8
1
 62
7
  6
CONTINUOUS
 10
241.341800
 20
142.793600
 11
241.341800
 21
145.293600
  0
LINE
  8
1
 62
7
  6
CONTINUOUS
 10
239.841800
 20
142.793600
 11
239.841800
 21
145.293600
  0
LINE
  8
1
 62
7
  6
CONTINUOUS
 10
237.341800
 20
142.793600
 11
237.341800
 21
145.293600
  0
LINE
  8
1
 62
7
  6
CONTINUOUS
 10
244.341800
 20
142.793600
 11
244.341800
 21
145.293600
  0
LINE
  8
1
 62
7
  6
CONTINUOUS
 10
244.841800
 20
142.793600
 11
244.841800
 21
145.293600
  0
LINE
  8
1
 62
7
  6
CONTINUOUS
 10
245.341800
 20
142.793600
 11
245.341800
 21
145.293600
  0
LINE
  8
1
 62
7
  6
CONTINUOUS
 10
243.841800
 20
142.793600
 11
243.841800
 21
145.293600
  0
LINE
  8
1
 62
7
  6
CONTINUOUS
 10
239.341800
 20
142.793600
 11
239.341800
 21
145.293600
  0
LINE
  8
1
 62
7
  6
CONTINUOUS
 10
242.341800
 20
142.793600
 11
242.341800
 21
145.293600
  0
LINE
  8
1
 62
7
  6
CONTINUOUS
 10
242.841800
 20
142.793600
 11
242.841800
 21
145.293600
  0
LINE
  8
1
 62
7
  6
CONTINUOUS
 10
238.841800
 20
142.793600
 11
238.841800
 21
145.293600
  0
LINE
  8
1
 62
7
  6
CONTINUOUS
 10
243.341800
 20
142.793600
 11
243.341800
 21
145.293600
  0
LINE
  8
1
 62
7
  6
CONTINUOUS
 10
238.341800
 20
142.793600
 11
238.341800
 21
145.293600
  0
LINE
  8
1
 62
7
  6
CONTINUOUS
 10
237.841800
 20
142.793600
 11
237.841800
 21
145.293600
  0
LINE
  8
1
 62
7
  6
CONTINUOUS
 10
245.841800
 20
142.793600
 11
245.841800
 21
145.293600
  0
LINE
  8
1
 62
7
  6
CONTINUOUS
 10
296.738800
 20
142.793600
 11
296.738800
 21
147.293600
  0
LINE
  8
1
 62
7
  6
CONTINUOUS
 10
297.238800
 20
142.793600
 11
297.238800
 21
147.293600
  0
LINE
  8
1
 62
7
  6
CONTINUOUS
 10
297.738800
 20
142.793600
 11
297.738800
 21
147.293600
  0
LINE
  8
1
 62
7
  6
CONTINUOUS
 10
298.238800
 20
142.793600
 11
298.238800
 21
147.293600
  0
LINE
  8
1
 62
7
  6
CONTINUOUS
 10
298.738800
 20
142.793600
 11
298.738800
 21
147.293600
  0
LINE
  8
1
 62
7
  6
CONTINUOUS
 10
299.238800
 20
142.793600
 11
299.238800
 21
147.293600
  0
LINE
  8
1
 62
7
  6
CONTINUOUS
 10
299.738800
 20
142.793600
 11
299.738800
 21
147.293600
  0
LINE
  8
1
 62
7
  6
CONTINUOUS
 10
304.738800
 20
142.793600
 11
304.738800
 21
147.293600
  0
LINE
  8
1
 62
7
  6
CONTINUOUS
 10
304.238800
 20
142.793600
 11
304.238800
 21
147.293600
  0
LINE
  8
1
 62
7
  6
CONTINUOUS
 10
303.738800
 20
142.793600
 11
303.738800
 21
147.293600
  0
LINE
  8
1
 62
7
  6
CONTINUOUS
 10
303.238800
 20
142.793600
 11
303.238800
 21
147.293600
  0
LINE
  8
1
 62
7
  6
CONTINUOUS
 10
300.238800
 20
142.793600
 11
300.238800
 21
147.293600
  0
LINE
  8
1
 62
7
  6
CONTINUOUS
 10
305.238800
 20
142.793600
 11
305.238800
 21
147.293600
  0
LINE
  8
1
 62
7
  6
CONTINUOUS
 10
302.238800
 20
142.793600
 11
302.238800
 21
147.293600
  0
LINE
  8
1
 62
7
  6
CONTINUOUS
 10
301.238800
 20
142.793600
 11
301.238800
 21
147.293600
  0
LINE
  8
1
 62
7
  6
CONTINUOUS
 10
302.738800
 20
142.793600
 11
302.738800
 21
147.293600
  0
LINE
  8
1
 62
7
  6
CONTINUOUS
 10
296.738800
 20
142.793600
 11
296.738800
 21
147.293600
  0
LINE
  8
1
 62
7
  6
CONTINUOUS
 10
300.738800
 20
142.793600
 11
300.738800
 21
147.293600
  0
LINE
  8
1
 62
7
  6
CONTINUOUS
 10
301.738800
 20
142.793600
 11
301.738800
 21
147.293600
  0
LINE
  8
1
 62
7
  6
CONTINUOUS
 10
304.738800
 20
147.793600
 11
297.238800
 21
147.793600
  0
LINE
  8
1
 62
7
  6
CONTINUOUS
 10
209.790200
 20
219.293600
 11
215.799400
 21
219.293600
  0
LINE
  8
1
 62
7
  6
CONTINUOUS
 10
209.790200
 20
211.293600
 11
211.290200
 21
211.293600
  0
LINE
  8
1
 62
7
  6
CONTINUOUS
 10
209.790200
 20
153.293600
 11
211.290200
 21
153.293600
  0
LINE
  8
1
 62
7
  6
CONTINUOUS
 10
209.790200
 20
145.293600
 11
215.799400
 21
145.293600
  0
LINE
  8
1
 62
7
  6
CONTINUOUS
 10
211.290200
 20
182.293600
 11
211.290200
 21
219.293600
  0
LINE
  8
1
 62
7
  6
CONTINUOUS
 10
211.290200
 20
182.293600
 11
211.290200
 21
145.293600
  0
LINE
  8
1
 62
7
  6
CONTINUOUS
 10
213.290200
 20
219.293600
 11
213.290200
 21
145.293600
  0
LINE
  8
1
 62
7
  6
CONTINUOUS
 10
214.290200
 20
219.293600
 11
214.290200
 21
145.293600
  0
LINE
  8
1
 62
7
  6
CONTINUOUS
 10
211.290200
 20
219.293600
 11
250.290200
 21
219.293600
  0
LINE
  8
1
 62
7
  6
CONTINUOUS
 10
211.290200
 20
145.293600
 11
250.290200
 21
145.293600
  0
LINE
  8
1
 62
7
  6
CONTINUOUS
 10
272.790200
 20
233.293600
 11
279.790200
 21
233.293600
  0
LINE
  8
1
 62
7
  6
CONTINUOUS
 10
269.790200
 20
233.293600
 11
262.790200
 21
233.293600
  0
LINE
  8
1
 62
7
  6
CONTINUOUS
 10
297.290200
 20
219.293600
 11
297.290200
 21
228.293600
  0
LINE
  8
1
 62
7
  6
CONTINUOUS
 10
277.290200
 20
253.293600
 11
265.290200
 21
253.293600
  0
LINE
  8
1
 62
7
  6
CONTINUOUS
 10
257.290200
 20
231.293600
 11
255.290200
 21
231.293600
  0
LINE
  8
1
 62
7
  6
CONTINUOUS
 10
252.290200
 20
219.693600
 11
262.893600
 21
219.777400
  0
LINE
  8
1
 62
7
  6
CONTINUOUS
 10
252.290200
 20
219.693600
 11
252.290200
 21
228.293600
  0
LINE
  8
1
 62
7
  6
CONTINUOUS
 10
261.290200
 20
235.293600
 11
261.290200
 21
249.293600
  0
LINE
  8
1
 62
7
  6
CONTINUOUS
 10
281.290200
 20
235.293600
 11
281.290200
 21
249.293600
  0
LINE
  8
1
 62
7
  6
CONTINUOUS
 10
288.290200
 20
176.293600
 11
288.290200
 21
206.293600
  0
LINE
  8
1
 62
7
  6
CONTINUOUS
 10
289.290200
 20
207.293600
 11
289.290200
 21
212.293600
  0
LINE
  8
1
 62
7
  6
CONTINUOUS
 10
297.290200
 20
213.293600
 11
297.290200
 21
219.293600
  0
LINE
  8
1
 62
7
  6
CONTINUOUS
 10
297.290200
 20
213.293600
 11
290.290200
 21
213.293600
  0
LINE
  8
1
 62
7
  6
CONTINUOUS
 10
261.790200
 20
219.293600
 11
250.290200
 21
219.293600
  0
LINE
  8
1
 62
7
  6
CONTINUOUS
 10
251.290200
 20
143.793600
 11
251.290200
 21
144.293600
  0
LINE
  8
1
 62
7
  6
CONTINUOUS
 10
291.290200
 20
144.793600
 11
291.290200
 21
155.293600
  0
LINE
  8
1
 62
7
  6
CONTINUOUS
 10
289.290200
 20
157.293600
 11
289.290200
 21
175.293600
  0
LINE
  8
1
 62
7
  6
CONTINUOUS
 10
305.290200
 20
142.793600
 11
293.290200
 21
142.793600
  0
LINE
  8
1
 62
7
  6
CONTINUOUS
 10
254.097800
 20
82.872800
 11
250.390000
 21
79.761600
  0
LINE
  8
1
 62
7
  6
CONTINUOUS
 10
271.290200
 20
80.793600
 11
282.290200
 21
80.793600
  0
LINE
  8
1
 62
7
  6
CONTINUOUS
 10
288.482800
 20
82.872800
 11
292.190600
 21
79.761600
  0
LINE
  8
1
 62
7
  6
CONTINUOUS
 10
310.290200
 20
79.293600
 11
293.476200
 21
79.293600
  0
LINE
  8
1
 62
7
  6
HIDDEN
 10
256.914600
 20
85.236200
 11
256.589400
 21
84.963400
  0
LINE
  8
1
 62
7
  6
CONTINUOUS
 10
271.290200
 20
80.793600
 11
260.290200
 21
80.793600
  0
LINE
  8
1
 62
7
  6
CONTINUOUS
 10
244.772200
 20
79.293600
 11
232.290200
 21
79.293600
  0
LINE
  8
1
 62
7
  6
CONTINUOUS
 10
310.290200
 20
79.293600
 11
297.808400
 21
79.293600
  0
LINE
  8
1
 62
7
  6
CONTINUOUS
 10
316.290200
 20
77.293600
 11
316.290200
 21
126.293600
  0
LINE
  8
1
 62
7
  6
CONTINUOUS
 10
316.290200
 20
126.293600
 11
312.290200
 21
126.293600
  0
LINE
  8
1
 62
7
  6
CONTINUOUS
 10
310.290200
 20
124.293600
 11
304.290200
 21
124.293600
  0
LINE
  8
1
 62
7
  6
CONTINUOUS
 10
316.290200
 20
77.293600
 11
312.290200
 21
77.293600
  0
LINE
  8
1
 62
7
  6
CONTINUOUS
 10
306.290200
 20
133.293600
 11
306.290200
 21
141.793600
  0
LINE
  8
1
 62
7
  6
CONTINUOUS
 10
238.290200
 20
132.293600
 11
237.290200
 21
132.293600
  0
LINE
  8
1
 62
7
  6
CONTINUOUS
 10
303.290200
 20
125.293600
 11
303.290200
 21
131.293600
  0
LINE
  8
1
 62
7
  6
CONTINUOUS
 10
239.290200
 20
125.293600
 11
239.290200
 21
131.293600
  0
LINE
  8
1
 62
7
  6
CONTINUOUS
 10
236.290200
 20
133.293600
 11
236.290200
 21
141.793600
  0
LINE
  8
1
 62
7
  6
CONTINUOUS
 10
304.290200
 20
132.293600
 11
305.290200
 21
132.293600
  0
LINE
  8
1
 62
7
  6
CONTINUOUS
 10
226.290200
 20
77.293600
 11
230.290200
 21
77.293600
  0
LINE
  8
1
 62
7
  6
CONTINUOUS
 10
232.290200
 20
124.293600
 11
238.290200
 21
124.293600
  0
LINE
  8
1
 62
7
  6
CONTINUOUS
 10
226.290200
 20
126.293600
 11
230.290200
 21
126.293600
  0
LINE
  8
1
 62
7
  6
CONTINUOUS
 10
226.290200
 20
77.293600
 11
226.290200
 21
126.293600
  0
LINE
  8
1
 62
7
  6
CONTINUOUS
 10
232.290200
 20
79.293600
 11
249.104400
 21
79.293600
  0
LINE
  8
1
 62
7
  6
CONTINUOUS
 10
271.290200
 20
138.293600
 11
236.290200
 21
138.293600
  0
LINE
  8
1
 62
7
  6
CONTINUOUS
 10
271.290200
 20
142.793600
 11
237.290200
 21
142.793600
  0
LINE
  8
1
 62
7
  6
CONTINUOUS
 10
271.290200
 20
138.293600
 11
306.290200
 21
138.293600
  0
LINE
  8
1
 62
7
  6
CONTINUOUS
 10
271.290200
 20
142.793600
 11
305.290200
 21
142.793600
  0
LINE
  8
1
 62
7
  6
CONTINUOUS
 10
248.440200
 20
145.293600
 11
248.440200
 21
219.293600
  0
LINE
  8
1
 62
7
  6
CONTINUOUS
 10
250.290200
 20
145.293600
 11
250.290200
 21
219.293600
  0
LINE
  8
1
 62
7
  6
CONTINUOUS
 10
294.290200
 20
231.293600
 11
291.290300
 21
231.293600
  0
LINE
  8
1
 62
7
  6
CONTINUOUS
 10
291.290300
 20
231.293600
 11
285.290200
 21
231.293600
  0
LINE
  8
1
 62
7
  6
CONTINUOUS
 10
293.649373
 20
231.293600
 11
293.613200
 21
231.470800
  0
LINE
  8
1
 62
7
  6
CONTINUOUS
 10
288.968000
 20
231.472400
 11
288.935359
 21
231.313476
  0
ENDSEC
  0
EOF
