  0
SECTION
  2
HEADER
  9
$ACADVER
  1
AC1003
  9
$INSBASE
 10
0.000000
 20
0.000000
  9
$EXTMIN
 10
0.000000
 20
0.000000
  9
$EXTMAX
 10
420.000000
 20
297.000000
  9
$LIMMIN
 10
0.000000
 20
0.000000
  9
$LIMMAX
 10
420.000000
 20
297.000000
  9
$VIEWCTR
 10
210.000000
 20
148.500000
  9
$VIEWSIZE
 40
297.000000
  9
$PEXTMIN
 10
0.000000
 20
0.000000
 30
0.000000
  9
$PEXTMAX
 10
420.000000
 20
297.000000
 30
0.000000
  9
$SNAPMODE
 70
     0
  9
$SNAPUNIT
 10
1.000000
 20
1.000000
  9
$SNAPBASE
 10
0.000000
 20
0.000000
  9
$SNAPANG
 50
0.000000
  9
$SNAPISOPAIR
 70
     0
  9
$SNAPSTYLE
 70
     0
  9
$GRIDMODE
 70
     0
  9
$GRIDUNIT
 10
0.000000
 20
0.000000
  9
$ORTHOMODE
 70
     0
  9
$REGENMODE
 70
     1
  9
$FILLMODE
 70
     1
  9
$QTEXTMODE
 70
     0
  9
$DRAGMODE
 70
     2
  9
$LTSCALE
 40
0.250000
  9
$OSMODE
 70
     0
  9
$ATTMODE
 70
     1
  9
$TEXTSIZE
 40
4.000000
  9
$TRACEWID
 40
0.050000
  9
$TEXTSTYLE
  7
STANDARD
  9
$CLAYER
  8
0
  9
$CELTYPE
  6
BYLAYER
  9
$CECOLOR
 62
   256
  9
$DIMSCALE
 40
1.000000
  9
$DIMASZ
 40
1.000000
  9
$DIMEXO
 40
0.000000
  9
$DIMDLI
 40
0.500000
  9
$DIMRND
 40
0.000000
  9
$DIMDLE
 40
0.000000
  9
$DIMEXE
 40
0.000000
  9
$DIMTP
 40
0.000000
  9
$DIMTM
 40
0.000000
  9
$DIMTXT
 40
4.000000
  9
$DIMCEN
 40
0.000000
  9
$DIMTSZ
 40
0.000000
  9
$DIMTOL
 70
     0
  9
$DIMLIM
 70
     0
  9
$DIMTIH
 70
     1
  9
$DIMTOH
 70
     1
  9
$DIMSE1
 70
     0
  9
$DIMSE2
 70
     0
  9
$DIMTAD
 70
     0
  9
$DIMZIN
 70
     0
  9
$DIMBLK
  1

  9
$DIMASO
 70
     0
  9
$DIMSHO
 70
     0
  9
$DIMPOST
  1

  9
$DIMAPOST
  1

  9
$DIMALT
 70
     0
  9
$DIMALTD
 70
     0
  9
$DIMALTF
 40
25.400000
  9
$DIMLFAC
 40
1.000000
  9
$DIMTOFL
 70
     0
  9
$DIMTVP
 40
0.000000
  9
$DIMTIX
 70
     0
  9
$DIMSOXD
 70
     0
  9
$DIMSAH
 70
     0
  9
$DIMBLKL
  1

  9
$DIMBLKR
  1

  9
$LUNITS
 70
     2
  9
$LUPREC
 70
     2
  9
$AXISMODE
 70
     0
  9
$AXISUNIT
 10
1.000000
 20
1.000000
  9
$SKETCHINC
 40
0.000000
  9
$FILLETRAD
 40
0.000000
  9
$AUNITS
 70
     1
  9
$AUPREC
 70
     2
  9
$MENU
  1
ACAD
  9
$ELEVATION
 40
0.000000
  9
$THICKNESS
 40
0.000000
  9
$VIEWDIR
 10
0.000000
 20
0.000000
 30
1.000000
  9
$LIMCHECK
 70
     1
  9
$BLIPMODE
 70
     1
  9
$CHAMFERA
 40
0.000000
  9
$CHAMFERB
 40
0.000000
  9
$FASTZOOM
 70
     1
  9
$SKPOLY
 70
     0
  9
$TDCREATE
 40
0.000000
  9
$TDUPDATE
 40
0.000000
  9
$TDINDWG
 40
0.000000
  9
$TDUSRTIMER
 40
0.000000
  9
$USRTIMER
 70
     1
  9
$ANGBASE
 50
0.000000
  9
$ANGDIR
 70
     0
  9
$PDMODE
 70
     0
  9
$PDSIZE
 40
0.000000
  9
$PLINEWID
 40
0.000000
  9
$COORDS
 70
     2
  9
$USERI1
 70
     0
  9
$USERI2
 70
     0
  9
$USERI3
 70
     0
  9
$USERI4
 70
     0
  9
$USERI5
 70
     0
  9
$USERR1
 40
0.000000
  9
$USERR2
 40
0.000000
  9
$USERR3
 40
0.000000
  9
$USERR4
 40
0.000000
  9
$USERR5
 40
0.000000
  0
ENDSEC
  0
SECTION
  2
TABLES
  0
TABLE
  2
LTYPE
 70
     5
  0
LTYPE
  2
CONTINUOUS
 70
    64
  3
Solid line
 72
    65
 73
     0
 40
0.0
  0
LTYPE
  2
HIDDEN
 70
    64
  3
------------------------
 72
    65
 73
     2
 40
12.6
 49
8.4
 49
-4.2
  0
LTYPE
  2
DOT
 70
    64
  3
¥¥¥¥¥¥¥¥¥¥¥¥¥¥¥¥¥¥¥¥¥¥¥¥
 72
    65
 73
     2
 40
8.0
 49
6.0
 49
-2.0
  0
LTYPE
  2
DASHDOT
 70
    64
  3
--¥--¥--¥--¥--¥--¥--¥--
 72
    65
 73
     4
 40
50.5
 49
30.0
 49
-9.0
 49
2.5
 49
-9.0
  0
LTYPE
  2
DIVIDE
 70
    64
  3
--¥¥--¥¥--¥¥--¥¥--¥¥--
 72
    65
 73
     6
 40
58.0
 49
30.0
 49
-9.0
 49
2.5
 49
-5.0
 49
2.5
 49
-9.0
  0
LTYPE
  2
ACAD_ISO06W100
 70
    64
  3
____ ... ____ ... ____
 72
    65
 73
     8
 40
37.5
 49
24.0
 49
-3.0
 49
0.5
 49
-3.0
 49
0.5
 49
-3.0
 49
0.5
 49
-3.0
  0
LTYPE
  2
ACAD_ISO14W100
 70
    64
  3
__ . . . __ . . . __ . . . 
 72
    65
 73
     8
 40
25.5
 49
12.0
 49
-3.0
 49
0.5
 49
-3.0
 49
0.5
 49
-3.0
 49
0.5
 49
-3.0
  0
ENDTAB
  0
TABLE
  2
LAYER
 70
2
  0
LAYER
  2
1
 70
64
 62
7
  6
CONTINUOUS
  0
LAYER
  2
128
 70
64
 62
7
  6
CONTINUOUS
  0
ENDTAB
  0
TABLE
  2
STYLE
 70
     2
  0
STYLE
  2
STANDARD
 70
    64
 40
0.0
 41
1.0
 50
0.0
 71
     0
 42
0.2
  3
TXT
  4

  0
STYLE
  2
KANJI
 70
    64
 40
0.0
 41
1.0
 50
0.0
 71
     0
 42
0.2
  3
TXT
  4
BIGFONT
  0
ENDTAB
  0
TABLE
  2
VIEW
 70
     0
  0
ENDTAB
  0
ENDSEC
  0
SECTION
  2
BLOCKS
  0
ENDSEC
  0
SECTION
  2
ENTITIES
  0
LINE
  8
128
 62
7
  6
DASHDOT
 10
265.997600
 20
27.914197
 11
265.997600
 21
230.833573
  0
LINE
  8
128
 62
7
  6
DASHDOT
 10
97.274009
 20
250.988510
 11
97.274009
 21
18.157816
  0
LINE
  8
128
 62
7
  6
DASHDOT
 10
149.159536
 20
60.000000
 11
43.866373
 21
60.000000
  0
LINE
  8
128
 62
7
  6
DASHDOT
 10
265.997600
 20
223.250177
 11
265.997600
 21
376.569516
  0
LINE
  8
128
 62
7
  6
DASHDOT
 10
192.551281
 20
310.149771
 11
337.113578
 21
310.149771
  0
LINE
  8
128
 62
7
  6
DASHDOT
 10
336.253294
 20
60.000000
 11
195.590850
 21
60.000000
  0
ARC
  8
1
 62
7
  6
CONTINUOUS
 10
325.999944
 20
283.948698
 40
1.000089
 50
180.000000
 51
-90.000000
  0
ARC
  8
1
 62
7
  6
CONTINUOUS
 10
325.999944
 20
336.350845
 40
1.000089
 50
90.000000
 51
180.000000
  0
ARC
  8
1
 62
7
  6
CONTINUOUS
 10
322.999827
 20
335.350756
 40
2.000028
 50
-90.000000
 51
0.000000
  0
CIRCLE
  8
1
 62
7
  6
CONTINUOUS
 10
290.923024
 20
266.846830
 40
4.250116
  0
CIRCLE
  8
1
 62
7
  6
CONTINUOUS
 10
290.923024
 20
266.846830
 40
2.290139
  0
CIRCLE
  8
1
 62
7
  6
CONTINUOUS
 10
240.921120
 20
353.452713
 40
4.250116
  0
CIRCLE
  8
1
 62
7
  6
CONTINUOUS
 10
240.921120
 20
353.452713
 40
2.290139
  0
CIRCLE
  8
1
 62
7
  6
CONTINUOUS
 10
290.923024
 20
353.452713
 40
4.250116
  0
CIRCLE
  8
1
 62
7
  6
CONTINUOUS
 10
290.923024
 20
353.452713
 40
2.290139
  0
ARC
  8
1
 62
7
  6
CONTINUOUS
 10
322.999827
 20
284.948787
 40
2.000028
 50
0.000000
 51
90.000000
  0
CIRCLE
  8
1
 62
7
  6
CONTINUOUS
 10
240.921120
 20
266.846830
 40
4.250116
  0
CIRCLE
  8
1
 62
7
  6
CONTINUOUS
 10
240.921120
 20
266.846830
 40
2.290139
  0
CIRCLE
  8
1
 62
7
  6
CONTINUOUS
 10
315.924050
 20
310.149771
 40
4.250116
  0
CIRCLE
  8
1
 62
7
  6
CONTINUOUS
 10
315.924050
 20
310.149771
 40
2.290139
  0
CIRCLE
  8
1
 62
7
  6
CONTINUOUS
 10
290.923024
 20
266.846830
 40
5.000145
  0
CIRCLE
  8
1
 62
7
  6
CONTINUOUS
 10
240.921120
 20
266.846830
 40
5.000145
  0
CIRCLE
  8
1
 62
7
  6
CONTINUOUS
 10
240.921120
 20
353.452713
 40
5.000145
  0
CIRCLE
  8
1
 62
7
  6
CONTINUOUS
 10
290.923024
 20
353.452713
 40
5.000145
  0
CIRCLE
  8
1
 62
7
  6
CONTINUOUS
 10
315.924050
 20
310.149771
 40
5.000145
  0
ARC
  8
1
 62
7
  6
CONTINUOUS
 10
265.921997
 20
310.149771
 40
56.502257
 50
-139.090400
 51
0.000000
  0
ARC
  8
1
 62
7
  6
CONTINUOUS
 10
265.921997
 20
310.149771
 40
56.502257
 50
0.000000
 51
122.071300
  0
ARC
  8
1
 62
7
  6
CONTINUOUS
 10
234.920886
 20
359.151736
 40
1.000089
 50
0.000000
 51
90.000000
  0
ARC
  8
1
 62
7
  6
CONTINUOUS
 10
208.919770
 20
348.151206
 40
1.000089
 50
-90.000000
 51
0.000000
  0
ARC
  8
1
 62
7
  6
CONTINUOUS
 10
210.919948
 20
359.151736
 40
1.000089
 50
90.000000
 51
180.000000
  0
ARC
  8
1
 62
7
  6
CONTINUOUS
 10
213.693257
 20
361.612432
 40
4.657682
 50
49.497200
 51
89.989600
  0
ARC
  8
1
 62
7
  6
CONTINUOUS
 10
222.792912
 20
349.075092
 40
17.188271
 50
69.303600
 51
110.696400
  0
ARC
  8
1
 62
7
  6
CONTINUOUS
 10
224.701287
 20
375.957192
 40
2.305140
 50
34.439500
 51
145.473700
  0
ARC
  8
1
 62
7
  6
CONTINUOUS
 10
224.703237
 20
378.567294
 40
2.305140
 50
-145.560500
 51
-34.526300
  0
ARC
  8
1
 62
7
  6
CONTINUOUS
 10
236.920914
 20
348.151206
 40
1.000089
 50
180.000000
 51
-90.000000
  0
ARC
  8
1
 62
7
  6
CONTINUOUS
 10
220.901038
 20
375.960192
 40
2.305140
 50
34.439500
 51
145.473700
  0
ARC
  8
1
 62
7
  6
CONTINUOUS
 10
231.887317
 20
361.598631
 40
4.657682
 50
89.923700
 51
130.416000
  0
ARC
  8
1
 62
7
  6
CONTINUOUS
 10
295.923169
 20
340.150943
 40
5.000145
 50
0.000000
 51
90.000000
  0
ARC
  8
1
 62
7
  6
CONTINUOUS
 10
295.923169
 20
280.148600
 40
5.000145
 50
-90.000000
 51
0.000000
  0
ARC
  8
1
 62
7
  6
CONTINUOUS
 10
265.921997
 20
310.149771
 40
58.002316
 50
-140.362300
 51
0.000000
  0
ARC
  8
1
 62
7
  6
CONTINUOUS
 10
246.921355
 20
346.151178
 40
1.000089
 50
0.000000
 51
90.000000
  0
CIRCLE
  8
1
 62
7
  6
CONTINUOUS
 10
295.621657
 20
339.849432
 40
2.290139
  0
ARC
  8
1
 62
7
  6
CONTINUOUS
 10
246.921355
 20
274.148365
 40
1.000089
 50
-90.000000
 51
0.000000
  0
ARC
  8
1
 62
7
  6
CONTINUOUS
 10
249.921472
 20
333.150620
 40
2.000028
 50
180.000000
 51
-90.000000
  0
ARC
  8
1
 62
7
  6
CONTINUOUS
 10
249.921472
 20
287.148923
 40
2.000028
 50
90.000000
 51
180.000000
  0
ARC
  8
1
 62
7
  6
CONTINUOUS
 10
285.922878
 20
310.149771
 40
6.000234
 50
0.000000
 51
90.000000
  0
ARC
  8
1
 62
7
  6
CONTINUOUS
 10
282.922761
 20
292.149068
 40
3.000117
 50
-90.000000
 51
0.000000
  0
ARC
  8
1
 62
7
  6
CONTINUOUS
 10
280.922583
 20
292.149068
 40
3.000117
 50
-90.000000
 51
0.000000
  0
ARC
  8
1
 62
7
  6
CONTINUOUS
 10
280.922583
 20
328.150475
 40
3.000117
 50
0.000000
 51
90.000000
  0
ARC
  8
1
 62
7
  6
CONTINUOUS
 10
282.922761
 20
328.150475
 40
3.000117
 50
0.000000
 51
90.000000
  0
ARC
  8
1
 62
7
  6
CONTINUOUS
 10
285.922878
 20
318.150034
 40
2.000028
 50
180.000000
 51
-90.000000
  0
ARC
  8
1
 62
7
  6
CONTINUOUS
 10
285.922878
 20
310.149771
 40
6.000234
 50
-90.000000
 51
0.000000
  0
ARC
  8
1
 62
7
  6
CONTINUOUS
 10
251.921500
 20
343.651030
 40
1.000089
 50
0.000000
 51
90.000000
  0
ARC
  8
1
 62
7
  6
CONTINUOUS
 10
285.922878
 20
302.149509
 40
2.000028
 50
90.000000
 51
180.000000
  0
ARC
  8
1
 62
7
  6
CONTINUOUS
 10
251.921500
 20
276.648513
 40
1.000089
 50
-90.000000
 51
0.000000
  0
ARC
  8
1
 62
7
  6
CONTINUOUS
 10
255.921706
 20
300.149331
 40
9.000352
 50
180.000000
 51
-90.000000
  0
ARC
  8
1
 62
7
  6
CONTINUOUS
 10
285.922878
 20
310.149771
 40
6.000234
 50
-90.000000
 51
0.000000
  0
CIRCLE
  8
1
 62
7
  6
CONTINUOUS
 10
265.921997
 20
310.149771
 40
10.000441
  0
ARC
  8
1
 62
7
  6
CONTINUOUS
 10
275.922438
 20
323.150329
 40
6.000234
 50
0.000000
 51
90.000000
  0
ARC
  8
1
 62
7
  6
CONTINUOUS
 10
255.921706
 20
320.150212
 40
9.000352
 50
90.000000
 51
-180.000000
  0
CIRCLE
  8
1
 62
7
  6
CONTINUOUS
 10
285.922878
 20
310.149771
 40
3.250177
  0
ARC
  8
1
 62
7
  6
CONTINUOUS
 10
285.922878
 20
320.150212
 40
4.000206
 50
-180.000000
 51
-90.000000
  0
ARC
  8
1
 62
7
  6
CONTINUOUS
 10
275.922438
 20
297.149214
 40
6.000234
 50
-90.000000
 51
0.000000
  0
ARC
  8
1
 62
7
  6
CONTINUOUS
 10
285.922878
 20
300.149331
 40
4.000206
 50
90.000000
 51
180.000000
  0
ARC
  8
1
 62
7
  6
CONTINUOUS
 10
206.419773
 20
273.648396
 40
0.499970
 50
180.000000
 51
-90.000000
  0
ARC
  8
1
 62
7
  6
CONTINUOUS
 10
206.419773
 20
346.651147
 40
0.499970
 50
90.000000
 51
180.000000
  0
CIRCLE
  8
1
 62
7
  6
CONTINUOUS
 10
285.922878
 20
310.149771
 40
2.800159
  0
ARC
  8
1
 62
7
  6
CONTINUOUS
 10
284.922789
 20
311.149861
 40
0.499970
 50
-90.000000
 51
0.000000
  0
ARC
  8
1
 62
7
  6
CONTINUOUS
 10
284.922789
 20
309.149682
 40
0.499970
 50
0.000000
 51
90.000000
  0
ARC
  8
1
 62
7
  6
CONTINUOUS
 10
286.922817
 20
309.149682
 40
0.499970
 50
90.000000
 51
180.000000
  0
ARC
  8
1
 62
7
  6
CONTINUOUS
 10
286.922817
 20
311.149861
 40
0.499970
 50
180.000000
 51
-90.000000
  0
CIRCLE
  8
1
 62
7
  6
CONTINUOUS
 10
295.621657
 20
280.450111
 40
4.250116
  0
CIRCLE
  8
1
 62
7
  6
CONTINUOUS
 10
295.621657
 20
280.450111
 40
2.290139
  0
CIRCLE
  8
1
 62
7
  6
CONTINUOUS
 10
295.621657
 20
339.849432
 40
4.250116
  0
ARC
  8
1
 62
7
  6
CONTINUOUS
 10
208.619759
 20
343.151061
 40
5.800277
 50
136.397200
 51
-136.397200
  0
ARC
  8
1
 62
7
  6
CONTINUOUS
 10
208.619759
 20
277.148482
 40
5.800277
 50
136.397200
 51
-136.397200
  0
ARC
  8
1
 62
7
  6
CONTINUOUS
 10
265.921997
 20
310.149771
 40
58.002316
 50
0.000000
 51
121.147400
  0
LINE
  8
1
 62
7
  6
CONTINUOUS
 10
319.081974
 20
286.948815
 11
322.999827
 21
286.948815
  0
LINE
  8
1
 62
7
  6
CONTINUOUS
 10
319.081974
 20
333.350728
 11
322.999827
 21
333.350728
  0
LINE
  8
1
 62
7
  6
CONTINUOUS
 10
290.923024
 20
264.556690
 11
288.922995
 21
265.731386
  0
LINE
  8
1
 62
7
  6
CONTINUOUS
 10
292.923052
 20
265.731386
 11
290.923024
 21
264.556690
  0
LINE
  8
1
 62
7
  6
CONTINUOUS
 10
290.923024
 20
269.136969
 11
292.923052
 21
267.962274
  0
LINE
  8
1
 62
7
  6
CONTINUOUS
 10
288.922995
 20
267.962274
 11
290.923024
 21
269.136969
  0
LINE
  8
1
 62
7
  6
CONTINUOUS
 10
292.923052
 20
267.962274
 11
292.923052
 21
265.731386
  0
LINE
  8
1
 62
7
  6
CONTINUOUS
 10
288.922995
 20
267.962274
 11
288.922995
 21
265.731386
  0
LINE
  8
1
 62
7
  6
CONTINUOUS
 10
240.921120
 20
351.162724
 11
238.920942
 21
352.337269
  0
LINE
  8
1
 62
7
  6
CONTINUOUS
 10
242.921148
 20
352.337269
 11
240.921120
 21
351.162724
  0
LINE
  8
1
 62
7
  6
CONTINUOUS
 10
240.921120
 20
355.742852
 11
242.921148
 21
354.568157
  0
LINE
  8
1
 62
7
  6
CONTINUOUS
 10
238.920942
 20
354.568157
 11
240.921120
 21
355.742852
  0
LINE
  8
1
 62
7
  6
CONTINUOUS
 10
242.921148
 20
354.568157
 11
242.921148
 21
352.337269
  0
LINE
  8
1
 62
7
  6
CONTINUOUS
 10
238.920942
 20
354.568157
 11
238.920942
 21
352.337269
  0
LINE
  8
1
 62
7
  6
CONTINUOUS
 10
290.923024
 20
351.162724
 11
288.922995
 21
352.337269
  0
LINE
  8
1
 62
7
  6
CONTINUOUS
 10
292.923052
 20
352.337269
 11
290.923024
 21
351.162724
  0
LINE
  8
1
 62
7
  6
CONTINUOUS
 10
290.923024
 20
355.742852
 11
292.923052
 21
354.568157
  0
LINE
  8
1
 62
7
  6
CONTINUOUS
 10
288.922995
 20
354.568157
 11
290.923024
 21
355.742852
  0
LINE
  8
1
 62
7
  6
CONTINUOUS
 10
292.923052
 20
354.568157
 11
292.923052
 21
352.337269
  0
LINE
  8
1
 62
7
  6
CONTINUOUS
 10
288.922995
 20
354.568157
 11
288.922995
 21
352.337269
  0
LINE
  8
1
 62
7
  6
CONTINUOUS
 10
240.921120
 20
264.556690
 11
238.920942
 21
265.731386
  0
LINE
  8
1
 62
7
  6
CONTINUOUS
 10
242.921148
 20
265.731386
 11
240.921120
 21
264.556690
  0
LINE
  8
1
 62
7
  6
CONTINUOUS
 10
240.921120
 20
269.136969
 11
242.921148
 21
267.962274
  0
LINE
  8
1
 62
7
  6
CONTINUOUS
 10
238.920942
 20
267.962274
 11
240.921120
 21
269.136969
  0
LINE
  8
1
 62
7
  6
CONTINUOUS
 10
242.921148
 20
267.962274
 11
242.921148
 21
265.731386
  0
LINE
  8
1
 62
7
  6
CONTINUOUS
 10
238.920942
 20
267.962274
 11
238.920942
 21
265.731386
  0
LINE
  8
1
 62
7
  6
CONTINUOUS
 10
315.924050
 20
307.859632
 11
313.923872
 21
309.034328
  0
LINE
  8
1
 62
7
  6
CONTINUOUS
 10
317.924078
 20
309.034328
 11
315.924050
 21
307.859632
  0
LINE
  8
1
 62
7
  6
CONTINUOUS
 10
315.924050
 20
312.439911
 11
317.924078
 21
311.265215
  0
LINE
  8
1
 62
7
  6
CONTINUOUS
 10
313.923872
 20
311.265215
 11
315.924050
 21
312.439911
  0
LINE
  8
1
 62
7
  6
CONTINUOUS
 10
317.924078
 20
311.265215
 11
317.924078
 21
309.034328
  0
LINE
  8
1
 62
7
  6
CONTINUOUS
 10
313.923872
 20
311.265215
 11
313.923872
 21
309.034328
  0
LINE
  8
1
 62
7
  6
CONTINUOUS
 10
324.999855
 20
283.948698
 11
324.999855
 21
336.350845
  0
LINE
  8
1
 62
7
  6
CONTINUOUS
 10
201.995050
 20
282.948759
 11
205.919653
 21
282.948759
  0
LINE
  8
1
 62
7
  6
CONTINUOUS
 10
325.999944
 20
337.350784
 11
330.000000
 21
337.350784
  0
LINE
  8
1
 62
7
  6
CONTINUOUS
 10
201.995050
 20
275.148454
 11
203.175296
 21
275.148454
  0
LINE
  8
1
 62
7
  6
CONTINUOUS
 10
281.922672
 20
320.150212
 11
281.922672
 21
323.150329
  0
LINE
  8
1
 62
7
  6
CONTINUOUS
 10
201.995050
 20
275.148454
 11
201.995050
 21
345.151089
  0
LINE
  8
1
 62
7
  6
CONTINUOUS
 10
312.173154
 20
275.148454
 11
330.000000
 21
275.148454
  0
LINE
  8
1
 62
7
  6
CONTINUOUS
 10
201.995050
 20
345.151089
 11
203.175296
 21
345.151089
  0
LINE
  8
1
 62
7
  6
CONTINUOUS
 10
312.173154
 20
345.151089
 11
330.000000
 21
345.151089
  0
LINE
  8
1
 62
7
  6
CONTINUOUS
 10
330.000000
 20
275.148454
 11
330.000000
 21
345.151089
  0
LINE
  8
1
 62
7
  6
CONTINUOUS
 10
201.995050
 20
337.350784
 11
205.919653
 21
337.350784
  0
LINE
  8
1
 62
7
  6
CONTINUOUS
 10
325.999944
 20
282.948759
 11
330.000000
 21
282.948759
  0
LINE
  8
1
 62
7
  6
CONTINUOUS
 10
233.268271
 20
361.755237
 11
213.255390
 21
361.770388
  0
LINE
  8
1
 62
7
  6
CONTINUOUS
 10
235.920825
 20
348.151206
 11
235.920825
 21
359.151736
  0
LINE
  8
1
 62
7
  6
CONTINUOUS
 10
210.668239
 20
365.334677
 11
210.666739
 21
363.272397
  0
LINE
  8
1
 62
7
  6
CONTINUOUS
 10
233.294222
 20
366.255413
 11
217.387451
 21
366.267414
  0
LINE
  8
1
 62
7
  6
CONTINUOUS
 10
209.919859
 20
348.151206
 11
209.919859
 21
359.151736
  0
LINE
  8
1
 62
7
  6
CONTINUOUS
 10
234.917886
 20
365.316226
 11
234.916386
 21
363.253946
  0
LINE
  8
1
 62
7
  6
CONTINUOUS
 10
218.993714
 20
366.266214
 11
212.293402
 21
366.271314
  0
LINE
  8
1
 62
7
  6
CONTINUOUS
 10
234.916386
 20
363.253946
 11
212.835223
 21
363.270747
  0
LINE
  8
1
 62
7
  6
CONTINUOUS
 10
210.919948
 20
360.151675
 11
234.920886
 21
360.151675
  0
LINE
  8
1
 62
7
  6
CONTINUOUS
 10
213.590053
 20
361.770088
 11
212.312453
 21
361.771138
  0
LINE
  8
1
 62
7
  6
CONTINUOUS
 10
212.293402
 20
366.271314
 11
210.668239
 21
365.334677
  0
LINE
  8
1
 62
7
  6
CONTINUOUS
 10
212.312453
 20
361.771138
 11
212.311253
 21
360.151675
  0
LINE
  8
1
 62
7
  6
CONTINUOUS
 10
213.591103
 20
363.270146
 11
213.590053
 21
361.770088
  0
LINE
  8
1
 62
7
  6
CONTINUOUS
 10
228.867550
 20
365.154070
 11
228.866049
 21
363.258596
  0
LINE
  8
1
 62
7
  6
CONTINUOUS
 10
213.591103
 20
363.270146
 11
210.666739
 21
363.272397
  0
LINE
  8
1
 62
7
  6
CONTINUOUS
 10
232.106326
 20
361.756137
 11
232.104976
 21
360.151675
  0
LINE
  8
1
 62
7
  6
CONTINUOUS
 10
231.991872
 20
363.256196
 11
231.990822
 21
361.756137
  0
LINE
  8
1
 62
7
  6
CONTINUOUS
 10
213.474548
 20
361.770238
 11
213.473348
 21
360.151675
  0
LINE
  8
1
 62
7
  6
CONTINUOUS
 10
233.268271
 20
361.755237
 11
233.267071
 21
360.151675
  0
LINE
  8
1
 62
7
  6
CONTINUOUS
 10
233.294222
 20
366.255413
 11
234.917886
 21
365.316226
  0
LINE
  8
1
 62
7
  6
CONTINUOUS
 10
226.602311
 20
377.260893
 11
226.593911
 21
366.260363
  0
LINE
  8
1
 62
7
  6
CONTINUOUS
 10
216.718425
 20
365.154070
 11
216.716925
 21
363.267746
  0
LINE
  8
1
 62
7
  6
CONTINUOUS
 10
219.001964
 20
377.266593
 11
218.993714
 21
366.266214
  0
LINE
  8
1
 62
7
  6
CONTINUOUS
 10
300.923464
 20
280.148600
 11
300.923464
 21
340.150943
  0
LINE
  8
1
 62
7
  6
CONTINUOUS
 10
244.921177
 20
273.148276
 11
244.921177
 21
347.151267
  0
LINE
  8
1
 62
7
  6
CONTINUOUS
 10
244.921177
 20
273.148276
 11
246.921355
 21
273.148276
  0
LINE
  8
1
 62
7
  6
CONTINUOUS
 10
206.419773
 20
347.151267
 11
246.921355
 21
347.151267
  0
LINE
  8
1
 62
7
  6
CONTINUOUS
 10
247.921294
 20
274.148365
 11
247.921294
 21
287.148923
  0
LINE
  8
1
 62
7
  6
CONTINUOUS
 10
283.922700
 20
292.149068
 11
283.922700
 21
302.149509
  0
LINE
  8
1
 62
7
  6
CONTINUOUS
 10
285.922878
 20
292.149068
 11
285.922878
 21
304.149537
  0
LINE
  8
1
 62
7
  6
CONTINUOUS
 10
247.921294
 20
333.150620
 11
247.921294
 21
346.151178
  0
LINE
  8
1
 62
7
  6
CONTINUOUS
 10
249.921472
 20
289.148951
 11
282.922761
 21
289.148951
  0
LINE
  8
1
 62
7
  6
CONTINUOUS
 10
249.921472
 20
331.150592
 11
282.922761
 21
331.150592
  0
LINE
  8
1
 62
7
  6
CONTINUOUS
 10
285.922878
 20
316.150006
 11
285.922878
 21
328.150475
  0
LINE
  8
1
 62
7
  6
CONTINUOUS
 10
283.922700
 20
318.150034
 11
283.922700
 21
328.150475
  0
LINE
  8
1
 62
7
  6
CONTINUOUS
 10
252.921589
 20
331.150592
 11
252.921589
 21
343.651030
  0
LINE
  8
1
 62
7
  6
CONTINUOUS
 10
247.921294
 20
345.151089
 11
295.923169
 21
345.151089
  0
LINE
  8
1
 62
7
  6
CONTINUOUS
 10
247.921294
 20
275.148454
 11
295.923169
 21
275.148454
  0
LINE
  8
1
 62
7
  6
CONTINUOUS
 10
247.921294
 20
275.648424
 11
251.921500
 21
275.648424
  0
LINE
  8
1
 62
7
  6
CONTINUOUS
 10
247.921294
 20
344.651119
 11
251.921500
 21
344.651119
  0
LINE
  8
1
 62
7
  6
CONTINUOUS
 10
252.921589
 20
276.648513
 11
252.921589
 21
289.148951
  0
LINE
  8
1
 62
7
  6
CONTINUOUS
 10
297.241120
 20
278.830798
 11
297.833794
 21
281.042784
  0
LINE
  8
1
 62
7
  6
CONTINUOUS
 10
281.922672
 20
297.149214
 11
281.922672
 21
300.149331
  0
LINE
  8
1
 62
7
  6
CONTINUOUS
 10
246.921355
 20
300.149331
 11
246.921355
 21
320.150212
  0
LINE
  8
1
 62
7
  6
CONTINUOUS
 10
255.921706
 20
329.150564
 11
275.922438
 21
329.150564
  0
LINE
  8
1
 62
7
  6
CONTINUOUS
 10
255.921706
 20
291.148979
 11
275.922438
 21
291.148979
  0
LINE
  8
1
 62
7
  6
CONTINUOUS
 10
206.419773
 20
273.148276
 11
244.921177
 21
273.148276
  0
LINE
  8
1
 62
7
  6
CONTINUOUS
 10
208.919770
 20
273.148276
 11
208.919770
 21
347.151267
  0
LINE
  8
1
 62
7
  6
CONTINUOUS
 10
243.071154
 20
273.148276
 11
243.071154
 21
347.151267
  0
LINE
  8
1
 62
7
  6
CONTINUOUS
 10
286.422848
 20
308.649713
 11
285.422759
 21
308.649713
  0
LINE
  8
1
 62
7
  6
CONTINUOUS
 10
287.422937
 20
309.649802
 11
287.422937
 21
310.649741
  0
LINE
  8
1
 62
7
  6
CONTINUOUS
 10
287.422937
 20
309.649802
 11
286.922817
 21
309.649802
  0
LINE
  8
1
 62
7
  6
CONTINUOUS
 10
286.422848
 20
308.649713
 11
286.422848
 21
309.149682
  0
LINE
  8
1
 62
7
  6
CONTINUOUS
 10
284.422820
 20
309.649802
 11
284.422820
 21
310.649741
  0
LINE
  8
1
 62
7
  6
CONTINUOUS
 10
286.422848
 20
311.649830
 11
285.422759
 21
311.649830
  0
LINE
  8
1
 62
7
  6
CONTINUOUS
 10
285.422759
 20
308.649713
 11
285.422759
 21
309.149682
  0
LINE
  8
1
 62
7
  6
CONTINUOUS
 10
287.422937
 20
310.649741
 11
286.922817
 21
310.649741
  0
LINE
  8
1
 62
7
  6
CONTINUOUS
 10
284.422820
 20
310.649741
 11
284.922789
 21
310.649741
  0
LINE
  8
1
 62
7
  6
CONTINUOUS
 10
285.422759
 20
311.649830
 11
285.422759
 21
311.149861
  0
LINE
  8
1
 62
7
  6
CONTINUOUS
 10
284.422820
 20
309.649802
 11
284.922789
 21
309.649802
  0
LINE
  8
1
 62
7
  6
CONTINUOUS
 10
286.422848
 20
311.649830
 11
286.422848
 21
311.149861
  0
LINE
  8
1
 62
7
  6
CONTINUOUS
 10
294.002344
 20
338.230118
 11
296.214480
 21
337.637445
  0
LINE
  8
1
 62
7
  6
CONTINUOUS
 10
296.214480
 20
337.637445
 11
297.833794
 21
339.256758
  0
LINE
  8
1
 62
7
  6
CONTINUOUS
 10
293.409671
 20
279.857438
 11
295.028984
 21
278.238125
  0
LINE
  8
1
 62
7
  6
CONTINUOUS
 10
294.002344
 20
282.069425
 11
293.409671
 21
279.857438
  0
LINE
  8
1
 62
7
  6
CONTINUOUS
 10
296.214480
 20
282.662248
 11
297.833794
 21
281.042784
  0
LINE
  8
1
 62
7
  6
CONTINUOUS
 10
294.002344
 20
282.069425
 11
296.214480
 21
282.662248
  0
LINE
  8
1
 62
7
  6
CONTINUOUS
 10
294.002344
 20
338.230118
 11
293.409671
 21
340.442105
  0
LINE
  8
1
 62
7
  6
CONTINUOUS
 10
293.409671
 20
340.442105
 11
295.028984
 21
342.061418
  0
LINE
  8
1
 62
7
  6
CONTINUOUS
 10
297.241120
 20
341.468745
 11
297.833794
 21
339.256758
  0
LINE
  8
1
 62
7
  6
CONTINUOUS
 10
295.028984
 20
342.061418
 11
297.241120
 21
341.468745
  0
LINE
  8
1
 62
7
  6
CONTINUOUS
 10
295.028984
 20
278.238125
 11
297.241120
 21
278.830798
  0
LINE
  8
1
 62
7
  6
CONTINUOUS
 10
204.419595
 20
347.151267
 11
210.428979
 21
347.151267
  0
LINE
  8
1
 62
7
  6
CONTINUOUS
 10
204.419595
 20
339.150854
 11
205.919653
 21
339.150854
  0
LINE
  8
1
 62
7
  6
CONTINUOUS
 10
204.419595
 20
281.148689
 11
205.919653
 21
281.148689
  0
LINE
  8
1
 62
7
  6
CONTINUOUS
 10
204.419595
 20
273.148276
 11
210.428979
 21
273.148276
  0
LINE
  8
1
 62
7
  6
CONTINUOUS
 10
205.919653
 20
310.149771
 11
205.919653
 21
273.148276
  0
LINE
  8
1
 62
7
  6
CONTINUOUS
 10
207.919831
 20
347.151267
 11
207.919831
 21
273.148276
  0
LINE
  8
1
 62
7
  6
CONTINUOUS
 10
205.919653
 20
310.149771
 11
205.919653
 21
347.151267
  0
LINE
  8
1
 62
7
  6
CONTINUOUS
 10
283.755594
 20
219.840544
 11
283.619388
 21
219.505131
  0
LINE
  8
1
 62
7
  6
CONTINUOUS
 10
283.983602
 20
220.121505
 11
283.755594
 21
219.840544
  0
LINE
  8
1
 62
7
  6
CONTINUOUS
 10
284.268314
 20
220.346064
 11
283.983602
 21
220.121505
  0
LINE
  8
1
 62
7
  6
CONTINUOUS
 10
284.586626
 20
220.519470
 11
284.268314
 21
220.346064
  0
LINE
  8
1
 62
7
  6
CONTINUOUS
 10
284.925639
 20
220.648175
 11
284.586626
 21
220.519470
  0
LINE
  8
1
 62
7
  6
CONTINUOUS
 10
285.277703
 20
220.737129
 11
284.925639
 21
220.648175
  0
LINE
  8
1
 62
7
  6
CONTINUOUS
 10
285.636067
 20
220.789181
 11
285.277703
 21
220.737129
  0
LINE
  8
1
 62
7
  6
CONTINUOUS
 10
285.998331
 20
220.806281
 11
285.636067
 21
220.789181
  0
LINE
  8
1
 62
7
  6
CONTINUOUS
 10
286.362095
 20
220.789031
 11
285.998331
 21
220.806281
  0
LINE
  8
1
 62
7
  6
CONTINUOUS
 10
286.721059
 20
220.736679
 11
286.362095
 21
220.789031
  0
LINE
  8
1
 62
7
  6
CONTINUOUS
 10
287.072523
 20
220.647725
 11
286.721059
 21
220.736679
  0
LINE
  8
1
 62
7
  6
CONTINUOUS
 10
287.411236
 20
220.518870
 11
287.072523
 21
220.647725
  0
LINE
  8
1
 62
7
  6
CONTINUOUS
 10
287.729249
 20
220.345463
 11
287.411236
 21
220.518870
  0
LINE
  8
1
 62
7
  6
CONTINUOUS
 10
288.013510
 20
220.121055
 11
287.729249
 21
220.345463
  0
LINE
  8
1
 62
7
  6
CONTINUOUS
 10
288.241219
 20
219.840244
 11
288.013510
 21
220.121055
  0
LINE
  8
1
 62
7
  6
CONTINUOUS
 10
288.377124
 20
219.505881
 11
288.241219
 21
219.840244
  0
LINE
  8
1
 62
7
  6
CONTINUOUS
 10
283.755594
 20
219.840544
 11
283.619388
 21
219.505131
  0
LINE
  8
1
 62
7
  6
CONTINUOUS
 10
283.983602
 20
220.121505
 11
283.755594
 21
219.840544
  0
LINE
  8
1
 62
7
  6
CONTINUOUS
 10
284.268314
 20
220.346064
 11
283.983602
 21
220.121505
  0
LINE
  8
1
 62
7
  6
CONTINUOUS
 10
284.586626
 20
220.519470
 11
284.268314
 21
220.346064
  0
LINE
  8
1
 62
7
  6
CONTINUOUS
 10
284.925639
 20
220.648175
 11
284.586626
 21
220.519470
  0
LINE
  8
1
 62
7
  6
CONTINUOUS
 10
285.277703
 20
220.737129
 11
284.925639
 21
220.648175
  0
LINE
  8
1
 62
7
  6
CONTINUOUS
 10
285.636067
 20
220.789181
 11
285.277703
 21
220.737129
  0
LINE
  8
1
 62
7
  6
CONTINUOUS
 10
285.998331
 20
220.806281
 11
285.636067
 21
220.789181
  0
LINE
  8
1
 62
7
  6
CONTINUOUS
 10
286.362095
 20
220.789031
 11
285.998331
 21
220.806281
  0
LINE
  8
1
 62
7
  6
CONTINUOUS
 10
286.721059
 20
220.736679
 11
286.362095
 21
220.789031
  0
LINE
  8
1
 62
7
  6
CONTINUOUS
 10
287.072523
 20
220.647725
 11
286.721059
 21
220.736679
  0
LINE
  8
1
 62
7
  6
CONTINUOUS
 10
287.411236
 20
220.518870
 11
287.072523
 21
220.647725
  0
LINE
  8
1
 62
7
  6
CONTINUOUS
 10
287.729249
 20
220.345463
 11
287.411236
 21
220.518870
  0
LINE
  8
1
 62
7
  6
CONTINUOUS
 10
288.013510
 20
220.121055
 11
287.729249
 21
220.345463
  0
LINE
  8
1
 62
7
  6
CONTINUOUS
 10
288.241219
 20
219.840244
 11
288.013510
 21
220.121055
  0
LINE
  8
1
 62
7
  6
CONTINUOUS
 10
288.377124
 20
219.505881
 11
288.241219
 21
219.840244
  0
ARC
  8
1
 62
7
  6
CONTINUOUS
 10
325.999944
 20
25.998772
 40
1.000089
 50
180.000000
 51
-90.000000
  0
ARC
  8
1
 62
7
  6
CONTINUOUS
 10
325.999944
 20
94.001378
 40
1.000089
 50
90.000000
 51
-180.000000
  0
ARC
  8
1
 62
7
  6
CONTINUOUS
 10
205.995256
 20
94.001378
 40
1.000089
 50
0.000000
 51
90.000000
  0
ARC
  8
1
 62
7
  6
CONTINUOUS
 10
205.995256
 20
25.998772
 40
1.000089
 50
-90.000000
 51
0.000000
  0
ARC
  8
1
 62
7
  6
CONTINUOUS
 10
256.997248
 20
65.000295
 40
1.000089
 50
180.000000
 51
0.000000
  0
ARC
  8
1
 62
7
  6
CONTINUOUS
 10
256.997248
 20
79.000792
 40
1.000089
 50
0.000000
 51
180.000000
  0
ARC
  8
1
 62
7
  6
CONTINUOUS
 10
268.533599
 20
72.304381
 40
0.499970
 50
171.786800
 51
-90.000000
  0
ARC
  8
1
 62
7
  6
CONTINUOUS
 10
275.497921
 20
65.500265
 40
0.499970
 50
0.000000
 51
90.000000
  0
ARC
  8
1
 62
7
  6
CONTINUOUS
 10
275.497921
 20
64.500176
 40
0.499970
 50
-90.000000
 51
0.000000
  0
ARC
  8
1
 62
7
  6
CONTINUOUS
 10
268.497598
 20
64.500176
 40
0.499970
 50
180.000000
 51
-90.000000
  0
ARC
  8
1
 62
7
  6
CONTINUOUS
 10
261.997394
 20
79.000792
 40
1.000089
 50
0.000000
 51
180.000000
  0
ARC
  8
1
 62
7
  6
CONTINUOUS
 10
259.409643
 20
67.177780
 40
1.000089
 50
132.070400
 51
-47.929600
  0
ARC
  8
1
 62
7
  6
CONTINUOUS
 10
269.548239
 20
72.304381
 40
0.499970
 50
-90.000000
 51
-11.537000
  0
ARC
  8
1
 62
7
  6
CONTINUOUS
 10
271.997834
 20
71.804411
 40
4.000206
 50
-59.675900
 51
171.786800
  0
ARC
  8
1
 62
7
  6
CONTINUOUS
 10
271.997834
 20
71.804411
 40
2.000028
 50
-59.675900
 51
168.463000
  0
ARC
  8
1
 62
7
  6
CONTINUOUS
 10
272.051086
 20
78.588426
 40
1.000089
 50
-47.929600
 51
132.070400
  0
ARC
  8
1
 62
7
  6
CONTINUOUS
 10
269.997656
 20
66.000234
 40
2.000028
 50
120.324100
 51
-180.000000
  0
ARC
  8
1
 62
7
  6
CONTINUOUS
 10
261.997394
 20
72.763549
 40
1.000089
 50
180.000000
 51
0.000000
  0
ARC
  8
1
 62
7
  6
CONTINUOUS
 10
305.999062
 20
40.999358
 40
3.000117
 50
180.000000
 51
-90.000000
  0
ARC
  8
1
 62
7
  6
CONTINUOUS
 10
241.284135
 20
12.932361
 40
50.001903
 50
24.917800
 51
53.979700
  0
ARC
  8
1
 62
7
  6
CONTINUOUS
 10
176.479203
 20
60.000000
 40
56.037239
 50
-20.993000
 51
20.993000
  0
ARC
  8
1
 62
7
  6
CONTINUOUS
 10
225.995987
 20
40.999358
 40
3.000117
 50
-90.000000
 51
0.000000
  0
ARC
  8
1
 62
7
  6
CONTINUOUS
 10
279.998097
 20
43.999475
 40
12.000469
 50
-90.000000
 51
-56.442700
  0
ARC
  8
1
 62
7
  6
CONTINUOUS
 10
228.996105
 20
37.999241
 40
9.000352
 50
-180.000000
 51
-90.000000
  0
ARC
  8
1
 62
7
  6
CONTINUOUS
 10
315.499534
 20
104.501788
 40
2.000028
 50
90.000000
 51
-180.000000
  0
ARC
  8
1
 62
7
  6
CONTINUOUS
 10
315.499534
 20
93.001289
 40
2.000028
 50
180.000000
 51
-90.000000
  0
ARC
  8
1
 62
7
  6
CONTINUOUS
 10
304.499004
 20
89.063935
 40
9.000352
 50
-54.000000
 51
0.000000
  0
ARC
  8
1
 62
7
  6
CONTINUOUS
 10
305.999062
 20
79.000792
 40
3.000117
 50
90.000000
 51
180.000000
  0
ARC
  8
1
 62
7
  6
CONTINUOUS
 10
234.214508
 20
37.999241
 40
9.000352
 50
-90.000000
 51
-54.000000
  0
ARC
  8
1
 62
7
  6
CONTINUOUS
 10
225.995987
 20
79.000792
 40
3.000117
 50
0.000000
 51
90.000000
  0
ARC
  8
1
 62
7
  6
CONTINUOUS
 10
322.999827
 20
26.998711
 40
2.000028
 50
0.000000
 51
90.000000
  0
ARC
  8
1
 62
7
  6
CONTINUOUS
 10
321.999737
 20
108.501995
 40
2.000028
 50
-90.000000
 51
0.000000
  0
ARC
  8
1
 62
7
  6
CONTINUOUS
 10
322.999827
 20
93.001289
 40
2.000028
 50
-90.000000
 51
0.000000
  0
ARC
  8
1
 62
7
  6
CONTINUOUS
 10
209.995312
 20
108.501995
 40
2.000028
 50
180.000000
 51
-90.000000
  0
ARC
  8
1
 62
7
  6
CONTINUOUS
 10
251.996953
 20
43.999475
 40
12.000469
 50
-127.529500
 51
-90.000000
  0
ARC
  8
1
 62
7
  6
CONTINUOUS
 10
231.426799
 20
94.014279
 40
12.965456
 50
175.830200
 51
-109.886500
  0
ARC
  8
1
 62
7
  6
CONTINUOUS
 10
208.695362
 20
203.505656
 40
5.800277
 50
136.397200
 51
-136.397200
  0
ARC
  8
1
 62
7
  6
CONTINUOUS
 10
208.695362
 20
137.503077
 40
5.800277
 50
136.397200
 51
-136.397200
  0
ARC
  8
1
 62
7
  6
CONTINUOUS
 10
276.997980
 20
210.505979
 40
1.000089
 50
90.000000
 51
180.000000
  0
ARC
  8
1
 62
7
  6
CONTINUOUS
 10
231.996222
 20
136.502988
 40
2.000028
 50
90.000000
 51
180.000000
  0
ARC
  8
1
 62
7
  6
CONTINUOUS
 10
254.997070
 20
210.505979
 40
1.000089
 50
0.000000
 51
90.000000
  0
ARC
  8
1
 62
7
  6
CONTINUOUS
 10
288.998448
 20
216.506214
 40
3.000117
 50
0.000000
 51
90.000000
  0
ARC
  8
1
 62
7
  6
CONTINUOUS
 10
251.996953
 20
153.003633
 40
1.000089
 50
0.000000
 51
90.000000
  0
ARC
  8
1
 62
7
  6
CONTINUOUS
 10
251.996953
 20
188.005100
 40
1.000089
 50
-90.000000
 51
0.000000
  0
ARC
  8
1
 62
7
  6
CONTINUOUS
 10
251.996953
 20
201.005508
 40
1.000089
 50
0.000000
 51
90.000000
  0
ARC
  8
1
 62
7
  6
CONTINUOUS
 10
259.997366
 20
237.507034
 40
4.000206
 50
90.000000
 51
180.000000
  0
ARC
  8
1
 62
7
  6
CONTINUOUS
 10
271.997834
 20
237.507034
 40
4.000206
 50
0.000000
 51
90.000000
  0
ARC
  8
1
 62
7
  6
CONTINUOUS
 10
249.996925
 20
216.506214
 40
3.000117
 50
90.000000
 51
180.000000
  0
ARC
  8
1
 62
7
  6
CONTINUOUS
 10
279.998097
 20
223.506387
 40
4.000206
 50
180.000000
 51
-98.213200
  0
ARC
  8
1
 62
7
  6
CONTINUOUS
 10
251.996953
 20
223.506387
 40
4.000206
 50
-90.000000
 51
0.000000
  0
ARC
  8
1
 62
7
  6
CONTINUOUS
 10
227.996015
 20
135.503049
 40
2.000028
 50
-90.000000
 51
0.000000
  0
ARC
  8
1
 62
7
  6
CONTINUOUS
 10
284.998242
 20
200.505538
 40
1.000089
 50
90.000000
 51
180.000000
  0
ARC
  8
1
 62
7
  6
CONTINUOUS
 10
248.319709
 20
138.003047
 40
1.000089
 50
90.000000
 51
131.409600
  0
ARC
  8
1
 62
7
  6
CONTINUOUS
 10
278.998008
 20
216.577916
 40
3.000117
 50
0.000000
 51
81.786800
  0
ARC
  8
1
 62
7
  6
CONTINUOUS
 10
248.996836
 20
203.005686
 40
1.000089
 50
180.000000
 51
-90.000000
  0
ARC
  8
1
 62
7
  6
CONTINUOUS
 10
246.996808
 20
139.503106
 40
1.000089
 50
-90.000000
 51
-48.590400
  0
ARC
  8
1
 62
7
  6
CONTINUOUS
 10
248.996836
 20
186.004922
 40
1.000089
 50
90.000000
 51
180.000000
  0
ARC
  8
1
 62
7
  6
CONTINUOUS
 10
284.998242
 20
143.503312
 40
1.000089
 50
0.000000
 51
90.000000
  0
ARC
  8
1
 62
7
  6
CONTINUOUS
 10
287.998359
 20
133.002902
 40
2.000028
 50
180.000000
 51
-90.000000
  0
ARC
  8
1
 62
7
  6
CONTINUOUS
 10
244.996780
 20
132.502932
 40
1.000089
 50
0.000000
 51
90.000000
  0
ARC
  8
1
 62
7
  6
CONTINUOUS
 10
246.996808
 20
206.505773
 40
1.000089
 50
0.000000
 51
90.000000
  0
ARC
  8
1
 62
7
  6
CONTINUOUS
 10
231.996222
 20
130.002784
 40
1.000089
 50
90.000000
 51
180.000000
  0
ARC
  8
1
 62
7
  6
CONTINUOUS
 10
299.998828
 20
130.002784
 40
1.000089
 50
0.000000
 51
90.000000
  0
ARC
  8
1
 62
7
  6
CONTINUOUS
 10
284.998242
 20
145.503340
 40
1.000089
 50
180.000000
 51
-90.000000
  0
ARC
  8
1
 62
7
  6
CONTINUOUS
 10
244.996780
 20
132.002813
 40
1.000089
 50
-90.000000
 51
0.000000
  0
ARC
  8
1
 62
7
  6
CONTINUOUS
 10
251.996953
 20
140.003225
 40
1.000089
 50
-90.000000
 51
0.000000
  0
ARC
  8
1
 62
7
  6
CONTINUOUS
 10
248.996836
 20
155.003811
 40
1.000089
 50
180.000000
 51
-90.000000
  0
ARC
  8
1
 62
7
  6
CONTINUOUS
 10
275.497921
 20
209.005921
 40
1.500059
 50
-122.220100
 51
-90.000000
  0
ARC
  8
1
 62
7
  6
CONTINUOUS
 10
290.998477
 20
202.505567
 40
1.000089
 50
-90.000000
 51
0.000000
  0
ARC
  8
1
 62
7
  6
CONTINUOUS
 10
256.497129
 20
209.005921
 40
1.500059
 50
-90.000000
 51
-42.650700
  0
ARC
  8
1
 62
7
  6
CONTINUOUS
 10
216.495666
 20
104.501788
 40
2.000028
 50
0.000000
 51
90.000000
  0
ARC
  8
1
 62
7
  6
CONTINUOUS
 10
208.995373
 20
93.001289
 40
2.000028
 50
180.000000
 51
-90.000000
  0
ARC
  8
1
 62
7
  6
CONTINUOUS
 10
216.495666
 20
93.001289
 40
2.000028
 50
-90.000000
 51
0.000000
  0
ARC
  8
1
 62
7
  6
CONTINUOUS
 10
208.995373
 20
26.998711
 40
2.000028
 50
90.000000
 51
180.000000
  0
LINE
  8
1
 62
7
  6
CONTINUOUS
 10
258.739566
 20
67.920159
 11
271.381010
 21
79.330805
  0
LINE
  8
1
 62
7
  6
CONTINUOUS
 10
260.079719
 20
66.435401
 11
272.721163
 21
77.846047
  0
LINE
  8
1
 62
7
  6
CONTINUOUS
 10
269.997656
 20
66.000234
 11
274.017363
 21
68.351576
  0
LINE
  8
1
 62
7
  6
CONTINUOUS
 10
268.987817
 20
67.726802
 11
273.007524
 21
70.077994
  0
LINE
  8
1
 62
7
  6
CONTINUOUS
 10
275.497921
 20
66.000234
 11
269.997656
 21
66.000234
  0
LINE
  8
1
 62
7
  6
CONTINUOUS
 10
260.997305
 20
72.763549
 11
260.997305
 21
79.000792
  0
LINE
  8
1
 62
7
  6
CONTINUOUS
 10
267.997628
 20
64.500176
 11
267.997628
 21
66.000234
  0
LINE
  8
1
 62
7
  6
CONTINUOUS
 10
268.533599
 20
71.804411
 11
269.548239
 21
71.804411
  0
LINE
  8
1
 62
7
  6
CONTINUOUS
 10
257.997187
 20
65.000295
 11
257.997187
 21
79.000792
  0
LINE
  8
1
 62
7
  6
CONTINUOUS
 10
262.997483
 20
72.763549
 11
262.997483
 21
79.000792
  0
LINE
  8
1
 62
7
  6
CONTINUOUS
 10
255.997159
 20
65.000295
 11
255.997159
 21
79.000792
  0
LINE
  8
1
 62
7
  6
CONTINUOUS
 10
275.997891
 20
64.500176
 11
275.997891
 21
65.500265
  0
LINE
  8
1
 62
7
  6
CONTINUOUS
 10
268.497598
 20
64.000206
 11
275.497921
 21
64.000206
  0
LINE
  8
1
 62
7
  6
CONTINUOUS
 10
207.995284
 20
125.002639
 11
323.999766
 21
125.002639
  0
LINE
  8
1
 62
7
  6
CONTINUOUS
 10
232.547793
 20
131.002874
 11
232.547793
 21
135.503049
  0
LINE
  8
1
 62
7
  6
CONTINUOUS
 10
240.548056
 20
131.002874
 11
240.548056
 21
135.503049
  0
LINE
  8
1
 62
7
  6
CONTINUOUS
 10
291.446994
 20
131.002874
 11
291.446994
 21
135.503049
  0
LINE
  8
1
 62
7
  6
CONTINUOUS
 10
291.946964
 20
131.002874
 11
291.946964
 21
135.503049
  0
LINE
  8
1
 62
7
  6
CONTINUOUS
 10
292.447083
 20
131.002874
 11
292.447083
 21
135.503049
  0
LINE
  8
1
 62
7
  6
CONTINUOUS
 10
292.947053
 20
131.002874
 11
292.947053
 21
135.503049
  0
LINE
  8
1
 62
7
  6
CONTINUOUS
 10
293.447022
 20
131.002874
 11
293.447022
 21
135.503049
  0
LINE
  8
1
 62
7
  6
CONTINUOUS
 10
293.947142
 20
131.002874
 11
293.947142
 21
135.503049
  0
LINE
  8
1
 62
7
  6
CONTINUOUS
 10
294.447111
 20
131.002874
 11
294.447111
 21
135.503049
  0
LINE
  8
1
 62
7
  6
CONTINUOUS
 10
299.447257
 20
131.002874
 11
299.447257
 21
135.503049
  0
LINE
  8
1
 62
7
  6
CONTINUOUS
 10
298.947287
 20
131.002874
 11
298.947287
 21
135.503049
  0
LINE
  8
1
 62
7
  6
CONTINUOUS
 10
298.447317
 20
131.002874
 11
298.447317
 21
135.503049
  0
LINE
  8
1
 62
7
  6
CONTINUOUS
 10
297.947198
 20
131.002874
 11
297.947198
 21
135.503049
  0
LINE
  8
1
 62
7
  6
CONTINUOUS
 10
297.998800
 20
73.216116
 11
297.998800
 21
33.999034
  0
LINE
  8
1
 62
7
  6
CONTINUOUS
 10
302.998945
 20
79.000792
 11
302.998945
 21
28.998889
  0
LINE
  8
1
 62
7
  6
CONTINUOUS
 10
324.999855
 20
82.000909
 11
324.999855
 21
94.001378
  0
LINE
  8
1
 62
7
  6
CONTINUOUS
 10
228.996105
 20
79.000792
 11
228.996105
 21
40.451386
  0
LINE
  8
1
 62
7
  6
CONTINUOUS
 10
270.131611
 20
88.001144
 11
270.997745
 21
89.501202
  0
LINE
  8
1
 62
7
  6
CONTINUOUS
 10
270.131611
 20
86.001116
 11
270.997745
 21
84.501057
  0
LINE
  8
1
 62
7
  6
CONTINUOUS
 10
225.995987
 20
82.000909
 11
201.995050
 21
82.000909
  0
LINE
  8
1
 62
7
  6
CONTINUOUS
 10
294.947081
 20
131.002874
 11
294.947081
 21
135.503049
  0
LINE
  8
1
 62
7
  6
CONTINUOUS
 10
299.947376
 20
131.002874
 11
299.947376
 21
135.503049
  0
LINE
  8
1
 62
7
  6
CONTINUOUS
 10
297.447228
 20
131.002874
 11
297.447228
 21
135.503049
  0
LINE
  8
1
 62
7
  6
CONTINUOUS
 10
295.947170
 20
131.002874
 11
295.947170
 21
135.503049
  0
LINE
  8
1
 62
7
  6
CONTINUOUS
 10
296.947259
 20
131.002874
 11
296.947259
 21
135.503049
  0
LINE
  8
1
 62
7
  6
CONTINUOUS
 10
291.446994
 20
131.002874
 11
291.446994
 21
135.503049
  0
LINE
  8
1
 62
7
  6
CONTINUOUS
 10
255.997159
 20
88.001144
 11
255.997159
 21
89.501202
  0
LINE
  8
1
 62
7
  6
CONTINUOUS
 10
295.447200
 20
131.002874
 11
295.447200
 21
135.503049
  0
LINE
  8
1
 62
7
  6
CONTINUOUS
 10
296.447139
 20
131.002874
 11
296.447139
 21
135.503049
  0
LINE
  8
1
 62
7
  6
CONTINUOUS
 10
318.059534
 20
114.502229
 11
323.999766
 21
114.502229
  0
LINE
  8
1
 62
7
  6
CONTINUOUS
 10
307.499121
 20
114.502229
 11
323.999766
 21
114.502229
  0
LINE
  8
1
 62
7
  6
CONTINUOUS
 10
212.546612
 20
114.502229
 11
207.995284
 21
114.502229
  0
LINE
  8
1
 62
7
  6
CONTINUOUS
 10
253.841575
 20
207.505862
 11
244.996780
 21
207.505862
  0
LINE
  8
1
 62
7
  6
CONTINUOUS
 10
279.998097
 20
207.505862
 11
279.998097
 21
211.505918
  0
LINE
  8
1
 62
7
  6
CONTINUOUS
 10
240.048086
 20
136.003019
 11
232.547793
 21
136.003019
  0
LINE
  8
1
 62
7
  6
CONTINUOUS
 10
299.447257
 20
136.003019
 11
291.946964
 21
136.003019
  0
LINE
  8
1
 62
7
  6
CONTINUOUS
 10
280.998186
 20
89.501202
 11
270.997745
 21
89.501202
  0
LINE
  8
1
 62
7
  6
CONTINUOUS
 10
250.997014
 20
87.001055
 11
255.997159
 21
84.501057
  0
LINE
  8
1
 62
7
  6
CONTINUOUS
 10
250.997014
 20
87.001055
 11
255.997159
 21
89.501202
  0
LINE
  8
1
 62
7
  6
CONTINUOUS
 10
280.998186
 20
84.501057
 11
270.997745
 21
84.501057
  0
LINE
  8
1
 62
7
  6
CONTINUOUS
 10
270.131611
 20
86.001116
 11
255.997159
 21
86.001116
  0
LINE
  8
1
 62
7
  6
CONTINUOUS
 10
279.554679
 20
87.001055
 11
280.998186
 21
84.501057
  0
LINE
  8
1
 62
7
  6
CONTINUOUS
 10
255.997159
 20
84.501057
 11
255.997159
 21
86.001116
  0
LINE
  8
1
 62
7
  6
CONTINUOUS
 10
279.554679
 20
87.001055
 11
280.998186
 21
89.501202
  0
LINE
  8
1
 62
7
  6
CONTINUOUS
 10
330.000000
 20
84.401003
 11
330.000000
 21
35.599147
  0
LINE
  8
1
 62
7
  6
CONTINUOUS
 10
201.995050
 20
84.401003
 11
201.995050
 21
35.599147
  0
LINE
  8
1
 62
7
  6
CONTINUOUS
 10
270.131611
 20
88.001144
 11
255.997159
 21
88.001144
  0
LINE
  8
1
 62
7
  6
CONTINUOUS
 10
206.995195
 20
82.000909
 11
206.995195
 21
94.001378
  0
LINE
  8
1
 62
7
  6
CONTINUOUS
 10
201.995050
 20
35.599147
 11
201.995050
 21
24.998683
  0
LINE
  8
1
 62
7
  6
CONTINUOUS
 10
297.998800
 20
33.999034
 11
302.998945
 21
28.998889
  0
LINE
  8
1
 62
7
  6
CONTINUOUS
 10
313.499355
 20
93.001289
 11
313.499355
 21
104.501788
  0
LINE
  8
1
 62
7
  6
CONTINUOUS
 10
330.000000
 20
82.000909
 11
305.999062
 21
82.000909
  0
LINE
  8
1
 62
7
  6
CONTINUOUS
 10
330.000000
 20
35.599147
 11
330.000000
 21
24.998683
  0
LINE
  8
1
 62
7
  6
CONTINUOUS
 10
330.000000
 20
84.401003
 11
330.000000
 21
95.001467
  0
LINE
  8
1
 62
7
  6
CONTINUOUS
 10
330.000000
 20
37.999241
 11
305.999062
 21
37.999241
  0
LINE
  8
1
 62
7
  6
CONTINUOUS
 10
297.998800
 20
33.999034
 11
286.631656
 21
33.999034
  0
LINE
  8
1
 62
7
  6
CONTINUOUS
 10
265.997600
 20
31.999006
 11
279.998097
 21
31.999006
  0
LINE
  8
1
 62
7
  6
CONTINUOUS
 10
325.999944
 20
95.001467
 11
330.000000
 21
95.001467
  0
LINE
  8
1
 62
7
  6
CONTINUOUS
 10
323.999766
 20
108.501995
 11
323.999766
 21
114.502229
  0
LINE
  8
1
 62
7
  6
CONTINUOUS
 10
315.499534
 20
106.501816
 11
321.999737
 21
106.501816
  0
LINE
  8
1
 62
7
  6
CONTINUOUS
 10
325.999944
 20
24.998683
 11
330.000000
 21
24.998683
  0
LINE
  8
1
 62
7
  6
CONTINUOUS
 10
302.998945
 20
28.998889
 11
322.999827
 21
28.998889
  0
LINE
  8
1
 62
7
  6
CONTINUOUS
 10
315.499534
 20
91.001261
 11
322.999827
 21
91.001261
  0
LINE
  8
1
 62
7
  6
CONTINUOUS
 10
324.999855
 20
24.998683
 11
324.999855
 21
26.998711
  0
LINE
  8
1
 62
7
  6
CONTINUOUS
 10
244.686717
 20
34.482653
 11
302.998945
 21
76.848958
  0
LINE
  8
1
 62
7
  6
CONTINUOUS
 10
313.499355
 20
89.063935
 11
313.499355
 21
93.001289
  0
LINE
  8
1
 62
7
  6
CONTINUOUS
 10
225.995987
 20
37.999241
 11
201.995050
 21
37.999241
  0
LINE
  8
1
 62
7
  6
CONTINUOUS
 10
239.504915
 20
30.717806
 11
244.686717
 21
34.482653
  0
LINE
  8
1
 62
7
  6
CONTINUOUS
 10
324.999855
 20
25.998772
 11
324.999855
 21
37.999241
  0
LINE
  8
1
 62
7
  6
CONTINUOUS
 10
265.997600
 20
31.999006
 11
251.996953
 21
31.999006
  0
LINE
  8
1
 62
7
  6
CONTINUOUS
 10
204.495197
 20
207.505862
 11
210.504432
 21
207.505862
  0
LINE
  8
1
 62
7
  6
CONTINUOUS
 10
204.495197
 20
199.505449
 11
205.995256
 21
199.505449
  0
LINE
  8
1
 62
7
  6
CONTINUOUS
 10
204.495197
 20
141.503284
 11
205.995256
 21
141.503284
  0
LINE
  8
1
 62
7
  6
CONTINUOUS
 10
204.495197
 20
133.502871
 11
210.504432
 21
133.502871
  0
LINE
  8
1
 62
7
  6
CONTINUOUS
 10
205.995256
 20
170.504367
 11
205.995256
 21
207.505862
  0
LINE
  8
1
 62
7
  6
CONTINUOUS
 10
205.995256
 20
170.504367
 11
205.995256
 21
133.502871
  0
LINE
  8
1
 62
7
  6
CONTINUOUS
 10
207.995284
 20
207.505862
 11
207.995284
 21
133.502871
  0
LINE
  8
1
 62
7
  6
CONTINUOUS
 10
244.996780
 20
207.505862
 11
244.996780
 21
133.502871
  0
LINE
  8
1
 62
7
  6
CONTINUOUS
 10
234.547821
 20
131.002874
 11
234.547821
 21
135.503049
  0
LINE
  8
1
 62
7
  6
CONTINUOUS
 10
207.995284
 20
114.502229
 11
207.995284
 21
125.002639
  0
LINE
  8
1
 62
7
  6
CONTINUOUS
 10
208.995373
 20
207.505862
 11
208.995373
 21
133.502871
  0
LINE
  8
1
 62
7
  6
CONTINUOUS
 10
205.995256
 20
207.505862
 11
246.996808
 21
207.505862
  0
LINE
  8
1
 62
7
  6
CONTINUOUS
 10
205.995256
 20
133.502871
 11
232.047674
 21
133.502871
  0
LINE
  8
1
 62
7
  6
CONTINUOUS
 10
243.146607
 20
207.505862
 11
243.146607
 21
133.502871
  0
LINE
  8
1
 62
7
  6
CONTINUOUS
 10
243.146607
 20
133.502871
 11
243.146607
 21
136.502988
  0
LINE
  8
1
 62
7
  6
CONTINUOUS
 10
250.997014
 20
207.905778
 11
250.997014
 21
211.505918
  0
LINE
  8
1
 62
7
  6
CONTINUOUS
 10
248.996836
 20
207.905778
 11
248.996836
 21
211.505918
  0
LINE
  8
1
 62
7
  6
CONTINUOUS
 10
286.998420
 20
208.505801
 11
279.998097
 21
208.505801
  0
LINE
  8
1
 62
7
  6
CONTINUOUS
 10
275.997891
 20
207.689169
 11
275.997891
 21
210.505979
  0
LINE
  8
1
 62
7
  6
CONTINUOUS
 10
276.997980
 20
211.505918
 11
281.998125
 21
211.505918
  0
LINE
  8
1
 62
7
  6
CONTINUOUS
 10
248.996836
 20
202.005597
 11
251.996953
 21
202.005597
  0
LINE
  8
1
 62
7
  6
CONTINUOUS
 10
254.997070
 20
211.505918
 11
246.996808
 21
211.505918
  0
LINE
  8
1
 62
7
  6
CONTINUOUS
 10
286.998420
 20
207.505862
 11
286.998420
 21
208.505801
  0
LINE
  8
1
 62
7
  6
CONTINUOUS
 10
288.842592
 20
219.506331
 11
279.998097
 21
219.506331
  0
LINE
  8
1
 62
7
  6
CONTINUOUS
 10
281.998125
 20
208.505801
 11
281.998125
 21
216.577916
  0
LINE
  8
1
 62
7
  6
CONTINUOUS
 10
255.997159
 20
207.976880
 11
255.997159
 21
210.505979
  0
LINE
  8
1
 62
7
  6
CONTINUOUS
 10
265.997600
 20
208.055783
 11
280.998186
 21
207.505862
  0
LINE
  8
1
 62
7
  6
CONTINUOUS
 10
248.319709
 20
139.003136
 11
251.996953
 21
139.003136
  0
LINE
  8
1
 62
7
  6
CONTINUOUS
 10
248.996836
 20
187.005011
 11
251.996953
 21
187.005011
  0
LINE
  8
1
 62
7
  6
CONTINUOUS
 10
252.997042
 20
201.005508
 11
252.997042
 21
188.005100
  0
LINE
  8
1
 62
7
  6
CONTINUOUS
 10
247.996897
 20
206.505773
 11
247.996897
 21
138.949584
  0
LINE
  8
1
 62
7
  6
CONTINUOUS
 10
291.998566
 20
207.505862
 11
291.998566
 21
216.506214
  0
LINE
  8
1
 62
7
  6
CONTINUOUS
 10
240.548056
 20
133.502871
 11
244.996780
 21
133.502871
  0
LINE
  8
1
 62
7
  6
CONTINUOUS
 10
235.047791
 20
131.002874
 11
235.047791
 21
135.503049
  0
LINE
  8
1
 62
7
  6
CONTINUOUS
 10
323.999766
 20
114.502229
 11
207.995284
 21
114.502229
  0
LINE
  8
1
 62
7
  6
CONTINUOUS
 10
238.047908
 20
131.002874
 11
238.047908
 21
135.503049
  0
LINE
  8
1
 62
7
  6
CONTINUOUS
 10
236.047880
 20
131.002874
 11
236.047880
 21
135.503049
  0
LINE
  8
1
 62
7
  6
CONTINUOUS
 10
271.997834
 20
241.507090
 11
259.997366
 21
241.507090
  0
LINE
  8
1
 62
7
  6
CONTINUOUS
 10
251.996953
 20
219.506331
 11
249.996925
 21
219.506331
  0
LINE
  8
1
 62
7
  6
CONTINUOUS
 10
240.048086
 20
131.002874
 11
240.048086
 21
135.503049
  0
LINE
  8
1
 62
7
  6
CONTINUOUS
 10
209.495343
 20
126.502698
 11
207.995284
 21
125.002639
  0
LINE
  8
1
 62
7
  6
CONTINUOUS
 10
322.499707
 20
126.502698
 11
323.999766
 21
125.002639
  0
LINE
  8
1
 62
7
  6
CONTINUOUS
 10
323.999766
 20
114.502229
 11
323.999766
 21
125.002639
  0
LINE
  8
1
 62
7
  6
CONTINUOUS
 10
288.998448
 20
219.506331
 11
288.376974
 21
219.506331
  0
LINE
  8
1
 62
7
  6
CONTINUOUS
 10
246.996808
 20
207.905778
 11
246.996808
 21
216.506214
  0
LINE
  8
1
 62
7
  6
CONTINUOUS
 10
255.997159
 20
223.506387
 11
255.997159
 21
237.507034
  0
LINE
  8
1
 62
7
  6
CONTINUOUS
 10
275.997891
 20
223.506387
 11
275.997891
 21
237.507034
  0
LINE
  8
1
 62
7
  6
CONTINUOUS
 10
229.996194
 20
136.502988
 11
229.996194
 21
135.503049
  0
LINE
  8
1
 62
7
  6
CONTINUOUS
 10
237.547939
 20
131.002874
 11
237.547939
 21
135.503049
  0
LINE
  8
1
 62
7
  6
CONTINUOUS
 10
283.998303
 20
159.612291
 11
283.998303
 21
207.505862
  0
LINE
  8
1
 62
7
  6
CONTINUOUS
 10
233.547732
 20
131.002874
 11
233.547732
 21
135.503049
  0
LINE
  8
1
 62
7
  6
CONTINUOUS
 10
291.998566
 20
202.505567
 11
291.998566
 21
207.505862
  0
LINE
  8
1
 62
7
  6
CONTINUOUS
 10
290.998477
 20
201.505628
 11
284.998242
 21
201.505628
  0
LINE
  8
1
 62
7
  6
CONTINUOUS
 10
284.748332
 20
207.505862
 11
252.665229
 21
207.505862
  0
LINE
  8
1
 62
7
  6
CONTINUOUS
 10
300.998917
 20
126.502698
 11
322.499707
 21
126.502698
  0
LINE
  8
1
 62
7
  6
CONTINUOUS
 10
233.047763
 20
131.002874
 11
233.047763
 21
135.503049
  0
LINE
  8
1
 62
7
  6
CONTINUOUS
 10
237.047969
 20
131.002874
 11
237.047969
 21
135.503049
  0
LINE
  8
1
 62
7
  6
CONTINUOUS
 10
236.547850
 20
131.002874
 11
236.547850
 21
135.503049
  0
LINE
  8
1
 62
7
  6
CONTINUOUS
 10
252.997042
 20
140.003225
 11
252.997042
 21
153.003633
  0
LINE
  8
1
 62
7
  6
CONTINUOUS
 10
291.998566
 20
207.505862
 11
277.497199
 21
207.505862
  0
LINE
  8
1
 62
7
  6
CONTINUOUS
 10
250.997014
 20
207.937429
 11
265.997600
 21
208.055783
  0
LINE
  8
1
 62
7
  6
CONTINUOUS
 10
248.996836
 20
154.003722
 11
251.996953
 21
154.003722
  0
LINE
  8
1
 62
7
  6
CONTINUOUS
 10
299.998828
 20
131.002874
 11
231.996222
 21
131.002874
  0
LINE
  8
1
 62
7
  6
CONTINUOUS
 10
245.996719
 20
132.002813
 11
245.996719
 21
132.502932
  0
LINE
  8
1
 62
7
  6
CONTINUOUS
 10
300.998917
 20
126.502698
 11
209.495343
 21
126.502698
  0
LINE
  8
1
 62
7
  6
CONTINUOUS
 10
285.998331
 20
133.002902
 11
285.998331
 21
143.503312
  0
LINE
  8
1
 62
7
  6
CONTINUOUS
 10
235.547910
 20
131.002874
 11
235.547910
 21
135.503049
  0
LINE
  8
1
 62
7
  6
CONTINUOUS
 10
283.998303
 20
145.503340
 11
283.998303
 21
160.809338
  0
LINE
  8
1
 62
7
  6
CONTINUOUS
 10
261.247364
 20
208.018282
 11
261.247364
 21
216.506214
  0
LINE
  8
1
 62
7
  6
CONTINUOUS
 10
300.998917
 20
126.502698
 11
300.998917
 21
130.002784
  0
LINE
  8
1
 62
7
  6
CONTINUOUS
 10
230.996133
 20
126.502698
 11
230.996133
 21
130.002784
  0
LINE
  8
1
 62
7
  6
CONTINUOUS
 10
251.996953
 20
219.506331
 11
279.998097
 21
219.506331
  0
LINE
  8
1
 62
7
  6
CONTINUOUS
 10
284.748332
 20
207.505862
 11
252.665229
 21
207.505862
  0
LINE
  8
1
 62
7
  6
CONTINUOUS
 10
231.996222
 20
138.503167
 11
246.996808
 21
138.503167
  0
LINE
  8
1
 62
7
  6
CONTINUOUS
 10
250.559447
 20
211.505918
 11
250.559447
 21
216.506214
  0
LINE
  8
1
 62
7
  6
CONTINUOUS
 10
247.004158
 20
207.891527
 11
248.996836
 21
207.905778
  0
LINE
  8
1
 62
7
  6
CONTINUOUS
 10
262.434961
 20
208.027732
 11
262.434961
 21
216.506214
  0
LINE
  8
1
 62
7
  6
CONTINUOUS
 10
263.622407
 20
208.037033
 11
263.622407
 21
216.506214
  0
LINE
  8
1
 62
7
  6
CONTINUOUS
 10
264.810004
 20
208.046483
 11
264.810004
 21
216.506214
  0
LINE
  8
1
 62
7
  6
CONTINUOUS
 10
275.870836
 20
238.506973
 11
256.124214
 21
238.506973
  0
LINE
  8
1
 62
7
  6
CONTINUOUS
 10
276.005841
 20
229.506621
 11
255.997159
 21
229.506621
  0
LINE
  8
1
 62
7
  6
CONTINUOUS
 10
260.059768
 20
208.008982
 11
260.059768
 21
216.506214
  0
LINE
  8
1
 62
7
  6
CONTINUOUS
 10
276.367505
 20
221.506359
 11
255.651996
 21
221.506359
  0
LINE
  8
1
 62
7
  6
CONTINUOUS
 10
256.497129
 20
207.980780
 11
256.497129
 21
216.506214
  0
LINE
  8
1
 62
7
  6
CONTINUOUS
 10
251.747043
 20
211.505918
 11
251.747043
 21
216.506214
  0
LINE
  8
1
 62
7
  6
CONTINUOUS
 10
291.998566
 20
216.506214
 11
246.996808
 21
216.506214
  0
LINE
  8
1
 62
7
  6
CONTINUOUS
 10
252.934490
 20
211.505918
 11
252.934490
 21
216.506214
  0
LINE
  8
1
 62
7
  6
CONTINUOUS
 10
249.371850
 20
211.505918
 11
249.371850
 21
216.506214
  0
LINE
  8
1
 62
7
  6
CONTINUOUS
 10
254.122086
 20
211.505918
 11
254.122086
 21
216.506214
  0
LINE
  8
1
 62
7
  6
CONTINUOUS
 10
255.309682
 20
211.455966
 11
255.309682
 21
216.506214
  0
LINE
  8
1
 62
7
  6
CONTINUOUS
 10
284.598326
 20
207.505862
 11
284.598326
 21
208.505801
  0
LINE
  8
1
 62
7
  6
CONTINUOUS
 10
248.184404
 20
211.505918
 11
248.184404
 21
216.506214
  0
LINE
  8
1
 62
7
  6
CONTINUOUS
 10
258.872322
 20
207.999531
 11
258.872322
 21
216.506214
  0
LINE
  8
1
 62
7
  6
CONTINUOUS
 10
257.684725
 20
207.990231
 11
257.684725
 21
216.506214
  0
LINE
  8
1
 62
7
  6
CONTINUOUS
 10
260.997305
 20
229.506621
 11
260.997305
 21
238.419970
  0
LINE
  8
1
 62
7
  6
CONTINUOUS
 10
258.497307
 20
229.506621
 11
258.497307
 21
238.419970
  0
LINE
  8
1
 62
7
  6
CONTINUOUS
 10
257.247158
 20
229.506621
 11
257.247158
 21
238.419970
  0
LINE
  8
1
 62
7
  6
CONTINUOUS
 10
259.747306
 20
229.506621
 11
259.747306
 21
238.419970
  0
LINE
  8
1
 62
7
  6
CONTINUOUS
 10
262.247453
 20
229.506621
 11
262.247453
 21
238.506973
  0
LINE
  8
1
 62
7
  6
CONTINUOUS
 10
263.497452
 20
229.506621
 11
263.497452
 21
238.506973
  0
LINE
  8
1
 62
7
  6
CONTINUOUS
 10
264.747451
 20
229.506621
 11
264.747451
 21
238.506973
  0
LINE
  8
1
 62
7
  6
CONTINUOUS
 10
270.997745
 20
229.506621
 11
270.997745
 21
238.506973
  0
LINE
  8
1
 62
7
  6
CONTINUOUS
 10
274.747892
 20
229.506621
 11
274.747892
 21
238.506973
  0
LINE
  8
1
 62
7
  6
CONTINUOUS
 10
273.497893
 20
229.506621
 11
273.497893
 21
238.506973
  0
LINE
  8
1
 62
7
  6
CONTINUOUS
 10
268.497598
 20
229.506621
 11
268.497598
 21
238.506973
  0
LINE
  8
1
 62
7
  6
CONTINUOUS
 10
272.247744
 20
229.506621
 11
272.247744
 21
238.506973
  0
LINE
  8
1
 62
7
  6
CONTINUOUS
 10
269.747746
 20
229.506621
 11
269.747746
 21
238.506973
  0
LINE
  8
1
 62
7
  6
CONTINUOUS
 10
267.247599
 20
229.506621
 11
267.247599
 21
238.506973
  0
LINE
  8
1
 62
7
  6
CONTINUOUS
 10
269.560239
 20
207.925278
 11
269.560239
 21
216.506214
  0
LINE
  8
1
 62
7
  6
CONTINUOUS
 10
287.373435
 20
207.505862
 11
287.373435
 21
216.506214
  0
LINE
  8
1
 62
7
  6
CONTINUOUS
 10
268.372643
 20
207.968780
 11
268.372643
 21
216.506214
  0
LINE
  8
1
 62
7
  6
CONTINUOUS
 10
267.185046
 20
208.012282
 11
267.185046
 21
216.506214
  0
LINE
  8
1
 62
7
  6
CONTINUOUS
 10
281.435603
 20
211.505918
 11
281.435603
 21
216.506214
  0
LINE
  8
1
 62
7
  6
CONTINUOUS
 10
270.747685
 20
207.881627
 11
270.747685
 21
216.506214
  0
LINE
  8
1
 62
7
  6
CONTINUOUS
 10
271.935282
 20
207.838125
 11
271.935282
 21
216.506214
  0
LINE
  8
1
 62
7
  6
CONTINUOUS
 10
275.497921
 20
207.707470
 11
275.497921
 21
216.506214
  0
LINE
  8
1
 62
7
  6
CONTINUOUS
 10
280.248157
 20
211.505918
 11
280.248157
 21
216.506214
  0
LINE
  8
1
 62
7
  6
CONTINUOUS
 10
279.060560
 20
211.505918
 11
279.060560
 21
216.506214
  0
LINE
  8
1
 62
7
  6
CONTINUOUS
 10
282.623199
 20
208.505801
 11
282.623199
 21
216.506214
  0
LINE
  8
1
 62
7
  6
CONTINUOUS
 10
277.872964
 20
211.505918
 11
277.872964
 21
216.506214
  0
LINE
  8
1
 62
7
  6
CONTINUOUS
 10
276.685517
 20
211.455966
 11
276.685517
 21
216.506214
  0
LINE
  8
1
 62
7
  6
CONTINUOUS
 10
283.810796
 20
208.505801
 11
283.810796
 21
216.506214
  0
LINE
  8
1
 62
7
  6
CONTINUOUS
 10
273.122878
 20
207.794623
 11
273.122878
 21
216.506214
  0
LINE
  8
1
 62
7
  6
CONTINUOUS
 10
274.310325
 20
207.751122
 11
274.310325
 21
216.506214
  0
LINE
  8
1
 62
7
  6
CONTINUOUS
 10
286.185839
 20
208.505801
 11
286.185839
 21
216.506214
  0
LINE
  8
1
 62
7
  6
CONTINUOUS
 10
288.560881
 20
207.505862
 11
288.560881
 21
216.506214
  0
LINE
  8
1
 62
7
  6
CONTINUOUS
 10
284.998242
 20
208.505801
 11
284.998242
 21
216.506214
  0
LINE
  8
1
 62
7
  6
CONTINUOUS
 10
289.748478
 20
207.505862
 11
289.748478
 21
216.506214
  0
LINE
  8
1
 62
7
  6
CONTINUOUS
 10
290.936074
 20
207.505862
 11
290.936074
 21
216.506214
  0
LINE
  8
1
 62
7
  6
CONTINUOUS
 10
275.991590
 20
221.506359
 11
275.991590
 21
216.506214
  0
LINE
  8
1
 62
7
  6
CONTINUOUS
 10
273.493093
 20
221.506359
 11
273.493093
 21
216.506214
  0
LINE
  8
1
 62
7
  6
CONTINUOUS
 10
270.994595
 20
221.506359
 11
270.994595
 21
216.506214
  0
LINE
  8
1
 62
7
  6
CONTINUOUS
 10
268.496098
 20
221.506359
 11
268.496098
 21
216.506214
  0
LINE
  8
1
 62
7
  6
CONTINUOUS
 10
267.246849
 20
221.506359
 11
267.246849
 21
216.506214
  0
LINE
  8
1
 62
7
  6
CONTINUOUS
 10
269.745346
 20
221.506359
 11
269.745346
 21
216.506214
  0
LINE
  8
1
 62
7
  6
CONTINUOUS
 10
272.243844
 20
221.506359
 11
272.243844
 21
216.506214
  0
LINE
  8
1
 62
7
  6
CONTINUOUS
 10
274.742341
 20
221.506359
 11
274.742341
 21
216.506214
  0
LINE
  8
1
 62
7
  6
CONTINUOUS
 10
257.252708
 20
221.506359
 11
257.252708
 21
216.506214
  0
LINE
  8
1
 62
7
  6
CONTINUOUS
 10
259.751206
 20
221.506359
 11
259.751206
 21
216.506214
  0
LINE
  8
1
 62
7
  6
CONTINUOUS
 10
262.249704
 20
221.506359
 11
262.249704
 21
216.506214
  0
LINE
  8
1
 62
7
  6
CONTINUOUS
 10
264.748201
 20
221.506359
 11
264.748201
 21
216.506214
  0
LINE
  8
1
 62
7
  6
CONTINUOUS
 10
263.498952
 20
221.506359
 11
263.498952
 21
216.506214
  0
LINE
  8
1
 62
7
  6
CONTINUOUS
 10
261.000455
 20
221.506359
 11
261.000455
 21
216.506214
  0
LINE
  8
1
 62
7
  6
CONTINUOUS
 10
258.501957
 20
221.506359
 11
258.501957
 21
216.506214
  0
LINE
  8
1
 62
7
  6
CONTINUOUS
 10
256.003460
 20
221.506359
 11
256.003460
 21
216.506214
  0
LINE
  8
1
 62
7
  6
CONTINUOUS
 10
265.997600
 20
229.506621
 11
265.997600
 21
238.506973
  0
LINE
  8
1
 62
7
  6
CONTINUOUS
 10
265.997600
 20
208.046483
 11
265.997600
 21
216.506214
  0
LINE
  8
1
 62
7
  6
CONTINUOUS
 10
265.997600
 20
221.506359
 11
265.997600
 21
216.506214
  0
LINE
  8
1
 62
7
  6
CONTINUOUS
 10
299.947376
 20
135.503049
 11
291.446994
 21
135.503049
  0
LINE
  8
1
 62
7
  6
CONTINUOUS
 10
291.446994
 20
135.503049
 11
291.946964
 21
136.003019
  0
LINE
  8
1
 62
7
  6
CONTINUOUS
 10
299.447257
 20
136.003019
 11
299.947376
 21
135.503049
  0
LINE
  8
1
 62
7
  6
CONTINUOUS
 10
240.548056
 20
135.503049
 11
240.048086
 21
136.003019
  0
LINE
  8
1
 62
7
  6
CONTINUOUS
 10
232.047674
 20
135.503049
 11
232.547793
 21
136.003019
  0
LINE
  8
1
 62
7
  6
CONTINUOUS
 10
240.548056
 20
135.503049
 11
232.047674
 21
135.503049
  0
LINE
  8
1
 62
7
  6
CONTINUOUS
 10
239.547967
 20
131.002874
 11
239.547967
 21
135.503049
  0
LINE
  8
1
 62
7
  6
CONTINUOUS
 10
234.047852
 20
131.002874
 11
234.047852
 21
135.503049
  0
LINE
  8
1
 62
7
  6
CONTINUOUS
 10
239.047997
 20
131.002874
 11
239.047997
 21
135.503049
  0
LINE
  8
1
 62
7
  6
CONTINUOUS
 10
232.047674
 20
131.002874
 11
232.047674
 21
135.503049
  0
LINE
  8
1
 62
7
  6
CONTINUOUS
 10
238.548028
 20
131.002874
 11
238.548028
 21
135.503049
  0
LINE
  8
1
 62
7
  6
CONTINUOUS
 10
205.995256
 20
95.001467
 11
201.995050
 21
95.001467
  0
LINE
  8
1
 62
7
  6
CONTINUOUS
 10
207.995284
 20
108.501995
 11
207.995284
 21
114.502229
  0
LINE
  8
1
 62
7
  6
CONTINUOUS
 10
321.999737
 20
106.501816
 11
209.995312
 21
106.501816
  0
LINE
  8
1
 62
7
  6
CONTINUOUS
 10
218.495694
 20
93.001289
 11
218.495694
 21
104.501788
  0
LINE
  8
1
 62
7
  6
CONTINUOUS
 10
205.995256
 20
24.998683
 11
201.995050
 21
24.998683
  0
LINE
  8
1
 62
7
  6
CONTINUOUS
 10
201.995050
 20
84.401003
 11
201.995050
 21
95.001467
  0
LINE
  8
1
 62
7
  6
CONTINUOUS
 10
234.214508
 20
28.998889
 11
208.995373
 21
28.998889
  0
LINE
  8
1
 62
7
  6
CONTINUOUS
 10
216.495666
 20
91.001261
 11
208.995373
 21
91.001261
  0
LINE
  8
1
 62
7
  6
CONTINUOUS
 10
206.995195
 20
24.998683
 11
206.995195
 21
26.998711
  0
LINE
  8
1
 62
7
  6
CONTINUOUS
 10
206.995195
 20
25.998772
 11
206.995195
 21
37.999241
  0
ARC
  8
1
 62
7
  6
CONTINUOUS
 10
63.272631
 20
81.000820
 40
1.000089
 50
90.000000
 51
-180.000000
  0
ARC
  8
1
 62
7
  6
CONTINUOUS
 10
63.272631
 20
38.999180
 40
1.000089
 50
-180.000000
 51
-90.000000
  0
ARC
  8
1
 62
7
  6
CONTINUOUS
 10
131.275237
 20
38.999180
 40
1.000089
 50
-90.000000
 51
0.000000
  0
ARC
  8
1
 62
7
  6
CONTINUOUS
 10
131.275237
 20
81.000820
 40
1.000089
 50
0.000000
 51
90.000000
  0
ARC
  8
1
 62
7
  6
CONTINUOUS
 10
48.272045
 20
140.648850
 40
1.000089
 50
180.000000
 51
-90.000000
  0
ARC
  8
1
 62
7
  6
CONTINUOUS
 10
48.272045
 20
164.649788
 40
1.000089
 50
90.000000
 51
180.000000
  0
ARC
  8
1
 62
7
  6
CONTINUOUS
 10
59.272425
 20
166.649966
 40
1.000089
 50
-90.000000
 51
0.000000
  0
ARC
  8
1
 62
7
  6
CONTINUOUS
 10
59.272425
 20
138.648822
 40
1.000089
 50
0.000000
 51
90.000000
  0
ARC
  8
1
 62
7
  6
CONTINUOUS
 10
64.272720
 20
137.503077
 40
4.000206
 50
-180.000000
 51
-90.000000
  0
ARC
  8
1
 62
7
  6
CONTINUOUS
 10
120.274858
 20
133.002902
 40
2.000028
 50
180.000000
 51
-90.000000
  0
ARC
  8
1
 62
7
  6
CONTINUOUS
 10
131.275237
 20
130.002784
 40
1.000089
 50
0.000000
 51
90.000000
  0
ARC
  8
1
 62
7
  6
CONTINUOUS
 10
63.272631
 20
130.002784
 40
1.000089
 50
90.000000
 51
180.000000
  0
ARC
  8
1
 62
7
  6
CONTINUOUS
 10
130.275298
 20
137.503077
 40
4.000206
 50
-90.000000
 51
0.000000
  0
ARC
  8
1
 62
7
  6
CONTINUOUS
 10
64.272720
 20
203.505656
 40
4.000206
 50
90.000000
 51
180.000000
  0
ARC
  8
1
 62
7
  6
CONTINUOUS
 10
130.275298
 20
203.505656
 40
4.000206
 50
0.000000
 51
90.000000
  0
ARC
  8
1
 62
7
  6
CONTINUOUS
 10
65.772779
 20
136.003019
 40
1.000089
 50
90.000000
 51
-180.000000
  0
ARC
  8
1
 62
7
  6
CONTINUOUS
 10
62.772661
 20
139.003136
 40
1.000089
 50
-90.000000
 51
0.000000
  0
CIRCLE
  8
1
 62
7
  6
CONTINUOUS
 10
64.272720
 20
137.503077
 40
4.000206
  0
ARC
  8
1
 62
7
  6
CONTINUOUS
 10
62.772661
 20
136.003019
 40
1.000089
 50
34.288000
 51
90.000000
  0
ARC
  8
1
 62
7
  6
CONTINUOUS
 10
62.772661
 20
136.003019
 40
1.000089
 50
0.000000
 51
30.431000
  0
ARC
  8
1
 62
7
  6
CONTINUOUS
 10
65.772779
 20
139.003136
 40
1.000089
 50
-180.000000
 51
-90.000000
  0
ARC
  8
1
 62
7
  6
CONTINUOUS
 10
131.775357
 20
205.005714
 40
1.000089
 50
180.000000
 51
-90.000000
  0
ARC
  8
1
 62
7
  6
CONTINUOUS
 10
128.775240
 20
202.005597
 40
1.000089
 50
0.000000
 51
30.431000
  0
ARC
  8
1
 62
7
  6
CONTINUOUS
 10
128.775240
 20
202.005597
 40
1.000089
 50
34.288000
 51
90.000000
  0
CIRCLE
  8
1
 62
7
  6
CONTINUOUS
 10
130.275298
 20
203.505656
 40
4.000206
  0
ARC
  8
1
 62
7
  6
CONTINUOUS
 10
128.775240
 20
205.005714
 40
1.000089
 50
-90.000000
 51
0.000000
  0
ARC
  8
1
 62
7
  6
CONTINUOUS
 10
131.775357
 20
202.005597
 40
1.000089
 50
90.000000
 51
180.000000
  0
ARC
  8
1
 62
7
  6
CONTINUOUS
 10
130.275298
 20
137.503077
 40
4.000206
 50
-90.000000
 51
0.000000
  0
ARC
  8
1
 62
7
  6
CONTINUOUS
 10
130.275298
 20
203.505656
 40
4.000206
 50
0.000000
 51
90.000000
  0
ARC
  8
1
 62
7
  6
CONTINUOUS
 10
62.772661
 20
205.005714
 40
1.000089
 50
-90.000000
 51
0.000000
  0
ARC
  8
1
 62
7
  6
CONTINUOUS
 10
131.775357
 20
136.003019
 40
1.000089
 50
90.000000
 51
-180.000000
  0
ARC
  8
1
 62
7
  6
CONTINUOUS
 10
128.775240
 20
139.003136
 40
1.000089
 50
-90.000000
 51
0.000000
  0
CIRCLE
  8
1
 62
7
  6
CONTINUOUS
 10
130.275298
 20
137.503077
 40
4.000206
  0
ARC
  8
1
 62
7
  6
CONTINUOUS
 10
128.775240
 20
136.003019
 40
1.000089
 50
34.288000
 51
90.000000
  0
ARC
  8
1
 62
7
  6
CONTINUOUS
 10
62.772661
 20
202.005597
 40
1.000089
 50
34.288000
 51
90.000000
  0
ARC
  8
1
 62
7
  6
CONTINUOUS
 10
65.772779
 20
202.005597
 40
1.000089
 50
90.000000
 51
180.000000
  0
CIRCLE
  8
1
 62
7
  6
CONTINUOUS
 10
64.272720
 20
203.505656
 40
4.000206
  0
ARC
  8
1
 62
7
  6
CONTINUOUS
 10
64.272720
 20
203.505656
 40
4.000206
 50
90.000000
 51
180.000000
  0
ARC
  8
1
 62
7
  6
CONTINUOUS
 10
128.775240
 20
136.003019
 40
1.000089
 50
0.000000
 51
30.431000
  0
ARC
  8
1
 62
7
  6
CONTINUOUS
 10
62.772661
 20
202.005597
 40
1.000089
 50
0.000000
 51
30.431000
  0
ARC
  8
1
 62
7
  6
CONTINUOUS
 10
64.272720
 20
137.503077
 40
4.000206
 50
-180.000000
 51
-90.000000
  0
ARC
  8
1
 62
7
  6
CONTINUOUS
 10
65.772779
 20
205.005714
 40
1.000089
 50
180.000000
 51
-90.000000
  0
ARC
  8
1
 62
7
  6
CONTINUOUS
 10
74.273011
 20
133.002902
 40
2.000028
 50
-90.000000
 51
0.000000
  0
ARC
  8
1
 62
7
  6
CONTINUOUS
 10
113.274534
 20
216.506214
 40
3.000117
 50
0.000000
 51
90.000000
  0
ARC
  8
1
 62
7
  6
CONTINUOUS
 10
103.274244
 20
237.507034
 40
4.000206
 50
0.000000
 51
90.000000
  0
ARC
  8
1
 62
7
  6
CONTINUOUS
 10
91.273775
 20
237.507034
 40
4.000206
 50
90.000000
 51
180.000000
  0
ARC
  8
1
 62
7
  6
CONTINUOUS
 10
81.273334
 20
216.506214
 40
3.000117
 50
90.000000
 51
180.000000
  0
ARC
  8
1
 62
7
  6
CONTINUOUS
 10
83.273362
 20
223.506387
 40
4.000206
 50
-90.000000
 51
0.000000
  0
ARC
  8
1
 62
7
  6
CONTINUOUS
 10
111.274506
 20
223.506387
 40
4.000206
 50
180.000000
 51
-90.000000
  0
ARC
  8
1
 62
7
  6
CONTINUOUS
 10
86.273479
 20
210.505979
 40
1.000089
 50
0.000000
 51
90.000000
  0
ARC
  8
1
 62
7
  6
CONTINUOUS
 10
108.274389
 20
210.505979
 40
1.000089
 50
90.000000
 51
180.000000
  0
ARC
  8
1
 62
7
  6
CONTINUOUS
 10
131.775357
 20
139.003136
 40
1.000089
 50
-180.000000
 51
-90.000000
  0
ARC
  8
1
 62
7
  6
CONTINUOUS
 10
45.824999
 20
161.616219
 40
4.657682
 50
179.923700
 51
-139.584000
  0
ARC
  8
1
 62
7
  6
CONTINUOUS
 10
31.463588
 20
150.630090
 40
2.305140
 50
124.439500
 51
-124.526300
  0
ARC
  8
1
 62
7
  6
CONTINUOUS
 10
28.856337
 20
154.432139
 40
2.305140
 50
-55.560500
 51
55.473700
  0
ARC
  8
1
 62
7
  6
CONTINUOUS
 10
31.466439
 20
154.430189
 40
2.305140
 50
124.439500
 51
-124.526300
  0
ARC
  8
1
 62
7
  6
CONTINUOUS
 10
58.348689
 20
152.521964
 40
17.188271
 50
159.303600
 51
-159.303600
  0
ARC
  8
1
 62
7
  6
CONTINUOUS
 10
45.811199
 20
143.422309
 40
4.657682
 50
139.497200
 51
179.989600
  0
CIRCLE
  8
1
 62
7
  6
CONTINUOUS
 10
97.274009
 20
60.000000
 40
24.150943
  0
ARC
  8
1
 62
7
  6
CONTINUOUS
 10
97.274009
 20
60.000000
 40
35.001317
 50
38.944800
 51
141.055200
  0
ARC
  8
1
 62
7
  6
CONTINUOUS
 10
132.775296
 20
40.999358
 40
12.000469
 50
-90.000000
 51
0.000000
  0
ARC
  8
1
 62
7
  6
CONTINUOUS
 10
41.271722
 20
108.501995
 40
2.000028
 50
180.000000
 51
-90.000000
  0
CIRCLE
  8
1
 62
7
  6
CONTINUOUS
 10
97.274009
 20
60.000000
 40
22.350873
  0
ARC
  8
1
 62
7
  6
CONTINUOUS
 10
97.274009
 20
60.000000
 40
35.001317
 50
-141.055200
 51
-38.944800
  0
ARC
  8
1
 62
7
  6
CONTINUOUS
 10
153.276147
 20
108.501995
 40
2.000028
 50
-90.000000
 51
0.000000
  0
ARC
  8
1
 62
7
  6
CONTINUOUS
 10
61.772572
 20
40.999358
 40
12.000469
 50
-180.000000
 51
-90.000000
  0
ARC
  8
1
 62
7
  6
CONTINUOUS
 10
47.772075
 20
104.501788
 40
2.000028
 50
0.000000
 51
90.000000
  0
ARC
  8
1
 62
7
  6
CONTINUOUS
 10
146.775943
 20
104.501788
 40
2.000028
 50
90.000000
 51
-180.000000
  0
LINE
  8
1
 62
7
  6
CONTINUOUS
 10
39.271693
 20
125.002639
 11
155.276175
 21
125.002639
  0
LINE
  8
1
 62
7
  6
CONTINUOUS
 10
81.025224
 20
28.998889
 11
61.772572
 21
28.998889
  0
LINE
  8
1
 62
7
  6
CONTINUOUS
 10
144.775765
 20
104.501788
 11
144.775765
 21
40.999358
  0
LINE
  8
1
 62
7
  6
CONTINUOUS
 10
49.772104
 20
104.501788
 11
49.772104
 21
40.999358
  0
LINE
  8
1
 62
7
  6
CONTINUOUS
 10
155.276175
 20
125.002639
 11
155.276175
 21
108.501995
  0
LINE
  8
1
 62
7
  6
CONTINUOUS
 10
93.711370
 20
207.905778
 11
93.711370
 21
216.506214
  0
LINE
  8
1
 62
7
  6
CONTINUOUS
 10
59.272425
 20
165.649877
 11
48.272045
 21
165.649877
  0
LINE
  8
1
 62
7
  6
CONTINUOUS
 10
59.272425
 20
139.648911
 11
48.272045
 21
139.648911
  0
LINE
  8
1
 62
7
  6
CONTINUOUS
 10
87.279869
 20
221.506359
 11
87.279869
 21
216.506214
  0
LINE
  8
1
 62
7
  6
CONTINUOUS
 10
89.778366
 20
221.506359
 11
89.778366
 21
216.506214
  0
LINE
  8
1
 62
7
  6
CONTINUOUS
 10
92.276864
 20
221.506359
 11
92.276864
 21
216.506214
  0
LINE
  8
1
 62
7
  6
CONTINUOUS
 10
94.775362
 20
221.506359
 11
94.775362
 21
216.506214
  0
LINE
  8
1
 62
7
  6
CONTINUOUS
 10
91.027615
 20
221.506359
 11
91.027615
 21
216.506214
  0
LINE
  8
1
 62
7
  6
CONTINUOUS
 10
93.526113
 20
221.506359
 11
93.526113
 21
216.506214
  0
LINE
  8
1
 62
7
  6
CONTINUOUS
 10
96.024760
 20
221.506359
 11
96.024760
 21
216.506214
  0
LINE
  8
1
 62
7
  6
CONTINUOUS
 10
88.529118
 20
221.506359
 11
88.529118
 21
216.506214
  0
LINE
  8
1
 62
7
  6
CONTINUOUS
 10
106.018751
 20
221.506359
 11
106.018751
 21
216.506214
  0
LINE
  8
1
 62
7
  6
CONTINUOUS
 10
103.520253
 20
221.506359
 11
103.520253
 21
216.506214
  0
LINE
  8
1
 62
7
  6
CONTINUOUS
 10
101.021756
 20
221.506359
 11
101.021756
 21
216.506214
  0
LINE
  8
1
 62
7
  6
CONTINUOUS
 10
98.523258
 20
221.506359
 11
98.523258
 21
216.506214
  0
LINE
  8
1
 62
7
  6
CONTINUOUS
 10
99.772507
 20
221.506359
 11
99.772507
 21
216.506214
  0
LINE
  8
1
 62
7
  6
CONTINUOUS
 10
102.271004
 20
221.506359
 11
102.271004
 21
216.506214
  0
LINE
  8
1
 62
7
  6
CONTINUOUS
 10
104.769502
 20
221.506359
 11
104.769502
 21
216.506214
  0
LINE
  8
1
 62
7
  6
CONTINUOUS
 10
107.268150
 20
221.506359
 11
107.268150
 21
216.506214
  0
LINE
  8
1
 62
7
  6
CONTINUOUS
 10
116.274651
 20
208.505801
 11
116.274651
 21
216.506214
  0
LINE
  8
1
 62
7
  6
CONTINUOUS
 10
105.586734
 20
207.905778
 11
105.586734
 21
216.506214
  0
LINE
  8
1
 62
7
  6
CONTINUOUS
 10
115.087205
 20
211.505918
 11
115.087205
 21
216.506214
  0
LINE
  8
1
 62
7
  6
CONTINUOUS
 10
109.149373
 20
211.505918
 11
109.149373
 21
216.506214
  0
LINE
  8
1
 62
7
  6
CONTINUOUS
 10
113.899609
 20
211.505918
 11
113.899609
 21
216.506214
  0
LINE
  8
1
 62
7
  6
CONTINUOUS
 10
107.961927
 20
211.455966
 11
107.961927
 21
216.506214
  0
LINE
  8
1
 62
7
  6
CONTINUOUS
 10
110.336969
 20
211.505918
 11
110.336969
 21
216.506214
  0
LINE
  8
1
 62
7
  6
CONTINUOUS
 10
104.399287
 20
207.905778
 11
104.399287
 21
216.506214
  0
LINE
  8
1
 62
7
  6
CONTINUOUS
 10
111.524566
 20
211.505918
 11
111.524566
 21
216.506214
  0
LINE
  8
1
 62
7
  6
CONTINUOUS
 10
106.774330
 20
207.905778
 11
106.774330
 21
216.506214
  0
LINE
  8
1
 62
7
  6
CONTINUOUS
 10
103.211691
 20
207.905778
 11
103.211691
 21
216.506214
  0
LINE
  8
1
 62
7
  6
CONTINUOUS
 10
102.024095
 20
207.905778
 11
102.024095
 21
216.506214
  0
LINE
  8
1
 62
7
  6
CONTINUOUS
 10
112.712012
 20
211.505918
 11
112.712012
 21
216.506214
  0
LINE
  8
1
 62
7
  6
CONTINUOUS
 10
98.461456
 20
207.905778
 11
98.461456
 21
216.506214
  0
LINE
  8
1
 62
7
  6
CONTINUOUS
 10
100.836648
 20
207.905778
 11
100.836648
 21
216.506214
  0
LINE
  8
1
 62
7
  6
CONTINUOUS
 10
99.649052
 20
207.905778
 11
99.649052
 21
216.506214
  0
LINE
  8
1
 62
7
  6
CONTINUOUS
 10
98.524008
 20
229.506621
 11
98.524008
 21
238.506973
  0
LINE
  8
1
 62
7
  6
CONTINUOUS
 10
101.024156
 20
229.506621
 11
101.024156
 21
238.506973
  0
LINE
  8
1
 62
7
  6
CONTINUOUS
 10
103.524153
 20
229.506621
 11
103.524153
 21
238.506973
  0
LINE
  8
1
 62
7
  6
CONTINUOUS
 10
99.774007
 20
229.506621
 11
99.774007
 21
238.506973
  0
LINE
  8
1
 62
7
  6
CONTINUOUS
 10
104.774302
 20
229.506621
 11
104.774302
 21
238.506973
  0
LINE
  8
1
 62
7
  6
CONTINUOUS
 10
106.024301
 20
229.506621
 11
106.024301
 21
238.506973
  0
LINE
  8
1
 62
7
  6
CONTINUOUS
 10
102.274154
 20
229.506621
 11
102.274154
 21
238.506973
  0
LINE
  8
1
 62
7
  6
CONTINUOUS
 10
96.023860
 20
229.506621
 11
96.023860
 21
238.506973
  0
LINE
  8
1
 62
7
  6
CONTINUOUS
 10
94.773861
 20
229.506621
 11
94.773861
 21
238.506973
  0
LINE
  8
1
 62
7
  6
CONTINUOUS
 10
93.523863
 20
229.506621
 11
93.523863
 21
238.506973
  0
LINE
  8
1
 62
7
  6
CONTINUOUS
 10
91.023715
 20
229.506621
 11
91.023715
 21
238.419970
  0
LINE
  8
1
 62
7
  6
CONTINUOUS
 10
88.523567
 20
229.506621
 11
88.523567
 21
238.419970
  0
LINE
  8
1
 62
7
  6
CONTINUOUS
 10
89.773716
 20
229.506621
 11
89.773716
 21
238.419970
  0
LINE
  8
1
 62
7
  6
CONTINUOUS
 10
92.273714
 20
229.506621
 11
92.273714
 21
238.419970
  0
LINE
  8
1
 62
7
  6
CONTINUOUS
 10
88.961134
 20
207.905778
 11
88.961134
 21
216.506214
  0
LINE
  8
1
 62
7
  6
CONTINUOUS
 10
90.148731
 20
207.905778
 11
90.148731
 21
216.506214
  0
LINE
  8
1
 62
7
  6
CONTINUOUS
 10
79.460813
 20
211.505918
 11
79.460813
 21
216.506214
  0
LINE
  8
1
 62
7
  6
CONTINUOUS
 10
86.586092
 20
211.455966
 11
86.586092
 21
216.506214
  0
LINE
  8
1
 62
7
  6
CONTINUOUS
 10
85.398495
 20
211.505918
 11
85.398495
 21
216.506214
  0
LINE
  8
1
 62
7
  6
CONTINUOUS
 10
80.648260
 20
211.505918
 11
80.648260
 21
216.506214
  0
LINE
  8
1
 62
7
  6
CONTINUOUS
 10
84.210899
 20
211.505918
 11
84.210899
 21
216.506214
  0
LINE
  8
1
 62
7
  6
CONTINUOUS
 10
116.274651
 20
216.506214
 11
78.273217
 21
216.506214
  0
LINE
  8
1
 62
7
  6
CONTINUOUS
 10
83.023452
 20
211.505918
 11
83.023452
 21
216.506214
  0
LINE
  8
1
 62
7
  6
CONTINUOUS
 10
87.773538
 20
207.905778
 11
87.773538
 21
216.506214
  0
LINE
  8
1
 62
7
  6
CONTINUOUS
 10
107.643914
 20
221.506359
 11
86.928405
 21
221.506359
  0
LINE
  8
1
 62
7
  6
CONTINUOUS
 10
91.336177
 20
207.905778
 11
91.336177
 21
216.506214
  0
LINE
  8
1
 62
7
  6
CONTINUOUS
 10
107.282250
 20
229.506621
 11
87.273568
 21
229.506621
  0
LINE
  8
1
 62
7
  6
CONTINUOUS
 10
107.147395
 20
238.506973
 11
87.400623
 21
238.506973
  0
LINE
  8
1
 62
7
  6
CONTINUOUS
 10
96.086413
 20
207.905778
 11
96.086413
 21
216.506214
  0
LINE
  8
1
 62
7
  6
CONTINUOUS
 10
94.898816
 20
207.905778
 11
94.898816
 21
216.506214
  0
LINE
  8
1
 62
7
  6
CONTINUOUS
 10
92.523774
 20
207.905778
 11
92.523774
 21
216.506214
  0
LINE
  8
1
 62
7
  6
CONTINUOUS
 10
81.835856
 20
211.505918
 11
81.835856
 21
216.506214
  0
LINE
  8
1
 62
7
  6
CONTINUOUS
 10
132.275326
 20
130.002784
 11
132.275326
 21
126.502698
  0
LINE
  8
1
 62
7
  6
CONTINUOUS
 10
62.272542
 20
130.002784
 11
62.272542
 21
126.502698
  0
LINE
  8
1
 62
7
  6
CONTINUOUS
 10
62.272542
 20
126.502698
 11
132.275326
 21
126.502698
  0
LINE
  8
1
 62
7
  6
CONTINUOUS
 10
132.275326
 20
126.502698
 11
120.274858
 21
126.502698
  0
LINE
  8
1
 62
7
  6
CONTINUOUS
 10
76.273189
 20
133.502871
 11
76.273189
 21
133.002902
  0
LINE
  8
1
 62
7
  6
CONTINUOUS
 10
118.274829
 20
133.502871
 11
118.274829
 21
133.002902
  0
LINE
  8
1
 62
7
  6
CONTINUOUS
 10
122.723403
 20
131.002874
 11
122.723403
 21
133.502871
  0
LINE
  8
1
 62
7
  6
CONTINUOUS
 10
60.272514
 20
203.505656
 11
60.272514
 21
137.503077
  0
LINE
  8
1
 62
7
  6
CONTINUOUS
 10
64.272720
 20
133.502871
 11
130.275298
 21
133.502871
  0
LINE
  8
1
 62
7
  6
CONTINUOUS
 10
64.272720
 20
207.505862
 11
130.275298
 21
207.505862
  0
LINE
  8
1
 62
7
  6
CONTINUOUS
 10
134.275355
 20
203.505656
 11
134.275355
 21
137.503077
  0
LINE
  8
1
 62
7
  6
CONTINUOUS
 10
60.272514
 20
203.505656
 11
60.272514
 21
148.703565
  0
LINE
  8
1
 62
7
  6
CONTINUOUS
 10
66.472706
 20
137.003108
 11
65.772779
 21
137.003108
  0
LINE
  8
1
 62
7
  6
CONTINUOUS
 10
62.072584
 20
137.003108
 11
62.772661
 21
137.003108
  0
LINE
  8
1
 62
7
  6
CONTINUOUS
 10
63.772600
 20
136.003019
 11
63.772600
 21
135.302942
  0
LINE
  8
1
 62
7
  6
CONTINUOUS
 10
64.772690
 20
139.703213
 11
64.772690
 21
139.003136
  0
LINE
  8
1
 62
7
  6
CONTINUOUS
 10
63.772600
 20
135.302942
 11
64.772690
 21
135.302942
  0
LINE
  8
1
 62
7
  6
CONTINUOUS
 10
63.772600
 20
139.703213
 11
63.772600
 21
139.003136
  0
LINE
  8
1
 62
7
  6
CONTINUOUS
 10
64.772690
 20
136.003019
 11
64.772690
 21
135.302942
  0
LINE
  8
1
 62
7
  6
CONTINUOUS
 10
66.472706
 20
138.003047
 11
65.772779
 21
138.003047
  0
LINE
  8
1
 62
7
  6
CONTINUOUS
 10
66.472706
 20
138.003047
 11
66.472706
 21
137.003108
  0
LINE
  8
1
 62
7
  6
CONTINUOUS
 10
62.072584
 20
138.003047
 11
62.772661
 21
138.003047
  0
LINE
  8
1
 62
7
  6
CONTINUOUS
 10
63.772600
 20
139.703213
 11
64.772690
 21
139.703213
  0
LINE
  8
1
 62
7
  6
CONTINUOUS
 10
62.068684
 20
138.008747
 11
62.068684
 21
137.008658
  0
LINE
  8
1
 62
7
  6
CONTINUOUS
 10
128.071262
 20
204.011325
 11
128.071262
 21
203.011236
  0
LINE
  8
1
 62
7
  6
CONTINUOUS
 10
129.775179
 20
205.705792
 11
130.775268
 21
205.705792
  0
LINE
  8
1
 62
7
  6
CONTINUOUS
 10
128.075162
 20
204.005625
 11
128.775240
 21
204.005625
  0
LINE
  8
1
 62
7
  6
CONTINUOUS
 10
132.475284
 20
204.005625
 11
132.475284
 21
203.005686
  0
LINE
  8
1
 62
7
  6
CONTINUOUS
 10
132.475284
 20
204.005625
 11
131.775357
 21
204.005625
  0
LINE
  8
1
 62
7
  6
CONTINUOUS
 10
130.775268
 20
202.005597
 11
130.775268
 21
201.305520
  0
LINE
  8
1
 62
7
  6
CONTINUOUS
 10
129.775179
 20
205.705792
 11
129.775179
 21
205.005714
  0
LINE
  8
1
 62
7
  6
CONTINUOUS
 10
129.775179
 20
201.305520
 11
130.775268
 21
201.305520
  0
LINE
  8
1
 62
7
  6
CONTINUOUS
 10
130.775268
 20
205.705792
 11
130.775268
 21
205.005714
  0
LINE
  8
1
 62
7
  6
CONTINUOUS
 10
129.775179
 20
202.005597
 11
129.775179
 21
201.305520
  0
LINE
  8
1
 62
7
  6
CONTINUOUS
 10
64.272720
 20
207.505862
 11
130.275298
 21
207.505862
  0
LINE
  8
1
 62
7
  6
CONTINUOUS
 10
134.275355
 20
203.505656
 11
134.275355
 21
137.503077
  0
LINE
  8
1
 62
7
  6
CONTINUOUS
 10
128.075162
 20
203.005686
 11
128.775240
 21
203.005686
  0
LINE
  8
1
 62
7
  6
CONTINUOUS
 10
67.272837
 20
143.003342
 11
127.275181
 21
143.003342
  0
LINE
  8
1
 62
7
  6
CONTINUOUS
 10
132.475284
 20
203.005686
 11
131.775357
 21
203.005686
  0
LINE
  8
1
 62
7
  6
CONTINUOUS
 10
132.475284
 20
137.003108
 11
131.775357
 21
137.003108
  0
LINE
  8
1
 62
7
  6
CONTINUOUS
 10
128.075162
 20
137.003108
 11
128.775240
 21
137.003108
  0
LINE
  8
1
 62
7
  6
CONTINUOUS
 10
60.272514
 20
148.703565
 11
60.272514
 21
137.503077
  0
LINE
  8
1
 62
7
  6
CONTINUOUS
 10
129.775179
 20
136.003019
 11
129.775179
 21
135.302942
  0
LINE
  8
1
 62
7
  6
CONTINUOUS
 10
63.772600
 20
202.005597
 11
63.772600
 21
201.305520
  0
LINE
  8
1
 62
7
  6
CONTINUOUS
 10
130.775268
 20
139.703213
 11
130.775268
 21
139.003136
  0
LINE
  8
1
 62
7
  6
CONTINUOUS
 10
62.072584
 20
203.005686
 11
62.772661
 21
203.005686
  0
LINE
  8
1
 62
7
  6
CONTINUOUS
 10
66.472706
 20
203.005686
 11
65.772779
 21
203.005686
  0
LINE
  8
1
 62
7
  6
CONTINUOUS
 10
64.272720
 20
133.502871
 11
130.275298
 21
133.502871
  0
LINE
  8
1
 62
7
  6
CONTINUOUS
 10
129.775179
 20
135.302942
 11
130.775268
 21
135.302942
  0
LINE
  8
1
 62
7
  6
CONTINUOUS
 10
129.775179
 20
139.703213
 11
129.775179
 21
139.003136
  0
LINE
  8
1
 62
7
  6
CONTINUOUS
 10
130.775268
 20
136.003019
 11
130.775268
 21
135.302942
  0
LINE
  8
1
 62
7
  6
CONTINUOUS
 10
63.772600
 20
201.305520
 11
64.772690
 21
201.305520
  0
LINE
  8
1
 62
7
  6
CONTINUOUS
 10
63.772600
 20
205.705792
 11
64.772690
 21
205.705792
  0
LINE
  8
1
 62
7
  6
CONTINUOUS
 10
62.068684
 20
204.011325
 11
62.068684
 21
203.011236
  0
LINE
  8
1
 62
7
  6
CONTINUOUS
 10
132.475284
 20
138.003047
 11
131.775357
 21
138.003047
  0
LINE
  8
1
 62
7
  6
CONTINUOUS
 10
63.772600
 20
205.705792
 11
63.772600
 21
205.005714
  0
LINE
  8
1
 62
7
  6
CONTINUOUS
 10
62.072584
 20
204.005625
 11
62.772661
 21
204.005625
  0
LINE
  8
1
 62
7
  6
CONTINUOUS
 10
64.772690
 20
205.705792
 11
64.772690
 21
205.005714
  0
LINE
  8
1
 62
7
  6
CONTINUOUS
 10
66.472706
 20
204.005625
 11
66.472706
 21
203.005686
  0
LINE
  8
1
 62
7
  6
CONTINUOUS
 10
132.475284
 20
138.003047
 11
132.475284
 21
137.003108
  0
LINE
  8
1
 62
7
  6
CONTINUOUS
 10
128.075162
 20
138.003047
 11
128.775240
 21
138.003047
  0
LINE
  8
1
 62
7
  6
CONTINUOUS
 10
129.775179
 20
139.703213
 11
130.775268
 21
139.703213
  0
LINE
  8
1
 62
7
  6
CONTINUOUS
 10
64.272720
 20
133.502871
 11
130.275298
 21
133.502871
  0
LINE
  8
1
 62
7
  6
CONTINUOUS
 10
66.472706
 20
204.005625
 11
65.772779
 21
204.005625
  0
LINE
  8
1
 62
7
  6
CONTINUOUS
 10
64.772690
 20
202.005597
 11
64.772690
 21
201.305520
  0
LINE
  8
1
 62
7
  6
CONTINUOUS
 10
67.272837
 20
197.505421
 11
67.272837
 21
143.003342
  0
LINE
  8
1
 62
7
  6
CONTINUOUS
 10
67.272837
 20
197.505421
 11
127.275181
 21
197.505421
  0
LINE
  8
1
 62
7
  6
CONTINUOUS
 10
127.275181
 20
197.505421
 11
127.275181
 21
143.003342
  0
LINE
  8
1
 62
7
  6
CONTINUOUS
 10
91.273775
 20
241.507090
 11
103.274244
 21
241.507090
  0
LINE
  8
1
 62
7
  6
CONTINUOUS
 10
63.272631
 20
131.002874
 11
131.275237
 21
131.002874
  0
LINE
  8
1
 62
7
  6
CONTINUOUS
 10
107.274300
 20
237.507034
 11
107.274300
 21
223.506387
  0
LINE
  8
1
 62
7
  6
CONTINUOUS
 10
81.273334
 20
219.506331
 11
113.274534
 21
219.506331
  0
LINE
  8
1
 62
7
  6
CONTINUOUS
 10
87.273568
 20
237.507034
 11
87.273568
 21
223.506387
  0
LINE
  8
1
 62
7
  6
CONTINUOUS
 10
116.274651
 20
216.506214
 11
116.274651
 21
207.905778
  0
LINE
  8
1
 62
7
  6
CONTINUOUS
 10
78.273217
 20
216.506214
 11
78.273217
 21
207.905778
  0
LINE
  8
1
 62
7
  6
CONTINUOUS
 10
87.273568
 20
210.505979
 11
87.273568
 21
207.905778
  0
LINE
  8
1
 62
7
  6
CONTINUOUS
 10
78.273217
 20
207.905778
 11
116.274651
 21
207.905778
  0
LINE
  8
1
 62
7
  6
CONTINUOUS
 10
107.274300
 20
210.505979
 11
107.274300
 21
207.905778
  0
LINE
  8
1
 62
7
  6
CONTINUOUS
 10
78.273217
 20
211.505918
 11
86.273479
 21
211.505918
  0
LINE
  8
1
 62
7
  6
CONTINUOUS
 10
114.274623
 20
211.505918
 11
114.274623
 21
207.905778
  0
LINE
  8
1
 62
7
  6
CONTINUOUS
 10
108.274389
 20
211.505918
 11
116.274651
 21
211.505918
  0
LINE
  8
1
 62
7
  6
CONTINUOUS
 10
112.274595
 20
211.505918
 11
112.274595
 21
207.905778
  0
LINE
  8
1
 62
7
  6
CONTINUOUS
 10
82.273423
 20
211.505918
 11
82.273423
 21
207.905778
  0
LINE
  8
1
 62
7
  6
CONTINUOUS
 10
80.273245
 20
211.505918
 11
80.273245
 21
207.905778
  0
LINE
  8
1
 62
7
  6
CONTINUOUS
 10
123.223523
 20
131.002874
 11
123.223523
 21
133.502871
  0
LINE
  8
1
 62
7
  6
CONTINUOUS
 10
123.723492
 20
131.002874
 11
123.723492
 21
133.502871
  0
LINE
  8
1
 62
7
  6
CONTINUOUS
 10
124.223462
 20
131.002874
 11
124.223462
 21
133.502871
  0
LINE
  8
1
 62
7
  6
CONTINUOUS
 10
124.723581
 20
131.002874
 11
124.723581
 21
133.502871
  0
LINE
  8
1
 62
7
  6
CONTINUOUS
 10
125.223551
 20
131.002874
 11
125.223551
 21
133.502871
  0
LINE
  8
1
 62
7
  6
CONTINUOUS
 10
125.723520
 20
131.002874
 11
125.723520
 21
133.502871
  0
LINE
  8
1
 62
7
  6
CONTINUOUS
 10
130.723816
 20
131.002874
 11
130.723816
 21
133.502871
  0
LINE
  8
1
 62
7
  6
CONTINUOUS
 10
130.223696
 20
131.002874
 11
130.223696
 21
133.502871
  0
LINE
  8
1
 62
7
  6
CONTINUOUS
 10
129.723727
 20
131.002874
 11
129.723727
 21
133.502871
  0
LINE
  8
1
 62
7
  6
CONTINUOUS
 10
129.223757
 20
131.002874
 11
129.223757
 21
133.502871
  0
LINE
  8
1
 62
7
  6
CONTINUOUS
 10
126.223640
 20
131.002874
 11
126.223640
 21
133.502871
  0
LINE
  8
1
 62
7
  6
CONTINUOUS
 10
131.223785
 20
131.002874
 11
131.223785
 21
133.502871
  0
LINE
  8
1
 62
7
  6
CONTINUOUS
 10
128.223668
 20
131.002874
 11
128.223668
 21
133.502871
  0
LINE
  8
1
 62
7
  6
CONTINUOUS
 10
127.223579
 20
131.002874
 11
127.223579
 21
133.502871
  0
LINE
  8
1
 62
7
  6
CONTINUOUS
 10
128.723638
 20
131.002874
 11
128.723638
 21
133.502871
  0
LINE
  8
1
 62
7
  6
CONTINUOUS
 10
122.723403
 20
131.002874
 11
122.723403
 21
133.502871
  0
LINE
  8
1
 62
7
  6
CONTINUOUS
 10
126.723610
 20
131.002874
 11
126.723610
 21
133.502871
  0
LINE
  8
1
 62
7
  6
CONTINUOUS
 10
127.723699
 20
131.002874
 11
127.723699
 21
133.502871
  0
LINE
  8
1
 62
7
  6
CONTINUOUS
 10
68.824348
 20
131.002874
 11
68.824348
 21
133.502871
  0
LINE
  8
1
 62
7
  6
CONTINUOUS
 10
69.324317
 20
131.002874
 11
69.324317
 21
133.502871
  0
LINE
  8
1
 62
7
  6
CONTINUOUS
 10
69.824437
 20
131.002874
 11
69.824437
 21
133.502871
  0
LINE
  8
1
 62
7
  6
CONTINUOUS
 10
70.324406
 20
131.002874
 11
70.324406
 21
133.502871
  0
LINE
  8
1
 62
7
  6
CONTINUOUS
 10
70.824376
 20
131.002874
 11
70.824376
 21
133.502871
  0
LINE
  8
1
 62
7
  6
CONTINUOUS
 10
71.324495
 20
131.002874
 11
71.324495
 21
133.502871
  0
LINE
  8
1
 62
7
  6
CONTINUOUS
 10
71.824465
 20
131.002874
 11
71.824465
 21
133.502871
  0
LINE
  8
1
 62
7
  6
CONTINUOUS
 10
63.824203
 20
131.002874
 11
63.824203
 21
133.502871
  0
LINE
  8
1
 62
7
  6
CONTINUOUS
 10
64.324172
 20
131.002874
 11
64.324172
 21
133.502871
  0
LINE
  8
1
 62
7
  6
CONTINUOUS
 10
64.824142
 20
131.002874
 11
64.824142
 21
133.502871
  0
LINE
  8
1
 62
7
  6
CONTINUOUS
 10
65.324261
 20
131.002874
 11
65.324261
 21
133.502871
  0
LINE
  8
1
 62
7
  6
CONTINUOUS
 10
68.324378
 20
131.002874
 11
68.324378
 21
133.502871
  0
LINE
  8
1
 62
7
  6
CONTINUOUS
 10
63.324083
 20
131.002874
 11
63.324083
 21
133.502871
  0
LINE
  8
1
 62
7
  6
CONTINUOUS
 10
66.324200
 20
131.002874
 11
66.324200
 21
133.502871
  0
LINE
  8
1
 62
7
  6
CONTINUOUS
 10
67.324289
 20
131.002874
 11
67.324289
 21
133.502871
  0
LINE
  8
1
 62
7
  6
CONTINUOUS
 10
65.824231
 20
131.002874
 11
65.824231
 21
133.502871
  0
LINE
  8
1
 62
7
  6
CONTINUOUS
 10
71.824465
 20
131.002874
 11
71.824465
 21
133.502871
  0
LINE
  8
1
 62
7
  6
CONTINUOUS
 10
67.824259
 20
131.002874
 11
67.824259
 21
133.502871
  0
LINE
  8
1
 62
7
  6
CONTINUOUS
 10
66.824320
 20
131.002874
 11
66.824320
 21
133.502871
  0
LINE
  8
1
 62
7
  6
CONTINUOUS
 10
47.271956
 20
140.648850
 11
47.271956
 21
164.649788
  0
LINE
  8
1
 62
7
  6
CONTINUOUS
 10
41.168368
 20
163.023124
 11
41.156367
 21
147.116503
  0
LINE
  8
1
 62
7
  6
CONTINUOUS
 10
42.107404
 20
164.646938
 11
44.169685
 21
164.645288
  0
LINE
  8
1
 62
7
  6
CONTINUOUS
 10
45.668543
 20
162.997323
 11
45.653393
 21
142.984292
  0
LINE
  8
1
 62
7
  6
CONTINUOUS
 10
44.153634
 20
143.320155
 11
45.653693
 21
143.318955
  0
LINE
  8
1
 62
7
  6
CONTINUOUS
 10
44.169685
 20
164.645288
 11
44.153034
 21
142.564275
  0
LINE
  8
1
 62
7
  6
CONTINUOUS
 10
42.089103
 20
140.397291
 11
44.151384
 21
140.395640
  0
LINE
  8
1
 62
7
  6
CONTINUOUS
 10
128.071262
 20
138.008747
 11
128.071262
 21
137.008658
  0
LINE
  8
1
 62
7
  6
CONTINUOUS
 10
41.152467
 20
142.022454
 11
42.089103
 21
140.397291
  0
LINE
  8
1
 62
7
  6
CONTINUOUS
 10
44.167585
 20
161.720923
 11
45.667643
 21
161.719723
  0
LINE
  8
1
 62
7
  6
CONTINUOUS
 10
41.168368
 20
163.023124
 11
42.107404
 21
164.646938
  0
LINE
  8
1
 62
7
  6
CONTINUOUS
 10
42.269711
 20
146.447327
 11
44.155884
 21
146.445977
  0
LINE
  8
1
 62
7
  6
CONTINUOUS
 10
45.652643
 20
142.041505
 11
47.271956
 21
142.040305
  0
LINE
  8
1
 62
7
  6
CONTINUOUS
 10
45.668543
 20
162.997323
 11
47.271956
 21
162.996123
  0
LINE
  8
1
 62
7
  6
CONTINUOUS
 10
45.653543
 20
143.203450
 11
47.271956
 21
143.202250
  0
LINE
  8
1
 62
7
  6
CONTINUOUS
 10
45.653693
 20
143.318955
 11
45.652643
 21
142.041505
  0
LINE
  8
1
 62
7
  6
CONTINUOUS
 10
45.667643
 20
161.835228
 11
47.271956
 21
161.834028
  0
LINE
  8
1
 62
7
  6
CONTINUOUS
 10
44.153634
 20
143.320155
 11
44.151384
 21
140.395640
  0
LINE
  8
1
 62
7
  6
CONTINUOUS
 10
30.157187
 20
148.731016
 11
41.157567
 21
148.722616
  0
LINE
  8
1
 62
7
  6
CONTINUOUS
 10
30.162888
 20
156.331213
 11
41.163267
 21
156.322963
  0
LINE
  8
1
 62
7
  6
CONTINUOUS
 10
42.269711
 20
158.596601
 11
44.165185
 21
158.595101
  0
LINE
  8
1
 62
7
  6
CONTINUOUS
 10
41.157567
 20
148.722616
 11
41.152467
 21
142.022454
  0
LINE
  8
1
 62
7
  6
CONTINUOUS
 10
97.274009
 20
229.506621
 11
97.274009
 21
238.506973
  0
LINE
  8
1
 62
7
  6
CONTINUOUS
 10
97.274009
 20
221.506359
 11
97.274009
 21
216.506214
  0
LINE
  8
1
 62
7
  6
CONTINUOUS
 10
97.274009
 20
207.905778
 11
97.274009
 21
216.506214
  0
LINE
  8
1
 62
7
  6
CONTINUOUS
 10
153.276147
 20
106.501816
 11
146.775943
 21
106.501816
  0
LINE
  8
1
 62
7
  6
CONTINUOUS
 10
39.271693
 20
125.002639
 11
39.271693
 21
108.501995
  0
LINE
  8
1
 62
7
  6
CONTINUOUS
 10
39.271693
 20
114.502229
 11
155.276175
 21
114.502229
  0
LINE
  8
1
 62
7
  6
CONTINUOUS
 10
40.771752
 20
126.502698
 11
39.271693
 21
125.002639
  0
LINE
  8
1
 62
7
  6
CONTINUOUS
 10
131.275237
 20
82.000909
 11
124.496323
 21
82.000909
  0
LINE
  8
1
 62
7
  6
CONTINUOUS
 10
131.275237
 20
37.999241
 11
124.496323
 21
37.999241
  0
LINE
  8
1
 62
7
  6
CONTINUOUS
 10
40.771752
 20
126.502698
 11
153.776116
 21
126.502698
  0
LINE
  8
1
 62
7
  6
CONTINUOUS
 10
153.776116
 20
126.502698
 11
155.276175
 21
125.002639
  0
LINE
  8
1
 62
7
  6
CONTINUOUS
 10
62.272542
 20
81.000820
 11
62.272542
 21
38.999180
  0
LINE
  8
1
 62
7
  6
CONTINUOUS
 10
132.275326
 20
81.000820
 11
132.275326
 21
38.999180
  0
LINE
  8
1
 62
7
  6
CONTINUOUS
 10
70.051546
 20
37.999241
 11
63.272631
 21
37.999241
  0
LINE
  8
1
 62
7
  6
CONTINUOUS
 10
70.051546
 20
82.000909
 11
63.272631
 21
82.000909
  0
LINE
  8
1
 62
7
  6
CONTINUOUS
 10
132.775296
 20
28.998889
 11
113.522644
 21
28.998889
  0
LINE
  8
1
 62
7
  6
CONTINUOUS
 10
146.775943
 20
106.501816
 11
47.772075
 21
106.501816
  0
LINE
  8
1
 62
7
  6
CONTINUOUS
 10
47.772075
 20
106.501816
 11
41.271722
 21
106.501816
  0
ENDSEC
  0
EOF
