  0
SECTION
  2
HEADER
  9
$ACADVER
  1
AC1003
  9
$INSBASE
 10
0.000000
 20
0.000000
  9
$EXTMIN
 10
0.000000
 20
0.000000
  9
$EXTMAX
 10
210.000000
 20
148.000000
  9
$LIMMIN
 10
0.000000
 20
0.000000
  9
$LIMMAX
 10
210.000000
 20
148.000000
  9
$VIEWCTR
 10
105.000000
 20
74.000000
  9
$VIEWSIZE
 40
148.000000
  9
$PEXTMIN
 10
0.000000
 20
0.000000
 30
0.000000
  9
$PEXTMAX
 10
210.000000
 20
148.000000
 30
0.000000
  9
$SNAPMODE
 70
     0
  9
$SNAPUNIT
 10
1.000000
 20
1.000000
  9
$SNAPBASE
 10
0.000000
 20
0.000000
  9
$SNAPANG
 50
0.000000
  9
$SNAPISOPAIR
 70
     0
  9
$SNAPSTYLE
 70
     0
  9
$GRIDMODE
 70
     0
  9
$GRIDUNIT
 10
0.000000
 20
0.000000
  9
$ORTHOMODE
 70
     0
  9
$REGENMODE
 70
     1
  9
$FILLMODE
 70
     1
  9
$QTEXTMODE
 70
     0
  9
$DRAGMODE
 70
     2
  9
$LTSCALE
 40
0.250000
  9
$OSMODE
 70
     0
  9
$ATTMODE
 70
     1
  9
$TEXTSIZE
 40
4.000000
  9
$TRACEWID
 40
0.050000
  9
$TEXTSTYLE
  7
STANDARD
  9
$CLAYER
  8
0
  9
$CELTYPE
  6
BYLAYER
  9
$CECOLOR
 62
   256
  9
$DIMSCALE
 40
1.000000
  9
$DIMASZ
 40
1.000000
  9
$DIMEXO
 40
0.000000
  9
$DIMDLI
 40
0.500000
  9
$DIMRND
 40
0.000000
  9
$DIMDLE
 40
0.000000
  9
$DIMEXE
 40
0.000000
  9
$DIMTP
 40
0.000000
  9
$DIMTM
 40
0.000000
  9
$DIMTXT
 40
4.000000
  9
$DIMCEN
 40
0.000000
  9
$DIMTSZ
 40
0.000000
  9
$DIMTOL
 70
     0
  9
$DIMLIM
 70
     0
  9
$DIMTIH
 70
     1
  9
$DIMTOH
 70
     1
  9
$DIMSE1
 70
     0
  9
$DIMSE2
 70
     0
  9
$DIMTAD
 70
     0
  9
$DIMZIN
 70
     0
  9
$DIMBLK
  1

  9
$DIMASO
 70
     0
  9
$DIMSHO
 70
     0
  9
$DIMPOST
  1

  9
$DIMAPOST
  1

  9
$DIMALT
 70
     0
  9
$DIMALTD
 70
     0
  9
$DIMALTF
 40
25.400000
  9
$DIMLFAC
 40
1.000000
  9
$DIMTOFL
 70
     0
  9
$DIMTVP
 40
0.000000
  9
$DIMTIX
 70
     0
  9
$DIMSOXD
 70
     0
  9
$DIMSAH
 70
     0
  9
$DIMBLKL
  1

  9
$DIMBLKR
  1

  9
$LUNITS
 70
     2
  9
$LUPREC
 70
     2
  9
$AXISMODE
 70
     0
  9
$AXISUNIT
 10
1.000000
 20
1.000000
  9
$SKETCHINC
 40
0.000000
  9
$FILLETRAD
 40
0.000000
  9
$AUNITS
 70
     1
  9
$AUPREC
 70
     2
  9
$MENU
  1
ACAD
  9
$ELEVATION
 40
0.000000
  9
$THICKNESS
 40
0.000000
  9
$VIEWDIR
 10
0.000000
 20
0.000000
 30
1.000000
  9
$LIMCHECK
 70
     1
  9
$BLIPMODE
 70
     1
  9
$CHAMFERA
 40
0.000000
  9
$CHAMFERB
 40
0.000000
  9
$FASTZOOM
 70
     1
  9
$SKPOLY
 70
     0
  9
$TDCREATE
 40
0.000000
  9
$TDUPDATE
 40
0.000000
  9
$TDINDWG
 40
0.000000
  9
$TDUSRTIMER
 40
0.000000
  9
$USRTIMER
 70
     1
  9
$ANGBASE
 50
0.000000
  9
$ANGDIR
 70
     0
  9
$PDMODE
 70
     0
  9
$PDSIZE
 40
0.000000
  9
$PLINEWID
 40
0.000000
  9
$COORDS
 70
     2
  9
$USERI1
 70
     0
  9
$USERI2
 70
     0
  9
$USERI3
 70
     0
  9
$USERI4
 70
     0
  9
$USERI5
 70
     0
  9
$USERR1
 40
0.000000
  9
$USERR2
 40
0.000000
  9
$USERR3
 40
0.000000
  9
$USERR4
 40
0.000000
  9
$USERR5
 40
0.000000
  0
ENDSEC
  0
SECTION
  2
TABLES
  0
TABLE
  2
LTYPE
 70
     5
  0
LTYPE
  2
CONTINUOUS
 70
    64
  3
Solid line
 72
    65
 73
     0
 40
0.0
  0
LTYPE
  2
HIDDEN
 70
    64
  3
------------------------
 72
    65
 73
     2
 40
12.6
 49
8.4
 49
-4.2
  0
LTYPE
  2
DOT
 70
    64
  3
¥¥¥¥¥¥¥¥¥¥¥¥¥¥¥¥¥¥¥¥¥¥¥¥
 72
    65
 73
     2
 40
8.0
 49
6.0
 49
-2.0
  0
LTYPE
  2
DASHDOT
 70
    64
  3
--¥--¥--¥--¥--¥--¥--¥--
 72
    65
 73
     4
 40
50.5
 49
30.0
 49
-9.0
 49
2.5
 49
-9.0
  0
LTYPE
  2
DIVIDE
 70
    64
  3
--¥¥--¥¥--¥¥--¥¥--¥¥--
 72
    65
 73
     6
 40
58.0
 49
30.0
 49
-9.0
 49
2.5
 49
-5.0
 49
2.5
 49
-9.0
  0
LTYPE
  2
ACAD_ISO06W100
 70
    64
  3
____ ... ____ ... ____
 72
    65
 73
     8
 40
37.5
 49
24.0
 49
-3.0
 49
0.5
 49
-3.0
 49
0.5
 49
-3.0
 49
0.5
 49
-3.0
  0
LTYPE
  2
ACAD_ISO14W100
 70
    64
  3
__ . . . __ . . . __ . . . 
 72
    65
 73
     8
 40
25.5
 49
12.0
 49
-3.0
 49
0.5
 49
-3.0
 49
0.5
 49
-3.0
 49
0.5
 49
-3.0
  0
ENDTAB
  0
TABLE
  2
LAYER
 70
2
  0
LAYER
  2
1
 70
64
 62
7
  6
CONTINUOUS
  0
LAYER
  2
128
 70
64
 62
7
  6
CONTINUOUS
  0
ENDTAB
  0
TABLE
  2
STYLE
 70
     2
  0
STYLE
  2
STANDARD
 70
    64
 40
0.0
 41
1.0
 50
0.0
 71
     0
 42
0.2
  3
TXT
  4

  0
STYLE
  2
KANJI
 70
    64
 40
0.0
 41
1.0
 50
0.0
 71
     0
 42
0.2
  3
TXT
  4
BIGFONT
  0
ENDTAB
  0
TABLE
  2
VIEW
 70
     0
  0
ENDTAB
  0
ENDSEC
  0
SECTION
  2
BLOCKS
  0
ENDSEC
  0
SECTION
  2
ENTITIES
  0
LINE
  8
128
 62
7
  6
DASHDOT
 10
168.000000
 20
283.394400
 11
168.000000
 21
21.190800
  0
LINE
  8
128
 62
7
  6
DASHDOT
 10
425.000000
 20
288.993800
 11
425.000000
 21
21.903800
  0
LINE
  8
128
 62
7
  6
DASHDOT
 10
535.133800
 20
80.000000
 11
309.564800
 21
80.000000
  0
LINE
  8
128
 62
7
  6
DASHDOT
 10
249.648200
 20
80.000000
 11
91.347600
 21
80.000000
  0
LINE
  8
128
 62
7
  6
DASHDOT
 10
425.000000
 20
484.641600
 11
425.000000
 21
318.050400
  0
LINE
  8
128
 62
7
  6
DASHDOT
 10
311.723400
 20
400.231800
 11
540.302000
 21
400.231800
  0
ARC
  8
1
 62
7
  6
CONTINUOUS
 10
329.000000
 20
432.819400
 40
1.000000
 50
0.000000
 51
90.000000
  0
ARC
  8
1
 62
7
  6
CONTINUOUS
 10
521.000000
 20
432.819400
 40
1.000000
 50
90.000000
 51
180.000000
  0
ARC
  8
1
 62
7
  6
CONTINUOUS
 10
521.000000
 20
367.644400
 40
1.000000
 50
180.000000
 51
-90.000000
  0
ARC
  8
1
 62
7
  6
CONTINUOUS
 10
329.000000
 20
367.644400
 40
1.000000
 50
-90.000000
 51
0.000000
  0
ARC
  8
1
 62
7
  6
CONTINUOUS
 10
518.500000
 20
370.143800
 40
1.500000
 50
0.000000
 51
90.000000
  0
ARC
  8
1
 62
7
  6
CONTINUOUS
 10
518.500000
 20
430.319800
 40
1.500000
 50
-90.000000
 51
0.000000
  0
ARC
  8
1
 62
7
  6
CONTINUOUS
 10
331.500000
 20
370.143800
 40
1.500000
 50
90.000000
 51
180.000000
  0
ARC
  8
1
 62
7
  6
CONTINUOUS
 10
331.500000
 20
430.319800
 40
1.500000
 50
180.000000
 51
-90.000000
  0
CIRCLE
  8
1
 62
7
  6
CONTINUOUS
 10
425.000000
 20
335.231800
 40
5.000000
  0
ARC
  8
1
 62
7
  6
CONTINUOUS
 10
425.000000
 20
400.231800
 40
71.000000
 50
0.000000
 51
123.632500
  0
ARC
  8
1
 62
7
  6
CONTINUOUS
 10
425.000000
 20
400.231800
 40
74.823000
 50
145.388600
 51
157.537700
  0
ARC
  8
1
 62
7
  6
CONTINUOUS
 10
353.828400
 20
347.731800
 40
10.000000
 50
60.084300
 51
90.000000
  0
ARC
  8
1
 62
7
  6
CONTINUOUS
 10
353.828400
 20
452.731800
 40
10.000000
 50
-90.000000
 51
-60.084300
  0
ARC
  8
1
 62
7
  6
CONTINUOUS
 10
496.171600
 20
452.731800
 40
10.000000
 50
-119.915700
 51
-90.000000
  0
ARC
  8
1
 62
7
  6
CONTINUOUS
 10
496.171600
 20
347.731800
 40
10.000000
 50
90.000000
 51
119.915700
  0
ARC
  8
1
 62
7
  6
CONTINUOUS
 10
425.000000
 20
400.231800
 40
71.000000
 50
-148.592100
 51
0.000000
  0
CIRCLE
  8
1
 62
7
  6
CONTINUOUS
 10
425.000000
 20
335.231800
 40
2.860000
  0
ARC
  8
1
 62
7
  6
CONTINUOUS
 10
425.000000
 20
400.231800
 40
74.823000
 50
-34.611400
 51
-22.462300
  0
CIRCLE
  8
1
 62
7
  6
CONTINUOUS
 10
425.000000
 20
335.231800
 40
4.400000
  0
ARC
  8
1
 62
7
  6
CONTINUOUS
 10
368.708400
 20
367.731800
 40
5.000000
 50
-115.841900
 51
-64.158100
  0
ARC
  8
1
 62
7
  6
CONTINUOUS
 10
367.700000
 20
367.231800
 40
5.800000
 50
136.397200
 51
-136.397200
  0
ARC
  8
1
 62
7
  6
CONTINUOUS
 10
425.000000
 20
400.231800
 40
74.823000
 50
22.462300
 51
34.611400
  0
ARC
  8
1
 62
7
  6
CONTINUOUS
 10
425.000000
 20
400.231800
 40
71.000000
 50
152.687300
 51
-152.687300
  0
ARC
  8
1
 62
7
  6
CONTINUOUS
 10
425.000000
 20
400.231800
 40
70.000000
 50
153.695400
 51
-153.695400
  0
ARC
  8
1
 62
7
  6
CONTINUOUS
 10
425.000000
 20
400.231800
 40
74.823000
 50
-157.537700
 51
-145.388600
  0
ARC
  8
1
 62
7
  6
CONTINUOUS
 10
367.700000
 20
433.231800
 40
5.800000
 50
136.397200
 51
-136.397200
  0
ARC
  8
1
 62
7
  6
CONTINUOUS
 10
368.708400
 20
432.731800
 40
5.000000
 50
88.209100
 51
115.841900
  0
CIRCLE
  8
1
 62
7
  6
CONTINUOUS
 10
454.698600
 20
429.930400
 40
4.250000
  0
CIRCLE
  8
1
 62
7
  6
CONTINUOUS
 10
454.698600
 20
370.533400
 40
2.290000
  0
CIRCLE
  8
1
 62
7
  6
CONTINUOUS
 10
454.698600
 20
370.533400
 40
4.250000
  0
ARC
  8
1
 62
7
  6
CONTINUOUS
 10
446.000000
 20
401.231800
 40
0.500000
 50
180.000000
 51
-90.000000
  0
ARC
  8
1
 62
7
  6
CONTINUOUS
 10
446.000000
 20
399.231800
 40
0.500000
 50
90.000000
 51
180.000000
  0
ARC
  8
1
 62
7
  6
CONTINUOUS
 10
444.000000
 20
399.231800
 40
0.500000
 50
0.000000
 51
90.000000
  0
ARC
  8
1
 62
7
  6
CONTINUOUS
 10
444.000000
 20
401.231800
 40
0.500000
 50
-90.000000
 51
0.000000
  0
CIRCLE
  8
1
 62
7
  6
CONTINUOUS
 10
445.000000
 20
400.231800
 40
2.800000
  0
ARC
  8
1
 62
7
  6
CONTINUOUS
 10
365.500000
 20
436.731800
 40
0.500000
 50
90.000000
 51
180.000000
  0
ARC
  8
1
 62
7
  6
CONTINUOUS
 10
365.500000
 20
363.731800
 40
0.500000
 50
180.000000
 51
-90.000000
  0
ARC
  8
1
 62
7
  6
CONTINUOUS
 10
445.000000
 20
390.231800
 40
4.000000
 50
90.000000
 51
-180.000000
  0
ARC
  8
1
 62
7
  6
CONTINUOUS
 10
435.000000
 20
387.231800
 40
6.000000
 50
-90.000000
 51
0.000000
  0
ARC
  8
1
 62
7
  6
CONTINUOUS
 10
445.000000
 20
410.231800
 40
4.000000
 50
-180.000000
 51
-90.000000
  0
CIRCLE
  8
1
 62
7
  6
CONTINUOUS
 10
445.000000
 20
400.231800
 40
3.250000
  0
ARC
  8
1
 62
7
  6
CONTINUOUS
 10
415.000000
 20
410.231800
 40
9.000000
 50
90.000000
 51
-180.000000
  0
ARC
  8
1
 62
7
  6
CONTINUOUS
 10
435.000000
 20
413.231800
 40
6.000000
 50
0.000000
 51
90.000000
  0
CIRCLE
  8
1
 62
7
  6
CONTINUOUS
 10
425.000000
 20
400.231800
 40
10.000000
  0
ARC
  8
1
 62
7
  6
CONTINUOUS
 10
445.000000
 20
400.231800
 40
6.000000
 50
-90.000000
 51
0.000000
  0
ARC
  8
1
 62
7
  6
CONTINUOUS
 10
415.000000
 20
390.231800
 40
9.000000
 50
-180.000000
 51
-90.000000
  0
ARC
  8
1
 62
7
  6
CONTINUOUS
 10
411.000000
 20
366.731800
 40
1.000000
 50
-90.000000
 51
0.000000
  0
ARC
  8
1
 62
7
  6
CONTINUOUS
 10
445.000000
 20
392.231800
 40
2.000000
 50
90.000000
 51
180.000000
  0
ARC
  8
1
 62
7
  6
CONTINUOUS
 10
411.000000
 20
433.731800
 40
1.000000
 50
0.000000
 51
90.000000
  0
ARC
  8
1
 62
7
  6
CONTINUOUS
 10
445.000000
 20
400.231800
 40
6.000000
 50
-90.000000
 51
0.000000
  0
ARC
  8
1
 62
7
  6
CONTINUOUS
 10
445.000000
 20
408.231800
 40
2.000000
 50
180.000000
 51
-90.000000
  0
ARC
  8
1
 62
7
  6
CONTINUOUS
 10
442.000000
 20
418.231800
 40
3.000000
 50
0.000000
 51
90.000000
  0
ARC
  8
1
 62
7
  6
CONTINUOUS
 10
440.000000
 20
418.231800
 40
3.000000
 50
0.000000
 51
90.000000
  0
ARC
  8
1
 62
7
  6
CONTINUOUS
 10
440.000000
 20
382.231800
 40
3.000000
 50
-90.000000
 51
0.000000
  0
ARC
  8
1
 62
7
  6
CONTINUOUS
 10
442.000000
 20
382.231800
 40
3.000000
 50
-90.000000
 51
0.000000
  0
ARC
  8
1
 62
7
  6
CONTINUOUS
 10
445.000000
 20
400.231800
 40
6.000000
 50
0.000000
 51
90.000000
  0
ARC
  8
1
 62
7
  6
CONTINUOUS
 10
409.000000
 20
377.231800
 40
2.000000
 50
90.000000
 51
180.000000
  0
ARC
  8
1
 62
7
  6
CONTINUOUS
 10
409.000000
 20
423.231800
 40
2.000000
 50
180.000000
 51
-90.000000
  0
ARC
  8
1
 62
7
  6
CONTINUOUS
 10
406.000000
 20
364.231800
 40
1.000000
 50
-90.000000
 51
0.000000
  0
CIRCLE
  8
1
 62
7
  6
CONTINUOUS
 10
454.698600
 20
429.930400
 40
2.290000
  0
ARC
  8
1
 62
7
  6
CONTINUOUS
 10
406.000000
 20
436.231800
 40
1.000000
 50
0.000000
 51
90.000000
  0
ARC
  8
1
 62
7
  6
CONTINUOUS
 10
455.000000
 20
370.231800
 40
5.000000
 50
-90.000000
 51
0.000000
  0
ARC
  8
1
 62
7
  6
CONTINUOUS
 10
455.000000
 20
430.231800
 40
5.000000
 50
0.000000
 51
90.000000
  0
ARC
  8
1
 62
7
  6
CONTINUOUS
 10
390.966600
 20
451.678800
 40
4.657600
 50
89.923700
 51
130.416000
  0
ARC
  8
1
 62
7
  6
CONTINUOUS
 10
379.980800
 20
466.039600
 40
2.305000
 50
34.439500
 51
145.473700
  0
ARC
  8
1
 62
7
  6
CONTINUOUS
 10
396.000000
 20
438.231800
 40
1.000000
 50
180.000000
 51
-90.000000
  0
ARC
  8
1
 62
7
  6
CONTINUOUS
 10
383.782800
 20
468.646800
 40
2.305000
 50
-145.560500
 51
-34.526300
  0
ARC
  8
1
 62
7
  6
CONTINUOUS
 10
383.780800
 20
466.036800
 40
2.305000
 50
34.439500
 51
145.473700
  0
ARC
  8
1
 62
7
  6
CONTINUOUS
 10
381.872600
 20
439.155600
 40
17.187600
 50
69.303600
 51
110.696400
  0
ARC
  8
1
 62
7
  6
CONTINUOUS
 10
372.773200
 20
451.692600
 40
4.657600
 50
49.497200
 51
89.989600
  0
ARC
  8
1
 62
7
  6
CONTINUOUS
 10
370.000000
 20
449.231800
 40
1.000000
 50
90.000000
 51
180.000000
  0
ARC
  8
1
 62
7
  6
CONTINUOUS
 10
368.000000
 20
438.231800
 40
1.000000
 50
-90.000000
 51
0.000000
  0
ARC
  8
1
 62
7
  6
CONTINUOUS
 10
394.000000
 20
449.231800
 40
1.000000
 50
0.000000
 51
90.000000
  0
CIRCLE
  8
1
 62
7
  6
CONTINUOUS
 10
481.291800
 20
367.731800
 40
4.400000
  0
ARC
  8
1
 62
7
  6
CONTINUOUS
 10
425.000000
 20
400.231800
 40
70.000000
 50
143.130100
 51
148.091000
  0
ARC
  8
1
 62
7
  6
CONTINUOUS
 10
425.000000
 20
400.231800
 40
71.000000
 50
142.067200
 51
148.592100
  0
ARC
  8
1
 62
7
  6
CONTINUOUS
 10
425.000000
 20
400.231800
 40
70.000000
 50
0.000000
 51
124.179600
  0
ARC
  8
1
 62
7
  6
CONTINUOUS
 10
425.000000
 20
400.231800
 40
70.000000
 50
-148.091000
 51
0.000000
  0
CIRCLE
  8
1
 62
7
  6
CONTINUOUS
 10
481.291800
 20
367.731800
 40
2.860000
  0
CIRCLE
  8
1
 62
7
  6
CONTINUOUS
 10
481.291800
 20
367.731800
 40
5.000000
  0
CIRCLE
  8
1
 62
7
  6
CONTINUOUS
 10
481.291800
 20
432.731800
 40
5.000000
  0
CIRCLE
  8
1
 62
7
  6
CONTINUOUS
 10
481.291800
 20
432.731800
 40
2.860000
  0
CIRCLE
  8
1
 62
7
  6
CONTINUOUS
 10
481.291800
 20
432.731800
 40
4.400000
  0
CIRCLE
  8
1
 62
7
  6
CONTINUOUS
 10
425.000000
 20
465.231800
 40
4.400000
  0
CIRCLE
  8
1
 62
7
  6
CONTINUOUS
 10
425.000000
 20
465.231800
 40
2.860000
  0
CIRCLE
  8
1
 62
7
  6
CONTINUOUS
 10
425.000000
 20
465.231800
 40
5.000000
  0
CIRCLE
  8
1
 62
7
  6
CONTINUOUS
 10
360.000000
 20
400.231800
 40
3.323400
  0
CIRCLE
  8
1
 62
7
  6
CONTINUOUS
 10
490.000000
 20
400.231800
 40
4.000000
  0
CIRCLE
  8
1
 62
7
  6
CONTINUOUS
 10
360.000000
 20
400.231800
 40
4.000000
  0
CIRCLE
  8
1
 62
7
  6
CONTINUOUS
 10
490.000000
 20
400.231800
 40
3.323400
  0
CIRCLE
  8
1
 62
7
  6
CONTINUOUS
 10
490.000000
 20
400.231800
 40
2.290000
  0
CIRCLE
  8
1
 62
7
  6
CONTINUOUS
 10
360.000000
 20
400.231800
 40
2.290000
  0
LINE
  8
1
 62
7
  6
CONTINUOUS
 10
491.184400
 20
444.064200
 11
460.409600
 21
461.771800
  0
LINE
  8
1
 62
7
  6
CONTINUOUS
 10
358.815800
 20
444.064200
 11
371.392200
 21
451.300600
  0
LINE
  8
1
 62
7
  6
CONTINUOUS
 10
486.581000
 20
357.731800
 11
530.000000
 21
357.731800
  0
LINE
  8
1
 62
7
  6
CONTINUOUS
 10
486.581000
 20
442.731800
 11
530.000000
 21
442.731800
  0
LINE
  8
1
 62
7
  6
CONTINUOUS
 10
320.000000
 20
357.731800
 11
320.000000
 21
442.731800
  0
LINE
  8
1
 62
7
  6
CONTINUOUS
 10
530.000000
 20
357.731800
 11
530.000000
 21
442.731800
  0
LINE
  8
1
 62
7
  6
CONTINUOUS
 10
358.815800
 20
356.399400
 11
389.590600
 21
338.692000
  0
LINE
  8
1
 62
7
  6
CONTINUOUS
 10
521.000000
 20
433.819400
 11
530.000000
 21
433.819400
  0
LINE
  8
1
 62
7
  6
CONTINUOUS
 10
320.000000
 20
442.731800
 11
363.419000
 21
442.731800
  0
LINE
  8
1
 62
7
  6
CONTINUOUS
 10
320.000000
 20
357.731800
 11
363.419000
 21
357.731800
  0
LINE
  8
1
 62
7
  6
CONTINUOUS
 10
427.500000
 20
336.621000
 11
427.500000
 21
333.842800
  0
LINE
  8
1
 62
7
  6
CONTINUOUS
 10
494.146200
 20
428.819800
 11
518.500000
 21
428.819800
  0
LINE
  8
1
 62
7
  6
CONTINUOUS
 10
320.000000
 20
366.644400
 11
329.000000
 21
366.644400
  0
LINE
  8
1
 62
7
  6
CONTINUOUS
 10
520.000000
 20
367.644400
 11
520.000000
 21
432.819400
  0
LINE
  8
1
 62
7
  6
CONTINUOUS
 10
330.000000
 20
367.644400
 11
330.000000
 21
432.819400
  0
LINE
  8
1
 62
7
  6
CONTINUOUS
 10
320.000000
 20
433.819400
 11
329.000000
 21
433.819400
  0
LINE
  8
1
 62
7
  6
CONTINUOUS
 10
521.000000
 20
366.644400
 11
530.000000
 21
366.644400
  0
LINE
  8
1
 62
7
  6
CONTINUOUS
 10
331.500000
 20
428.819800
 11
355.853800
 21
428.819800
  0
LINE
  8
1
 62
7
  6
CONTINUOUS
 10
331.500000
 20
371.643800
 11
355.853800
 21
371.643800
  0
LINE
  8
1
 62
7
  6
CONTINUOUS
 10
494.146200
 20
371.643800
 11
518.500000
 21
371.643800
  0
LINE
  8
1
 62
7
  6
CONTINUOUS
 10
365.000000
 20
400.231800
 11
365.000000
 21
437.231800
  0
LINE
  8
1
 62
7
  6
CONTINUOUS
 10
363.500000
 20
429.231800
 11
365.000000
 21
429.231800
  0
LINE
  8
1
 62
7
  6
CONTINUOUS
 10
367.000000
 20
437.231800
 11
367.000000
 21
363.231800
  0
LINE
  8
1
 62
7
  6
CONTINUOUS
 10
365.000000
 20
400.231800
 11
365.000000
 21
363.231800
  0
LINE
  8
1
 62
7
  6
CONTINUOUS
 10
363.500000
 20
371.231800
 11
365.000000
 21
371.231800
  0
LINE
  8
1
 62
7
  6
CONTINUOUS
 10
363.500000
 20
363.231800
 11
369.509200
 21
363.231800
  0
LINE
  8
1
 62
7
  6
CONTINUOUS
 10
363.500000
 20
437.231800
 11
369.509200
 21
437.231800
  0
LINE
  8
1
 62
7
  6
CONTINUOUS
 10
454.105800
 20
368.321400
 11
456.317800
 21
368.914200
  0
LINE
  8
1
 62
7
  6
CONTINUOUS
 10
454.105800
 20
432.142400
 11
456.317800
 21
431.549600
  0
LINE
  8
1
 62
7
  6
CONTINUOUS
 10
456.317800
 20
431.549600
 11
456.910600
 21
429.337600
  0
LINE
  8
1
 62
7
  6
CONTINUOUS
 10
452.486600
 20
430.523000
 11
454.105800
 21
432.142400
  0
LINE
  8
1
 62
7
  6
CONTINUOUS
 10
453.079200
 20
428.311000
 11
452.486600
 21
430.523000
  0
LINE
  8
1
 62
7
  6
CONTINUOUS
 10
453.079200
 20
372.152600
 11
455.291200
 21
372.745400
  0
LINE
  8
1
 62
7
  6
CONTINUOUS
 10
455.291200
 20
372.745400
 11
456.910600
 21
371.126000
  0
LINE
  8
1
 62
7
  6
CONTINUOUS
 10
453.079200
 20
372.152600
 11
452.486600
 21
369.940800
  0
LINE
  8
1
 62
7
  6
CONTINUOUS
 10
452.486600
 20
369.940800
 11
454.105800
 21
368.321400
  0
LINE
  8
1
 62
7
  6
CONTINUOUS
 10
455.291200
 20
427.718400
 11
456.910600
 21
429.337600
  0
LINE
  8
1
 62
7
  6
CONTINUOUS
 10
453.079200
 20
428.311000
 11
455.291200
 21
427.718400
  0
LINE
  8
1
 62
7
  6
CONTINUOUS
 10
445.500000
 20
401.731800
 11
445.500000
 21
401.231800
  0
LINE
  8
1
 62
7
  6
CONTINUOUS
 10
443.500000
 20
399.731800
 11
444.000000
 21
399.731800
  0
LINE
  8
1
 62
7
  6
CONTINUOUS
 10
444.500000
 20
401.731800
 11
444.500000
 21
401.231800
  0
LINE
  8
1
 62
7
  6
CONTINUOUS
 10
443.500000
 20
400.731800
 11
444.000000
 21
400.731800
  0
LINE
  8
1
 62
7
  6
CONTINUOUS
 10
446.500000
 20
400.731800
 11
446.000000
 21
400.731800
  0
LINE
  8
1
 62
7
  6
CONTINUOUS
 10
444.500000
 20
398.731800
 11
444.500000
 21
399.231800
  0
LINE
  8
1
 62
7
  6
CONTINUOUS
 10
445.500000
 20
401.731800
 11
444.500000
 21
401.731800
  0
LINE
  8
1
 62
7
  6
CONTINUOUS
 10
443.500000
 20
399.731800
 11
443.500000
 21
400.731800
  0
LINE
  8
1
 62
7
  6
CONTINUOUS
 10
445.500000
 20
398.731800
 11
445.500000
 21
399.231800
  0
LINE
  8
1
 62
7
  6
CONTINUOUS
 10
446.500000
 20
399.731800
 11
446.000000
 21
399.731800
  0
LINE
  8
1
 62
7
  6
CONTINUOUS
 10
446.500000
 20
399.731800
 11
446.500000
 21
400.731800
  0
LINE
  8
1
 62
7
  6
CONTINUOUS
 10
445.500000
 20
398.731800
 11
444.500000
 21
398.731800
  0
LINE
  8
1
 62
7
  6
CONTINUOUS
 10
402.150000
 20
363.231800
 11
402.150000
 21
437.231800
  0
LINE
  8
1
 62
7
  6
CONTINUOUS
 10
368.000000
 20
363.231800
 11
368.000000
 21
437.231800
  0
LINE
  8
1
 62
7
  6
CONTINUOUS
 10
365.500000
 20
363.231800
 11
404.000000
 21
363.231800
  0
LINE
  8
1
 62
7
  6
CONTINUOUS
 10
415.000000
 20
381.231800
 11
435.000000
 21
381.231800
  0
LINE
  8
1
 62
7
  6
CONTINUOUS
 10
415.000000
 20
419.231800
 11
435.000000
 21
419.231800
  0
LINE
  8
1
 62
7
  6
CONTINUOUS
 10
406.000000
 20
390.231800
 11
406.000000
 21
410.231800
  0
LINE
  8
1
 62
7
  6
CONTINUOUS
 10
441.000000
 20
387.231800
 11
441.000000
 21
390.231800
  0
LINE
  8
1
 62
7
  6
CONTINUOUS
 10
456.317800
 20
368.914200
 11
456.910600
 21
371.126000
  0
LINE
  8
1
 62
7
  6
CONTINUOUS
 10
412.000000
 20
366.731800
 11
412.000000
 21
379.231800
  0
LINE
  8
1
 62
7
  6
CONTINUOUS
 10
407.000000
 20
434.731800
 11
411.000000
 21
434.731800
  0
LINE
  8
1
 62
7
  6
CONTINUOUS
 10
407.000000
 20
365.731800
 11
411.000000
 21
365.731800
  0
LINE
  8
1
 62
7
  6
CONTINUOUS
 10
407.000000
 20
365.231800
 11
455.000000
 21
365.231800
  0
LINE
  8
1
 62
7
  6
CONTINUOUS
 10
407.000000
 20
435.231800
 11
455.000000
 21
435.231800
  0
LINE
  8
1
 62
7
  6
CONTINUOUS
 10
412.000000
 20
421.231800
 11
412.000000
 21
433.731800
  0
LINE
  8
1
 62
7
  6
CONTINUOUS
 10
443.000000
 20
408.231800
 11
443.000000
 21
418.231800
  0
LINE
  8
1
 62
7
  6
CONTINUOUS
 10
445.000000
 20
406.231800
 11
445.000000
 21
418.231800
  0
LINE
  8
1
 62
7
  6
CONTINUOUS
 10
409.000000
 20
421.231800
 11
442.000000
 21
421.231800
  0
LINE
  8
1
 62
7
  6
CONTINUOUS
 10
409.000000
 20
379.231800
 11
442.000000
 21
379.231800
  0
LINE
  8
1
 62
7
  6
CONTINUOUS
 10
407.000000
 20
423.231800
 11
407.000000
 21
436.231800
  0
LINE
  8
1
 62
7
  6
CONTINUOUS
 10
445.000000
 20
382.231800
 11
445.000000
 21
394.231800
  0
LINE
  8
1
 62
7
  6
CONTINUOUS
 10
443.000000
 20
382.231800
 11
443.000000
 21
392.231800
  0
LINE
  8
1
 62
7
  6
CONTINUOUS
 10
407.000000
 20
364.231800
 11
407.000000
 21
377.231800
  0
LINE
  8
1
 62
7
  6
CONTINUOUS
 10
365.500000
 20
437.231800
 11
370.025400
 21
437.231800
  0
LINE
  8
1
 62
7
  6
CONTINUOUS
 10
404.000000
 20
363.231800
 11
406.000000
 21
363.231800
  0
LINE
  8
1
 62
7
  6
CONTINUOUS
 10
404.000000
 20
363.231800
 11
404.000000
 21
437.231800
  0
LINE
  8
1
 62
7
  6
CONTINUOUS
 10
460.000000
 20
370.231800
 11
460.000000
 21
430.231800
  0
LINE
  8
1
 62
7
  6
CONTINUOUS
 10
378.081800
 20
467.346000
 11
378.073400
 21
456.346000
  0
LINE
  8
1
 62
7
  6
CONTINUOUS
 10
375.798200
 20
455.234000
 11
375.796800
 21
453.347800
  0
LINE
  8
1
 62
7
  6
CONTINUOUS
 10
385.681800
 20
467.340400
 11
385.673400
 21
456.340400
  0
LINE
  8
1
 62
7
  6
CONTINUOUS
 10
392.373400
 20
456.335200
 11
393.997200
 21
455.396200
  0
LINE
  8
1
 62
7
  6
CONTINUOUS
 10
392.347600
 20
451.835200
 11
392.346400
 21
450.231800
  0
LINE
  8
1
 62
7
  6
CONTINUOUS
 10
372.554600
 20
451.850200
 11
372.553400
 21
450.231800
  0
LINE
  8
1
 62
7
  6
CONTINUOUS
 10
391.071200
 20
453.336200
 11
391.070000
 21
451.836200
  0
LINE
  8
1
 62
7
  6
CONTINUOUS
 10
391.185600
 20
451.836200
 11
391.184400
 21
450.231800
  0
LINE
  8
1
 62
7
  6
CONTINUOUS
 10
372.671200
 20
453.350200
 11
369.746800
 21
453.352400
  0
LINE
  8
1
 62
7
  6
CONTINUOUS
 10
387.947000
 20
455.234000
 11
387.945600
 21
453.338600
  0
LINE
  8
1
 62
7
  6
CONTINUOUS
 10
372.671200
 20
453.350200
 11
372.670000
 21
451.850200
  0
LINE
  8
1
 62
7
  6
CONTINUOUS
 10
371.392600
 20
451.851200
 11
371.391400
 21
450.231800
  0
LINE
  8
1
 62
7
  6
CONTINUOUS
 10
371.373400
 20
456.351200
 11
369.748400
 21
455.414600
  0
LINE
  8
1
 62
7
  6
CONTINUOUS
 10
372.670000
 20
451.850200
 11
371.392600
 21
451.851200
  0
LINE
  8
1
 62
7
  6
CONTINUOUS
 10
370.000000
 20
450.231800
 11
394.000000
 21
450.231800
  0
LINE
  8
1
 62
7
  6
CONTINUOUS
 10
393.995600
 20
453.334000
 11
371.915400
 21
453.350800
  0
LINE
  8
1
 62
7
  6
CONTINUOUS
 10
378.073400
 20
456.346000
 11
371.373400
 21
456.351200
  0
LINE
  8
1
 62
7
  6
CONTINUOUS
 10
393.997200
 20
455.396200
 11
393.995600
 21
453.334000
  0
LINE
  8
1
 62
7
  6
CONTINUOUS
 10
369.000000
 20
438.231800
 11
369.000000
 21
449.231800
  0
LINE
  8
1
 62
7
  6
CONTINUOUS
 10
392.373400
 20
456.335200
 11
376.467400
 21
456.347400
  0
LINE
  8
1
 62
7
  6
CONTINUOUS
 10
369.748400
 20
455.414600
 11
369.746800
 21
453.352400
  0
LINE
  8
1
 62
7
  6
CONTINUOUS
 10
395.000000
 20
438.231800
 11
395.000000
 21
449.231800
  0
LINE
  8
1
 62
7
  6
CONTINUOUS
 10
392.347600
 20
451.835200
 11
372.335400
 21
451.850400
  0
LINE
  8
1
 62
7
  6
CONTINUOUS
 10
441.000000
 20
410.231800
 11
441.000000
 21
413.231800
  0
LINE
  8
1
 62
7
  6
CONTINUOUS
 10
478.791800
 20
369.121000
 11
481.291800
 21
370.591800
  0
LINE
  8
1
 62
7
  6
CONTINUOUS
 10
481.291800
 20
370.591800
 11
483.791800
 21
369.121000
  0
LINE
  8
1
 62
7
  6
CONTINUOUS
 10
483.791800
 20
366.342800
 11
481.291800
 21
364.871800
  0
LINE
  8
1
 62
7
  6
CONTINUOUS
 10
481.291800
 20
364.871800
 11
478.791800
 21
366.342800
  0
LINE
  8
1
 62
7
  6
CONTINUOUS
 10
385.676000
 20
459.519400
 11
389.590600
 21
461.771800
  0
LINE
  8
1
 62
7
  6
CONTINUOUS
 10
478.791800
 20
369.121000
 11
478.791800
 21
366.342800
  0
LINE
  8
1
 62
7
  6
CONTINUOUS
 10
425.000000
 20
332.371800
 11
422.500000
 21
333.842800
  0
LINE
  8
1
 62
7
  6
CONTINUOUS
 10
427.500000
 20
333.842800
 11
425.000000
 21
332.371800
  0
LINE
  8
1
 62
7
  6
CONTINUOUS
 10
425.000000
 20
338.091800
 11
427.500000
 21
336.621000
  0
LINE
  8
1
 62
7
  6
CONTINUOUS
 10
422.500000
 20
336.621000
 11
425.000000
 21
338.091800
  0
LINE
  8
1
 62
7
  6
CONTINUOUS
 10
422.500000
 20
336.621000
 11
422.500000
 21
333.842800
  0
LINE
  8
1
 62
7
  6
CONTINUOUS
 10
491.184400
 20
356.399400
 11
460.409600
 21
338.692000
  0
LINE
  8
1
 62
7
  6
CONTINUOUS
 10
483.791800
 20
369.121000
 11
483.791800
 21
366.342800
  0
LINE
  8
1
 62
7
  6
CONTINUOUS
 10
483.791800
 20
434.121000
 11
483.791800
 21
431.342800
  0
LINE
  8
1
 62
7
  6
CONTINUOUS
 10
478.791800
 20
434.121000
 11
478.791800
 21
431.342800
  0
LINE
  8
1
 62
7
  6
CONTINUOUS
 10
481.291800
 20
429.871800
 11
478.791800
 21
431.342800
  0
LINE
  8
1
 62
7
  6
CONTINUOUS
 10
483.791800
 20
431.342800
 11
481.291800
 21
429.871800
  0
LINE
  8
1
 62
7
  6
CONTINUOUS
 10
481.291800
 20
435.591800
 11
483.791800
 21
434.121000
  0
LINE
  8
1
 62
7
  6
CONTINUOUS
 10
478.791800
 20
434.121000
 11
481.291800
 21
435.591800
  0
LINE
  8
1
 62
7
  6
CONTINUOUS
 10
422.500000
 20
466.621000
 11
425.000000
 21
468.091800
  0
LINE
  8
1
 62
7
  6
CONTINUOUS
 10
425.000000
 20
468.091800
 11
427.500000
 21
466.621000
  0
LINE
  8
1
 62
7
  6
CONTINUOUS
 10
427.500000
 20
463.842800
 11
425.000000
 21
462.371800
  0
LINE
  8
1
 62
7
  6
CONTINUOUS
 10
425.000000
 20
462.371800
 11
422.500000
 21
463.842800
  0
LINE
  8
1
 62
7
  6
CONTINUOUS
 10
422.500000
 20
466.621000
 11
422.500000
 21
463.842800
  0
LINE
  8
1
 62
7
  6
CONTINUOUS
 10
427.500000
 20
466.621000
 11
427.500000
 21
463.842800
  0
LINE
  8
1
 62
7
  6
CONTINUOUS
 10
358.884600
 20
402.231800
 11
357.710000
 21
400.231800
  0
LINE
  8
1
 62
7
  6
CONTINUOUS
 10
357.710000
 20
400.231800
 11
358.884600
 21
398.231800
  0
LINE
  8
1
 62
7
  6
CONTINUOUS
 10
488.884600
 20
402.231800
 11
491.115400
 21
402.231800
  0
LINE
  8
1
 62
7
  6
CONTINUOUS
 10
370.131000
 20
437.231800
 11
406.000000
 21
437.231800
  0
LINE
  8
1
 62
7
  6
CONTINUOUS
 10
362.290000
 20
400.231800
 11
361.115400
 21
402.231800
  0
LINE
  8
1
 62
7
  6
CONTINUOUS
 10
361.115400
 20
398.231800
 11
362.290000
 21
400.231800
  0
LINE
  8
1
 62
7
  6
CONTINUOUS
 10
488.884600
 20
398.231800
 11
491.115400
 21
398.231800
  0
LINE
  8
1
 62
7
  6
CONTINUOUS
 10
358.884600
 20
398.231800
 11
361.115400
 21
398.231800
  0
LINE
  8
1
 62
7
  6
CONTINUOUS
 10
358.884600
 20
402.231800
 11
361.115400
 21
402.231800
  0
LINE
  8
1
 62
7
  6
CONTINUOUS
 10
487.710000
 20
400.231800
 11
488.884600
 21
402.231800
  0
LINE
  8
1
 62
7
  6
CONTINUOUS
 10
491.115400
 20
402.231800
 11
492.290000
 21
400.231800
  0
LINE
  8
1
 62
7
  6
CONTINUOUS
 10
492.290000
 20
400.231800
 11
491.115400
 21
398.231800
  0
LINE
  8
1
 62
7
  6
CONTINUOUS
 10
488.884600
 20
398.231800
 11
487.710000
 21
400.231800
  0
LINE
  8
1
 62
7
  6
CONTINUOUS
 10
442.757400
 20
258.334200
 11
442.621200
 21
257.998800
  0
LINE
  8
1
 62
7
  6
CONTINUOUS
 10
442.985400
 20
258.615200
 11
442.757400
 21
258.334200
  0
LINE
  8
1
 62
7
  6
CONTINUOUS
 10
443.270000
 20
258.839600
 11
442.985400
 21
258.615200
  0
LINE
  8
1
 62
7
  6
CONTINUOUS
 10
443.588400
 20
259.013200
 11
443.270000
 21
258.839600
  0
LINE
  8
1
 62
7
  6
CONTINUOUS
 10
443.927400
 20
259.141800
 11
443.588400
 21
259.013200
  0
LINE
  8
1
 62
7
  6
CONTINUOUS
 10
444.279400
 20
259.230800
 11
443.927400
 21
259.141800
  0
LINE
  8
1
 62
7
  6
CONTINUOUS
 10
444.637800
 20
259.282800
 11
444.279400
 21
259.230800
  0
LINE
  8
1
 62
7
  6
CONTINUOUS
 10
445.000000
 20
259.300000
 11
444.637800
 21
259.282800
  0
LINE
  8
1
 62
7
  6
CONTINUOUS
 10
445.363800
 20
259.282600
 11
445.000000
 21
259.300000
  0
LINE
  8
1
 62
7
  6
CONTINUOUS
 10
445.722800
 20
259.230400
 11
445.363800
 21
259.282600
  0
LINE
  8
1
 62
7
  6
CONTINUOUS
 10
446.074200
 20
259.141400
 11
445.722800
 21
259.230400
  0
LINE
  8
1
 62
7
  6
CONTINUOUS
 10
446.413000
 20
259.012400
 11
446.074200
 21
259.141400
  0
LINE
  8
1
 62
7
  6
CONTINUOUS
 10
446.731000
 20
258.839000
 11
446.413000
 21
259.012400
  0
LINE
  8
1
 62
7
  6
CONTINUOUS
 10
447.015200
 20
258.614800
 11
446.731000
 21
258.839000
  0
LINE
  8
1
 62
7
  6
CONTINUOUS
 10
447.242800
 20
258.333800
 11
447.015200
 21
258.614800
  0
LINE
  8
1
 62
7
  6
CONTINUOUS
 10
447.378800
 20
257.999600
 11
447.242800
 21
258.333800
  0
LINE
  8
1
 62
7
  6
CONTINUOUS
 10
442.757400
 20
258.334200
 11
442.621200
 21
257.998800
  0
LINE
  8
1
 62
7
  6
CONTINUOUS
 10
442.985400
 20
258.615200
 11
442.757400
 21
258.334200
  0
LINE
  8
1
 62
7
  6
CONTINUOUS
 10
443.270000
 20
258.839600
 11
442.985400
 21
258.615200
  0
LINE
  8
1
 62
7
  6
CONTINUOUS
 10
443.588400
 20
259.013200
 11
443.270000
 21
258.839600
  0
LINE
  8
1
 62
7
  6
CONTINUOUS
 10
443.927400
 20
259.141800
 11
443.588400
 21
259.013200
  0
LINE
  8
1
 62
7
  6
CONTINUOUS
 10
444.279400
 20
259.230800
 11
443.927400
 21
259.141800
  0
LINE
  8
1
 62
7
  6
CONTINUOUS
 10
444.637800
 20
259.282800
 11
444.279400
 21
259.230800
  0
LINE
  8
1
 62
7
  6
CONTINUOUS
 10
445.000000
 20
259.300000
 11
444.637800
 21
259.282800
  0
LINE
  8
1
 62
7
  6
CONTINUOUS
 10
445.363800
 20
259.282600
 11
445.000000
 21
259.300000
  0
LINE
  8
1
 62
7
  6
CONTINUOUS
 10
445.722800
 20
259.230400
 11
445.363800
 21
259.282600
  0
LINE
  8
1
 62
7
  6
CONTINUOUS
 10
446.074200
 20
259.141400
 11
445.722800
 21
259.230400
  0
LINE
  8
1
 62
7
  6
CONTINUOUS
 10
446.413000
 20
259.012400
 11
446.074200
 21
259.141400
  0
LINE
  8
1
 62
7
  6
CONTINUOUS
 10
446.731000
 20
258.839000
 11
446.413000
 21
259.012400
  0
LINE
  8
1
 62
7
  6
CONTINUOUS
 10
447.015200
 20
258.614800
 11
446.731000
 21
258.839000
  0
LINE
  8
1
 62
7
  6
CONTINUOUS
 10
447.242800
 20
258.333800
 11
447.015200
 21
258.614800
  0
LINE
  8
1
 62
7
  6
CONTINUOUS
 10
447.378800
 20
257.999600
 11
447.242800
 21
258.333800
  0
ARC
  8
1
 62
7
  6
CONTINUOUS
 10
329.000000
 20
36.000000
 40
1.000000
 50
-90.000000
 51
0.000000
  0
ARC
  8
1
 62
7
  6
CONTINUOUS
 10
329.000000
 20
124.000000
 40
1.000000
 50
0.000000
 51
90.000000
  0
ARC
  8
1
 62
7
  6
CONTINUOUS
 10
521.000000
 20
36.000000
 40
1.000000
 50
180.000000
 51
-90.000000
  0
ARC
  8
1
 62
7
  6
CONTINUOUS
 10
521.000000
 20
124.000000
 40
1.000000
 50
90.000000
 51
180.000000
  0
ARC
  8
1
 62
7
  6
CONTINUOUS
 10
425.031400
 20
84.433000
 40
3.000000
 50
-43.602800
 51
-8.298300
  0
ARC
  8
1
 62
7
  6
CONTINUOUS
 10
425.171600
 20
83.000000
 40
3.000000
 50
19.471200
 51
90.000000
  0
ARC
  8
1
 62
7
  6
CONTINUOUS
 10
424.828400
 20
83.000000
 40
3.000000
 50
90.000000
 51
160.528800
  0
ARC
  8
1
 62
7
  6
CONTINUOUS
 10
423.000000
 20
73.600000
 40
3.000000
 50
136.397200
 51
180.000000
  0
ARC
  8
1
 62
7
  6
CONTINUOUS
 10
426.000000
 20
84.000000
 40
4.000000
 50
-43.602800
 51
90.000000
  0
ARC
  8
1
 62
7
  6
CONTINUOUS
 10
340.000000
 20
80.000000
 40
45.000000
 50
-63.612200
 51
0.000000
  0
ARC
  8
1
 62
7
  6
CONTINUOUS
 10
425.000000
 20
80.000000
 40
68.500000
 50
154.026400
 51
-154.026400
  0
ARC
  8
1
 62
7
  6
CONTINUOUS
 10
425.000000
 20
80.000000
 40
68.500000
 50
-25.973600
 51
25.973600
  0
ARC
  8
1
 62
7
  6
CONTINUOUS
 10
510.000000
 20
80.000000
 40
45.000000
 50
116.387800
 51
-116.387800
  0
ARC
  8
1
 62
7
  6
CONTINUOUS
 10
340.000000
 20
80.000000
 40
45.000000
 50
0.000000
 51
63.612200
  0
ARC
  8
1
 62
7
  6
CONTINUOUS
 10
404.000000
 20
170.500000
 40
1.000000
 50
-90.000000
 51
0.000000
  0
ARC
  8
1
 62
7
  6
CONTINUOUS
 10
411.000000
 20
178.500000
 40
1.000000
 50
-90.000000
 51
0.000000
  0
ARC
  8
1
 62
7
  6
CONTINUOUS
 10
363.304000
 20
43.000000
 40
8.000000
 50
-120.000000
 51
-90.000000
  0
ARC
  8
1
 62
7
  6
CONTINUOUS
 10
499.643600
 20
32.000000
 40
8.000000
 50
90.000000
 51
120.000000
  0
ARC
  8
1
 62
7
  6
CONTINUOUS
 10
350.356400
 20
32.000000
 40
8.000000
 50
60.000000
 51
90.000000
  0
ARC
  8
1
 62
7
  6
CONTINUOUS
 10
486.696200
 20
43.000000
 40
8.000000
 50
-90.000000
 51
-60.000000
  0
ARC
  8
1
 62
7
  6
CONTINUOUS
 10
408.000000
 20
193.500000
 40
1.000000
 50
180.000000
 51
-90.000000
  0
ARC
  8
1
 62
7
  6
CONTINUOUS
 10
518.500000
 20
121.500000
 40
1.500000
 50
-90.000000
 51
0.000000
  0
ARC
  8
1
 62
7
  6
CONTINUOUS
 10
518.500000
 20
38.500000
 40
1.500000
 50
0.000000
 51
90.000000
  0
ARC
  8
1
 62
7
  6
CONTINUOUS
 10
501.000000
 20
125.000000
 40
5.000000
 50
-180.000000
 51
-90.000000
  0
ARC
  8
1
 62
7
  6
CONTINUOUS
 10
367.700000
 20
242.000000
 40
5.800000
 50
136.397200
 51
-136.397200
  0
ARC
  8
1
 62
7
  6
CONTINUOUS
 10
367.700000
 20
176.000000
 40
5.800000
 50
136.397200
 51
-136.397200
  0
ARC
  8
1
 62
7
  6
CONTINUOUS
 10
434.500000
 20
247.500000
 40
1.500000
 50
-122.220100
 51
-90.000000
  0
ARC
  8
1
 62
7
  6
CONTINUOUS
 10
450.000000
 20
241.000000
 40
1.000000
 50
-90.000000
 51
0.000000
  0
ARC
  8
1
 62
7
  6
CONTINUOUS
 10
415.500000
 20
247.500000
 40
1.500000
 50
-90.000000
 51
-42.650700
  0
ARC
  8
1
 62
7
  6
CONTINUOUS
 10
331.500000
 20
121.500000
 40
1.500000
 50
180.000000
 51
-90.000000
  0
ARC
  8
1
 62
7
  6
CONTINUOUS
 10
331.500000
 20
38.500000
 40
1.500000
 50
90.000000
 51
180.000000
  0
ARC
  8
1
 62
7
  6
CONTINUOUS
 10
424.000000
 20
84.000000
 40
4.000000
 50
90.000000
 51
-180.000000
  0
ARC
  8
1
 62
7
  6
CONTINUOUS
 10
436.000000
 20
249.000000
 40
1.000000
 50
90.000000
 51
180.000000
  0
ARC
  8
1
 62
7
  6
CONTINUOUS
 10
391.000000
 20
175.000000
 40
2.000000
 50
90.000000
 51
180.000000
  0
ARC
  8
1
 62
7
  6
CONTINUOUS
 10
407.323000
 20
176.500000
 40
1.000000
 50
90.000000
 51
131.409600
  0
ARC
  8
1
 62
7
  6
CONTINUOUS
 10
414.000000
 20
249.000000
 40
1.000000
 50
0.000000
 51
90.000000
  0
ARC
  8
1
 62
7
  6
CONTINUOUS
 10
448.000000
 20
255.000000
 40
3.000000
 50
0.000000
 51
90.000000
  0
ARC
  8
1
 62
7
  6
CONTINUOUS
 10
411.000000
 20
191.500000
 40
1.000000
 50
0.000000
 51
90.000000
  0
ARC
  8
1
 62
7
  6
CONTINUOUS
 10
411.000000
 20
226.500000
 40
1.000000
 50
-90.000000
 51
0.000000
  0
ARC
  8
1
 62
7
  6
CONTINUOUS
 10
411.000000
 20
239.500000
 40
1.000000
 50
0.000000
 51
90.000000
  0
ARC
  8
1
 62
7
  6
CONTINUOUS
 10
349.000000
 20
125.000000
 40
5.000000
 50
-90.000000
 51
0.000000
  0
ARC
  8
1
 62
7
  6
CONTINUOUS
 10
438.000000
 20
255.071800
 40
3.000000
 50
0.000000
 51
81.786800
  0
ARC
  8
1
 62
7
  6
CONTINUOUS
 10
408.000000
 20
241.500000
 40
1.000000
 50
180.000000
 51
-90.000000
  0
ARC
  8
1
 62
7
  6
CONTINUOUS
 10
406.000000
 20
178.000000
 40
1.000000
 50
-90.000000
 51
-48.590400
  0
ARC
  8
1
 62
7
  6
CONTINUOUS
 10
408.000000
 20
224.500000
 40
1.000000
 50
90.000000
 51
180.000000
  0
ARC
  8
1
 62
7
  6
CONTINUOUS
 10
444.000000
 20
182.000000
 40
1.000000
 50
0.000000
 51
90.000000
  0
ARC
  8
1
 62
7
  6
CONTINUOUS
 10
447.000000
 20
171.500000
 40
2.000000
 50
180.000000
 51
-90.000000
  0
ARC
  8
1
 62
7
  6
CONTINUOUS
 10
404.000000
 20
171.000000
 40
1.000000
 50
0.000000
 51
90.000000
  0
ARC
  8
1
 62
7
  6
CONTINUOUS
 10
406.000000
 20
245.000000
 40
1.000000
 50
0.000000
 51
90.000000
  0
ARC
  8
1
 62
7
  6
CONTINUOUS
 10
391.000000
 20
168.500000
 40
1.000000
 50
90.000000
 51
180.000000
  0
ARC
  8
1
 62
7
  6
CONTINUOUS
 10
459.000000
 20
168.500000
 40
1.000000
 50
0.000000
 51
90.000000
  0
ARC
  8
1
 62
7
  6
CONTINUOUS
 10
444.000000
 20
184.000000
 40
1.000000
 50
180.000000
 51
-90.000000
  0
ARC
  8
1
 62
7
  6
CONTINUOUS
 10
444.000000
 20
239.000000
 40
1.000000
 50
90.000000
 51
180.000000
  0
ARC
  8
1
 62
7
  6
CONTINUOUS
 10
419.000000
 20
276.000000
 40
4.000000
 50
90.000000
 51
-180.000000
  0
ARC
  8
1
 62
7
  6
CONTINUOUS
 10
431.000000
 20
276.000000
 40
4.000000
 50
0.000000
 51
90.000000
  0
ARC
  8
1
 62
7
  6
CONTINUOUS
 10
409.000000
 20
255.000000
 40
3.000000
 50
90.000000
 51
180.000000
  0
ARC
  8
1
 62
7
  6
CONTINUOUS
 10
439.000000
 20
262.000000
 40
4.000000
 50
-180.000000
 51
-98.213200
  0
ARC
  8
1
 62
7
  6
CONTINUOUS
 10
411.000000
 20
262.000000
 40
4.000000
 50
-90.000000
 51
0.000000
  0
ARC
  8
1
 62
7
  6
CONTINUOUS
 10
387.000000
 20
174.000000
 40
2.000000
 50
-90.000000
 51
0.000000
  0
LINE
  8
1
 62
7
  6
CONTINUOUS
 10
425.171600
 20
86.000000
 11
424.828400
 21
86.000000
  0
LINE
  8
1
 62
7
  6
CONTINUOUS
 10
422.000000
 20
74.000000
 11
428.896600
 21
81.241400
  0
LINE
  8
1
 62
7
  6
CONTINUOUS
 10
420.827600
 20
75.669000
 11
427.203800
 21
82.364000
  0
LINE
  8
1
 62
7
  6
CONTINUOUS
 10
363.418800
 20
50.000000
 11
320.000000
 21
50.000000
  0
LINE
  8
1
 62
7
  6
CONTINUOUS
 10
426.000000
 20
88.000000
 11
424.000000
 21
88.000000
  0
LINE
  8
1
 62
7
  6
CONTINUOUS
 10
410.000000
 20
110.000000
 11
420.000000
 21
106.500000
  0
LINE
  8
1
 62
7
  6
CONTINUOUS
 10
420.000000
 20
84.000000
 11
422.000000
 21
84.000000
  0
LINE
  8
1
 62
7
  6
CONTINUOUS
 10
430.000000
 20
74.000000
 11
422.000000
 21
74.000000
  0
LINE
  8
1
 62
7
  6
CONTINUOUS
 10
420.000000
 20
112.000000
 11
420.000000
 21
113.500000
  0
LINE
  8
1
 62
7
  6
CONTINUOUS
 10
430.000000
 20
72.000000
 11
420.000000
 21
72.000000
  0
LINE
  8
1
 62
7
  6
CONTINUOUS
 10
420.000000
 20
73.600000
 11
420.000000
 21
72.000000
  0
LINE
  8
1
 62
7
  6
CONTINUOUS
 10
430.000000
 20
74.000000
 11
430.000000
 21
72.000000
  0
LINE
  8
1
 62
7
  6
CONTINUOUS
 10
436.500000
 20
110.000000
 11
440.000000
 21
106.500000
  0
LINE
  8
1
 62
7
  6
CONTINUOUS
 10
428.500000
 20
108.000000
 11
430.000000
 21
106.500000
  0
LINE
  8
1
 62
7
  6
CONTINUOUS
 10
436.500000
 20
110.000000
 11
440.000000
 21
113.500000
  0
LINE
  8
1
 62
7
  6
CONTINUOUS
 10
428.500000
 20
112.000000
 11
430.000000
 21
113.500000
  0
LINE
  8
1
 62
7
  6
CONTINUOUS
 10
430.000000
 20
106.500000
 11
440.000000
 21
106.500000
  0
LINE
  8
1
 62
7
  6
CONTINUOUS
 10
430.000000
 20
113.500000
 11
440.000000
 21
113.500000
  0
LINE
  8
1
 62
7
  6
CONTINUOUS
 10
420.000000
 20
106.500000
 11
420.000000
 21
108.000000
  0
LINE
  8
1
 62
7
  6
CONTINUOUS
 10
428.500000
 20
108.000000
 11
420.000000
 21
108.000000
  0
LINE
  8
1
 62
7
  6
CONTINUOUS
 10
428.500000
 20
112.000000
 11
420.000000
 21
112.000000
  0
LINE
  8
1
 62
7
  6
CONTINUOUS
 10
410.000000
 20
110.000000
 11
420.000000
 21
113.500000
  0
LINE
  8
1
 62
7
  6
CONTINUOUS
 10
430.000000
 20
170.400000
 11
429.400000
 21
171.000000
  0
LINE
  8
1
 62
7
  6
CONTINUOUS
 10
430.000000
 20
170.400000
 11
420.000000
 21
170.400000
  0
LINE
  8
1
 62
7
  6
CONTINUOUS
 10
420.000000
 20
165.000000
 11
420.000000
 21
170.400000
  0
LINE
  8
1
 62
7
  6
CONTINUOUS
 10
430.000000
 20
165.000000
 11
430.000000
 21
170.400000
  0
LINE
  8
1
 62
7
  6
CONTINUOUS
 10
429.400000
 20
171.000000
 11
420.600000
 21
171.000000
  0
LINE
  8
1
 62
7
  6
CONTINUOUS
 10
422.500000
 20
165.000000
 11
422.500000
 21
170.400000
  0
LINE
  8
1
 62
7
  6
CONTINUOUS
 10
421.250000
 20
165.000000
 11
421.250000
 21
170.400000
  0
LINE
  8
1
 62
7
  6
CONTINUOUS
 10
423.750000
 20
165.000000
 11
423.750000
 21
170.400000
  0
LINE
  8
1
 62
7
  6
CONTINUOUS
 10
423.125000
 20
165.000000
 11
423.125000
 21
170.400000
  0
LINE
  8
1
 62
7
  6
CONTINUOUS
 10
421.875000
 20
165.000000
 11
421.875000
 21
170.400000
  0
LINE
  8
1
 62
7
  6
CONTINUOUS
 10
420.625000
 20
165.000000
 11
420.625000
 21
170.400000
  0
LINE
  8
1
 62
7
  6
CONTINUOUS
 10
424.375000
 20
165.000000
 11
424.375000
 21
170.400000
  0
LINE
  8
1
 62
7
  6
CONTINUOUS
 10
427.500000
 20
165.000000
 11
427.500000
 21
170.400000
  0
LINE
  8
1
 62
7
  6
CONTINUOUS
 10
426.250000
 20
165.000000
 11
426.250000
 21
170.400000
  0
LINE
  8
1
 62
7
  6
CONTINUOUS
 10
428.750000
 20
165.000000
 11
428.750000
 21
170.400000
  0
LINE
  8
1
 62
7
  6
CONTINUOUS
 10
429.375000
 20
165.000000
 11
429.375000
 21
170.400000
  0
LINE
  8
1
 62
7
  6
CONTINUOUS
 10
428.125000
 20
165.000000
 11
428.125000
 21
170.400000
  0
LINE
  8
1
 62
7
  6
CONTINUOUS
 10
426.875000
 20
165.000000
 11
426.875000
 21
170.400000
  0
LINE
  8
1
 62
7
  6
CONTINUOUS
 10
425.625000
 20
165.000000
 11
425.625000
 21
170.400000
  0
LINE
  8
1
 62
7
  6
CONTINUOUS
 10
425.000000
 20
165.000000
 11
425.000000
 21
170.400000
  0
LINE
  8
1
 62
7
  6
CONTINUOUS
 10
363.418800
 20
110.000000
 11
320.000000
 21
110.000000
  0
LINE
  8
1
 62
7
  6
CONTINUOUS
 10
420.000000
 20
170.400000
 11
420.600000
 21
171.000000
  0
LINE
  8
1
 62
7
  6
CONTINUOUS
 10
420.000000
 20
169.500000
 11
391.000000
 21
169.500000
  0
LINE
  8
1
 62
7
  6
CONTINUOUS
 10
443.000000
 20
184.000000
 11
443.000000
 21
199.305400
  0
LINE
  8
1
 62
7
  6
CONTINUOUS
 10
420.250000
 20
246.512400
 11
420.250000
 21
255.000000
  0
LINE
  8
1
 62
7
  6
CONTINUOUS
 10
373.708400
 20
170.400000
 11
363.708400
 21
170.400000
  0
LINE
  8
1
 62
7
  6
CONTINUOUS
 10
486.291800
 20
170.400000
 11
485.691800
 21
171.000000
  0
LINE
  8
1
 62
7
  6
CONTINUOUS
 10
460.000000
 20
165.000000
 11
460.000000
 21
168.500000
  0
LINE
  8
1
 62
7
  6
CONTINUOUS
 10
390.000000
 20
165.000000
 11
390.000000
 21
168.500000
  0
LINE
  8
1
 62
7
  6
CONTINUOUS
 10
476.291800
 20
170.400000
 11
486.291800
 21
170.400000
  0
LINE
  8
1
 62
7
  6
CONTINUOUS
 10
373.708400
 20
170.400000
 11
373.108400
 21
171.000000
  0
LINE
  8
1
 62
7
  6
CONTINUOUS
 10
363.708400
 20
170.400000
 11
364.308400
 21
171.000000
  0
LINE
  8
1
 62
7
  6
CONTINUOUS
 10
354.000000
 20
164.000000
 11
496.000000
 21
164.000000
  0
LINE
  8
1
 62
7
  6
CONTINUOUS
 10
411.000000
 20
258.000000
 11
439.000000
 21
258.000000
  0
LINE
  8
1
 62
7
  6
CONTINUOUS
 10
443.750000
 20
246.000000
 11
411.668400
 21
246.000000
  0
LINE
  8
1
 62
7
  6
CONTINUOUS
 10
476.291800
 20
170.400000
 11
476.891800
 21
171.000000
  0
LINE
  8
1
 62
7
  6
CONTINUOUS
 10
481.291800
 20
165.000000
 11
481.291800
 21
170.400000
  0
LINE
  8
1
 62
7
  6
CONTINUOUS
 10
480.666800
 20
165.000000
 11
480.666800
 21
170.400000
  0
LINE
  8
1
 62
7
  6
CONTINUOUS
 10
479.416800
 20
165.000000
 11
479.416800
 21
170.400000
  0
LINE
  8
1
 62
7
  6
CONTINUOUS
 10
395.551600
 20
169.500000
 11
395.551600
 21
174.000000
  0
LINE
  8
1
 62
7
  6
CONTINUOUS
 10
399.051600
 20
174.500000
 11
391.551600
 21
174.500000
  0
LINE
  8
1
 62
7
  6
CONTINUOUS
 10
394.551600
 20
169.500000
 11
394.551600
 21
174.000000
  0
LINE
  8
1
 62
7
  6
CONTINUOUS
 10
394.051600
 20
169.500000
 11
394.051600
 21
174.000000
  0
LINE
  8
1
 62
7
  6
CONTINUOUS
 10
455.948600
 20
169.500000
 11
455.948600
 21
174.000000
  0
LINE
  8
1
 62
7
  6
CONTINUOUS
 10
454.948600
 20
169.500000
 11
454.948600
 21
174.000000
  0
LINE
  8
1
 62
7
  6
CONTINUOUS
 10
456.448600
 20
169.500000
 11
456.448600
 21
174.000000
  0
LINE
  8
1
 62
7
  6
CONTINUOUS
 10
395.051600
 20
169.500000
 11
395.051600
 21
174.000000
  0
LINE
  8
1
 62
7
  6
CONTINUOUS
 10
450.448600
 20
169.500000
 11
450.448600
 21
174.000000
  0
LINE
  8
1
 62
7
  6
CONTINUOUS
 10
393.551600
 20
169.500000
 11
393.551600
 21
174.000000
  0
LINE
  8
1
 62
7
  6
CONTINUOUS
 10
454.448600
 20
169.500000
 11
454.448600
 21
174.000000
  0
LINE
  8
1
 62
7
  6
CONTINUOUS
 10
391.051600
 20
169.500000
 11
391.051600
 21
174.000000
  0
LINE
  8
1
 62
7
  6
CONTINUOUS
 10
398.051600
 20
169.500000
 11
398.051600
 21
174.000000
  0
LINE
  8
1
 62
7
  6
CONTINUOUS
 10
398.551600
 20
169.500000
 11
398.551600
 21
174.000000
  0
LINE
  8
1
 62
7
  6
CONTINUOUS
 10
530.000000
 20
110.000000
 11
486.581400
 21
110.000000
  0
LINE
  8
1
 62
7
  6
CONTINUOUS
 10
391.000000
 20
177.000000
 11
406.000000
 21
177.000000
  0
LINE
  8
1
 62
7
  6
CONTINUOUS
 10
483.166800
 20
165.000000
 11
483.166800
 21
170.400000
  0
LINE
  8
1
 62
7
  6
CONTINUOUS
 10
485.666800
 20
165.000000
 11
485.666800
 21
170.400000
  0
LINE
  8
1
 62
7
  6
CONTINUOUS
 10
481.916800
 20
165.000000
 11
481.916800
 21
170.400000
  0
LINE
  8
1
 62
7
  6
CONTINUOUS
 10
480.041800
 20
165.000000
 11
480.041800
 21
170.400000
  0
LINE
  8
1
 62
7
  6
CONTINUOUS
 10
476.916800
 20
165.000000
 11
476.916800
 21
170.400000
  0
LINE
  8
1
 62
7
  6
CONTINUOUS
 10
477.541800
 20
165.000000
 11
477.541800
 21
170.400000
  0
LINE
  8
1
 62
7
  6
CONTINUOUS
 10
484.416800
 20
165.000000
 11
484.416800
 21
170.400000
  0
LINE
  8
1
 62
7
  6
CONTINUOUS
 10
478.791800
 20
165.000000
 11
478.791800
 21
170.400000
  0
LINE
  8
1
 62
7
  6
CONTINUOUS
 10
485.041800
 20
165.000000
 11
485.041800
 21
170.400000
  0
LINE
  8
1
 62
7
  6
CONTINUOUS
 10
476.291800
 20
165.000000
 11
476.291800
 21
170.400000
  0
LINE
  8
1
 62
7
  6
CONTINUOUS
 10
483.791800
 20
165.000000
 11
483.791800
 21
170.400000
  0
LINE
  8
1
 62
7
  6
CONTINUOUS
 10
482.541800
 20
165.000000
 11
482.541800
 21
170.400000
  0
LINE
  8
1
 62
7
  6
CONTINUOUS
 10
486.291800
 20
165.000000
 11
486.291800
 21
170.400000
  0
LINE
  8
1
 62
7
  6
CONTINUOUS
 10
476.891800
 20
171.000000
 11
485.691800
 21
171.000000
  0
LINE
  8
1
 62
7
  6
CONTINUOUS
 10
478.166800
 20
165.000000
 11
478.166800
 21
170.400000
  0
LINE
  8
1
 62
7
  6
CONTINUOUS
 10
409.562600
 20
250.000000
 11
409.562600
 21
255.000000
  0
LINE
  8
1
 62
7
  6
CONTINUOUS
 10
530.000000
 20
50.000000
 11
486.581400
 21
50.000000
  0
LINE
  8
1
 62
7
  6
CONTINUOUS
 10
368.708400
 20
165.000000
 11
368.708400
 21
170.400000
  0
LINE
  8
1
 62
7
  6
CONTINUOUS
 10
369.333400
 20
165.000000
 11
369.333400
 21
170.400000
  0
LINE
  8
1
 62
7
  6
CONTINUOUS
 10
370.583400
 20
165.000000
 11
370.583400
 21
170.400000
  0
LINE
  8
1
 62
7
  6
CONTINUOUS
 10
371.833400
 20
165.000000
 11
371.833400
 21
170.400000
  0
LINE
  8
1
 62
7
  6
CONTINUOUS
 10
373.083400
 20
165.000000
 11
373.083400
 21
170.400000
  0
LINE
  8
1
 62
7
  6
CONTINUOUS
 10
372.458400
 20
165.000000
 11
372.458400
 21
170.400000
  0
LINE
  8
1
 62
7
  6
CONTINUOUS
 10
369.958400
 20
165.000000
 11
369.958400
 21
170.400000
  0
LINE
  8
1
 62
7
  6
CONTINUOUS
 10
371.208400
 20
165.000000
 11
371.208400
 21
170.400000
  0
LINE
  8
1
 62
7
  6
CONTINUOUS
 10
368.083400
 20
165.000000
 11
368.083400
 21
170.400000
  0
LINE
  8
1
 62
7
  6
CONTINUOUS
 10
364.333400
 20
165.000000
 11
364.333400
 21
170.400000
  0
LINE
  8
1
 62
7
  6
CONTINUOUS
 10
365.583400
 20
165.000000
 11
365.583400
 21
170.400000
  0
LINE
  8
1
 62
7
  6
CONTINUOUS
 10
366.833400
 20
165.000000
 11
366.833400
 21
170.400000
  0
LINE
  8
1
 62
7
  6
CONTINUOUS
 10
367.458400
 20
165.000000
 11
367.458400
 21
170.400000
  0
LINE
  8
1
 62
7
  6
CONTINUOUS
 10
364.958400
 20
165.000000
 11
364.958400
 21
170.400000
  0
LINE
  8
1
 62
7
  6
CONTINUOUS
 10
366.208400
 20
165.000000
 11
366.208400
 21
170.400000
  0
LINE
  8
1
 62
7
  6
CONTINUOUS
 10
373.108400
 20
171.000000
 11
364.308400
 21
171.000000
  0
LINE
  8
1
 62
7
  6
CONTINUOUS
 10
373.708400
 20
165.000000
 11
373.708400
 21
170.400000
  0
LINE
  8
1
 62
7
  6
CONTINUOUS
 10
363.708400
 20
165.000000
 11
363.708400
 21
170.400000
  0
LINE
  8
1
 62
7
  6
CONTINUOUS
 10
496.000000
 20
125.000000
 11
496.000000
 21
164.000000
  0
LINE
  8
1
 62
7
  6
CONTINUOUS
 10
354.000000
 20
125.000000
 11
354.000000
 21
164.000000
  0
LINE
  8
1
 62
7
  6
CONTINUOUS
 10
330.000000
 20
110.000000
 11
330.000000
 21
124.000000
  0
LINE
  8
1
 62
7
  6
CONTINUOUS
 10
520.000000
 20
110.000000
 11
520.000000
 21
124.000000
  0
LINE
  8
1
 62
7
  6
CONTINUOUS
 10
521.000000
 20
125.000000
 11
530.000000
 21
125.000000
  0
LINE
  8
1
 62
7
  6
CONTINUOUS
 10
501.000000
 20
120.000000
 11
518.500000
 21
120.000000
  0
LINE
  8
1
 62
7
  6
CONTINUOUS
 10
530.000000
 20
80.000000
 11
530.000000
 21
35.000000
  0
LINE
  8
1
 62
7
  6
CONTINUOUS
 10
425.000000
 20
35.000000
 11
486.696200
 21
35.000000
  0
LINE
  8
1
 62
7
  6
CONTINUOUS
 10
520.000000
 20
36.000000
 11
520.000000
 21
50.000000
  0
LINE
  8
1
 62
7
  6
CONTINUOUS
 10
530.000000
 20
80.000000
 11
530.000000
 21
125.000000
  0
LINE
  8
1
 62
7
  6
CONTINUOUS
 10
520.000000
 20
38.500000
 11
520.000000
 21
35.000000
  0
LINE
  8
1
 62
7
  6
CONTINUOUS
 10
499.643600
 20
40.000000
 11
518.500000
 21
40.000000
  0
LINE
  8
1
 62
7
  6
CONTINUOUS
 10
521.000000
 20
35.000000
 11
530.000000
 21
35.000000
  0
LINE
  8
1
 62
7
  6
CONTINUOUS
 10
495.643600
 20
38.928200
 11
490.696200
 21
36.071800
  0
LINE
  8
1
 62
7
  6
CONTINUOUS
 10
329.000000
 20
125.000000
 11
320.000000
 21
125.000000
  0
LINE
  8
1
 62
7
  6
CONTINUOUS
 10
349.000000
 20
120.000000
 11
331.500000
 21
120.000000
  0
LINE
  8
1
 62
7
  6
CONTINUOUS
 10
320.000000
 20
80.000000
 11
320.000000
 21
35.000000
  0
LINE
  8
1
 62
7
  6
CONTINUOUS
 10
425.000000
 20
35.000000
 11
363.304000
 21
35.000000
  0
LINE
  8
1
 62
7
  6
CONTINUOUS
 10
330.000000
 20
36.000000
 11
330.000000
 21
50.000000
  0
LINE
  8
1
 62
7
  6
CONTINUOUS
 10
363.500000
 20
246.000000
 11
369.509200
 21
246.000000
  0
LINE
  8
1
 62
7
  6
CONTINUOUS
 10
363.500000
 20
238.000000
 11
365.000000
 21
238.000000
  0
LINE
  8
1
 62
7
  6
CONTINUOUS
 10
354.000000
 20
164.000000
 11
355.000000
 21
165.000000
  0
LINE
  8
1
 62
7
  6
CONTINUOUS
 10
455.448600
 20
169.500000
 11
455.448600
 21
174.000000
  0
LINE
  8
1
 62
7
  6
CONTINUOUS
 10
483.800000
 20
155.000000
 11
496.000000
 21
155.000000
  0
LINE
  8
1
 62
7
  6
CONTINUOUS
 10
355.000000
 20
165.000000
 11
495.000000
 21
165.000000
  0
LINE
  8
1
 62
7
  6
CONTINUOUS
 10
399.051600
 20
169.500000
 11
399.051600
 21
174.000000
  0
LINE
  8
1
 62
7
  6
CONTINUOUS
 10
496.000000
 20
164.000000
 11
495.000000
 21
165.000000
  0
LINE
  8
1
 62
7
  6
CONTINUOUS
 10
406.007400
 20
246.385600
 11
408.000000
 21
246.400000
  0
LINE
  8
1
 62
7
  6
CONTINUOUS
 10
421.437600
 20
246.521800
 11
421.437600
 21
255.000000
  0
LINE
  8
1
 62
7
  6
CONTINUOUS
 10
422.625000
 20
246.531200
 11
422.625000
 21
255.000000
  0
LINE
  8
1
 62
7
  6
CONTINUOUS
 10
363.500000
 20
180.000000
 11
365.000000
 21
180.000000
  0
LINE
  8
1
 62
7
  6
CONTINUOUS
 10
423.812600
 20
246.540600
 11
423.812600
 21
255.000000
  0
LINE
  8
1
 62
7
  6
CONTINUOUS
 10
434.873000
 20
277.000000
 11
415.127000
 21
277.000000
  0
LINE
  8
1
 62
7
  6
CONTINUOUS
 10
435.008000
 20
268.000000
 11
415.000000
 21
268.000000
  0
LINE
  8
1
 62
7
  6
CONTINUOUS
 10
419.062600
 20
246.503200
 11
419.062600
 21
255.000000
  0
LINE
  8
1
 62
7
  6
CONTINUOUS
 10
363.500000
 20
172.000000
 11
369.509200
 21
172.000000
  0
LINE
  8
1
 62
7
  6
CONTINUOUS
 10
435.369600
 20
260.000000
 11
414.654800
 21
260.000000
  0
LINE
  8
1
 62
7
  6
CONTINUOUS
 10
415.500000
 20
246.475000
 11
415.500000
 21
255.000000
  0
LINE
  8
1
 62
7
  6
CONTINUOUS
 10
410.750000
 20
250.000000
 11
410.750000
 21
255.000000
  0
LINE
  8
1
 62
7
  6
CONTINUOUS
 10
451.000000
 20
255.000000
 11
406.000000
 21
255.000000
  0
LINE
  8
1
 62
7
  6
CONTINUOUS
 10
397.551600
 20
169.500000
 11
397.551600
 21
174.000000
  0
LINE
  8
1
 62
7
  6
CONTINUOUS
 10
411.937600
 20
250.000000
 11
411.937600
 21
255.000000
  0
LINE
  8
1
 62
7
  6
CONTINUOUS
 10
408.375000
 20
250.000000
 11
408.375000
 21
255.000000
  0
LINE
  8
1
 62
7
  6
CONTINUOUS
 10
413.125000
 20
250.000000
 11
413.125000
 21
255.000000
  0
LINE
  8
1
 62
7
  6
CONTINUOUS
 10
414.312600
 20
249.950000
 11
414.312600
 21
255.000000
  0
LINE
  8
1
 62
7
  6
CONTINUOUS
 10
443.600000
 20
246.000000
 11
443.600000
 21
247.000000
  0
LINE
  8
1
 62
7
  6
CONTINUOUS
 10
407.187600
 20
250.000000
 11
407.187600
 21
255.000000
  0
LINE
  8
1
 62
7
  6
CONTINUOUS
 10
417.875000
 20
246.493800
 11
417.875000
 21
255.000000
  0
LINE
  8
1
 62
7
  6
CONTINUOUS
 10
416.687600
 20
246.484400
 11
416.687600
 21
255.000000
  0
LINE
  8
1
 62
7
  6
CONTINUOUS
 10
420.000000
 20
268.000000
 11
420.000000
 21
276.913000
  0
LINE
  8
1
 62
7
  6
CONTINUOUS
 10
417.500000
 20
268.000000
 11
417.500000
 21
276.913000
  0
LINE
  8
1
 62
7
  6
CONTINUOUS
 10
416.250000
 20
268.000000
 11
416.250000
 21
276.913000
  0
LINE
  8
1
 62
7
  6
CONTINUOUS
 10
418.750000
 20
268.000000
 11
418.750000
 21
276.913000
  0
LINE
  8
1
 62
7
  6
CONTINUOUS
 10
421.250000
 20
268.000000
 11
421.250000
 21
277.000000
  0
LINE
  8
1
 62
7
  6
CONTINUOUS
 10
422.500000
 20
268.000000
 11
422.500000
 21
277.000000
  0
LINE
  8
1
 62
7
  6
CONTINUOUS
 10
423.750000
 20
268.000000
 11
423.750000
 21
277.000000
  0
LINE
  8
1
 62
7
  6
CONTINUOUS
 10
430.000000
 20
268.000000
 11
430.000000
 21
277.000000
  0
LINE
  8
1
 62
7
  6
CONTINUOUS
 10
433.750000
 20
268.000000
 11
433.750000
 21
277.000000
  0
LINE
  8
1
 62
7
  6
CONTINUOUS
 10
432.500000
 20
268.000000
 11
432.500000
 21
277.000000
  0
LINE
  8
1
 62
7
  6
CONTINUOUS
 10
427.500000
 20
268.000000
 11
427.500000
 21
277.000000
  0
LINE
  8
1
 62
7
  6
CONTINUOUS
 10
431.250000
 20
268.000000
 11
431.250000
 21
277.000000
  0
LINE
  8
1
 62
7
  6
CONTINUOUS
 10
428.750000
 20
268.000000
 11
428.750000
 21
277.000000
  0
LINE
  8
1
 62
7
  6
CONTINUOUS
 10
426.250000
 20
268.000000
 11
426.250000
 21
277.000000
  0
LINE
  8
1
 62
7
  6
CONTINUOUS
 10
428.562600
 20
246.419400
 11
428.562600
 21
255.000000
  0
LINE
  8
1
 62
7
  6
CONTINUOUS
 10
446.375000
 20
246.000000
 11
446.375000
 21
255.000000
  0
LINE
  8
1
 62
7
  6
CONTINUOUS
 10
427.375000
 20
246.463000
 11
427.375000
 21
255.000000
  0
LINE
  8
1
 62
7
  6
CONTINUOUS
 10
426.187600
 20
246.506400
 11
426.187600
 21
255.000000
  0
LINE
  8
1
 62
7
  6
CONTINUOUS
 10
440.437600
 20
250.000000
 11
440.437600
 21
255.000000
  0
LINE
  8
1
 62
7
  6
CONTINUOUS
 10
429.750000
 20
246.375800
 11
429.750000
 21
255.000000
  0
LINE
  8
1
 62
7
  6
CONTINUOUS
 10
430.937600
 20
246.332200
 11
430.937600
 21
255.000000
  0
LINE
  8
1
 62
7
  6
CONTINUOUS
 10
434.500000
 20
246.201600
 11
434.500000
 21
255.000000
  0
LINE
  8
1
 62
7
  6
CONTINUOUS
 10
320.000000
 20
80.000000
 11
320.000000
 21
125.000000
  0
LINE
  8
1
 62
7
  6
CONTINUOUS
 10
330.000000
 20
38.500000
 11
330.000000
 21
35.000000
  0
LINE
  8
1
 62
7
  6
CONTINUOUS
 10
350.356400
 20
40.000000
 11
331.500000
 21
40.000000
  0
LINE
  8
1
 62
7
  6
CONTINUOUS
 10
329.000000
 20
35.000000
 11
320.000000
 21
35.000000
  0
LINE
  8
1
 62
7
  6
CONTINUOUS
 10
354.356400
 20
38.928200
 11
359.304000
 21
36.071800
  0
LINE
  8
1
 62
7
  6
CONTINUOUS
 10
393.051600
 20
169.500000
 11
393.051600
 21
174.000000
  0
LINE
  8
1
 62
7
  6
CONTINUOUS
 10
365.000000
 20
209.000000
 11
365.000000
 21
246.000000
  0
LINE
  8
1
 62
7
  6
CONTINUOUS
 10
365.000000
 20
209.000000
 11
365.000000
 21
172.000000
  0
LINE
  8
1
 62
7
  6
CONTINUOUS
 10
396.051600
 20
169.500000
 11
396.051600
 21
174.000000
  0
LINE
  8
1
 62
7
  6
CONTINUOUS
 10
412.844600
 20
246.000000
 11
404.000000
 21
246.000000
  0
LINE
  8
1
 62
7
  6
CONTINUOUS
 10
439.000000
 20
246.000000
 11
439.000000
 21
250.000000
  0
LINE
  8
1
 62
7
  6
CONTINUOUS
 10
396.551600
 20
169.500000
 11
396.551600
 21
174.000000
  0
LINE
  8
1
 62
7
  6
CONTINUOUS
 10
392.551600
 20
169.500000
 11
392.551600
 21
174.000000
  0
LINE
  8
1
 62
7
  6
CONTINUOUS
 10
397.051600
 20
169.500000
 11
397.051600
 21
174.000000
  0
LINE
  8
1
 62
7
  6
CONTINUOUS
 10
392.051600
 20
169.500000
 11
392.051600
 21
174.000000
  0
LINE
  8
1
 62
7
  6
CONTINUOUS
 10
391.551600
 20
169.500000
 11
391.551600
 21
174.000000
  0
LINE
  8
1
 62
7
  6
CONTINUOUS
 10
399.551600
 20
169.500000
 11
399.551600
 21
174.000000
  0
LINE
  8
1
 62
7
  6
CONTINUOUS
 10
450.448600
 20
169.500000
 11
450.448600
 21
174.000000
  0
LINE
  8
1
 62
7
  6
CONTINUOUS
 10
367.000000
 20
246.000000
 11
367.000000
 21
172.000000
  0
LINE
  8
1
 62
7
  6
CONTINUOUS
 10
404.000000
 20
246.000000
 11
404.000000
 21
172.000000
  0
LINE
  8
1
 62
7
  6
CONTINUOUS
 10
439.250000
 20
250.000000
 11
439.250000
 21
255.000000
  0
LINE
  8
1
 62
7
  6
CONTINUOUS
 10
438.062600
 20
250.000000
 11
438.062600
 21
255.000000
  0
LINE
  8
1
 62
7
  6
CONTINUOUS
 10
368.000000
 20
246.000000
 11
368.000000
 21
172.000000
  0
LINE
  8
1
 62
7
  6
CONTINUOUS
 10
441.625000
 20
247.000000
 11
441.625000
 21
255.000000
  0
LINE
  8
1
 62
7
  6
CONTINUOUS
 10
436.875000
 20
250.000000
 11
436.875000
 21
255.000000
  0
LINE
  8
1
 62
7
  6
CONTINUOUS
 10
435.687600
 20
249.950000
 11
435.687600
 21
255.000000
  0
LINE
  8
1
 62
7
  6
CONTINUOUS
 10
450.948600
 20
169.500000
 11
450.948600
 21
174.000000
  0
LINE
  8
1
 62
7
  6
CONTINUOUS
 10
442.812600
 20
247.000000
 11
442.812600
 21
255.000000
  0
LINE
  8
1
 62
7
  6
CONTINUOUS
 10
365.000000
 20
246.000000
 11
406.000000
 21
246.000000
  0
LINE
  8
1
 62
7
  6
CONTINUOUS
 10
365.000000
 20
172.000000
 11
391.051600
 21
172.000000
  0
LINE
  8
1
 62
7
  6
CONTINUOUS
 10
432.125000
 20
246.288800
 11
432.125000
 21
255.000000
  0
LINE
  8
1
 62
7
  6
CONTINUOUS
 10
458.448600
 20
174.500000
 11
450.948600
 21
174.500000
  0
LINE
  8
1
 62
7
  6
CONTINUOUS
 10
433.312600
 20
246.245200
 11
433.312600
 21
255.000000
  0
LINE
  8
1
 62
7
  6
CONTINUOUS
 10
402.150000
 20
246.000000
 11
402.150000
 21
172.000000
  0
LINE
  8
1
 62
7
  6
CONTINUOUS
 10
402.150000
 20
172.000000
 11
402.150000
 21
175.000000
  0
LINE
  8
1
 62
7
  6
CONTINUOUS
 10
410.000000
 20
246.400000
 11
410.000000
 21
250.000000
  0
LINE
  8
1
 62
7
  6
CONTINUOUS
 10
408.000000
 20
246.400000
 11
408.000000
 21
250.000000
  0
LINE
  8
1
 62
7
  6
CONTINUOUS
 10
446.000000
 20
247.000000
 11
439.000000
 21
247.000000
  0
LINE
  8
1
 62
7
  6
CONTINUOUS
 10
435.000000
 20
246.183400
 11
435.000000
 21
249.000000
  0
LINE
  8
1
 62
7
  6
CONTINUOUS
 10
436.000000
 20
250.000000
 11
441.000000
 21
250.000000
  0
LINE
  8
1
 62
7
  6
CONTINUOUS
 10
445.187600
 20
247.000000
 11
445.187600
 21
255.000000
  0
LINE
  8
1
 62
7
  6
CONTINUOUS
 10
447.562600
 20
246.000000
 11
447.562600
 21
255.000000
  0
LINE
  8
1
 62
7
  6
CONTINUOUS
 10
444.000000
 20
247.000000
 11
444.000000
 21
255.000000
  0
LINE
  8
1
 62
7
  6
CONTINUOUS
 10
483.800000
 20
155.000000
 11
354.000000
 21
155.000000
  0
LINE
  8
1
 62
7
  6
CONTINUOUS
 10
448.750000
 20
246.000000
 11
448.750000
 21
255.000000
  0
LINE
  8
1
 62
7
  6
CONTINUOUS
 10
441.000000
 20
247.000000
 11
441.000000
 21
255.071800
  0
LINE
  8
1
 62
7
  6
CONTINUOUS
 10
408.000000
 20
240.500000
 11
411.000000
 21
240.500000
  0
LINE
  8
1
 62
7
  6
CONTINUOUS
 10
449.937600
 20
246.000000
 11
449.937600
 21
255.000000
  0
LINE
  8
1
 62
7
  6
CONTINUOUS
 10
434.993800
 20
260.000000
 11
434.993800
 21
255.000000
  0
LINE
  8
1
 62
7
  6
CONTINUOUS
 10
432.495400
 20
260.000000
 11
432.495400
 21
255.000000
  0
LINE
  8
1
 62
7
  6
CONTINUOUS
 10
429.997000
 20
260.000000
 11
429.997000
 21
255.000000
  0
LINE
  8
1
 62
7
  6
CONTINUOUS
 10
427.498600
 20
260.000000
 11
427.498600
 21
255.000000
  0
LINE
  8
1
 62
7
  6
CONTINUOUS
 10
426.249200
 20
260.000000
 11
426.249200
 21
255.000000
  0
LINE
  8
1
 62
7
  6
CONTINUOUS
 10
428.747800
 20
260.000000
 11
428.747800
 21
255.000000
  0
LINE
  8
1
 62
7
  6
CONTINUOUS
 10
431.246200
 20
260.000000
 11
431.246200
 21
255.000000
  0
LINE
  8
1
 62
7
  6
CONTINUOUS
 10
433.744600
 20
260.000000
 11
433.744600
 21
255.000000
  0
LINE
  8
1
 62
7
  6
CONTINUOUS
 10
416.255600
 20
260.000000
 11
416.255600
 21
255.000000
  0
LINE
  8
1
 62
7
  6
CONTINUOUS
 10
418.754000
 20
260.000000
 11
418.754000
 21
255.000000
  0
LINE
  8
1
 62
7
  6
CONTINUOUS
 10
421.252400
 20
260.000000
 11
421.252400
 21
255.000000
  0
LINE
  8
1
 62
7
  6
CONTINUOUS
 10
423.750800
 20
260.000000
 11
423.750800
 21
255.000000
  0
LINE
  8
1
 62
7
  6
CONTINUOUS
 10
414.000000
 20
250.000000
 11
406.000000
 21
250.000000
  0
LINE
  8
1
 62
7
  6
CONTINUOUS
 10
422.501600
 20
260.000000
 11
422.501600
 21
255.000000
  0
LINE
  8
1
 62
7
  6
CONTINUOUS
 10
420.003200
 20
260.000000
 11
420.003200
 21
255.000000
  0
LINE
  8
1
 62
7
  6
CONTINUOUS
 10
417.504800
 20
260.000000
 11
417.504800
 21
255.000000
  0
LINE
  8
1
 62
7
  6
CONTINUOUS
 10
415.006400
 20
260.000000
 11
415.006400
 21
255.000000
  0
LINE
  8
1
 62
7
  6
CONTINUOUS
 10
425.000000
 20
268.000000
 11
425.000000
 21
277.000000
  0
LINE
  8
1
 62
7
  6
CONTINUOUS
 10
425.000000
 20
246.540600
 11
425.000000
 21
255.000000
  0
LINE
  8
1
 62
7
  6
CONTINUOUS
 10
425.000000
 20
260.000000
 11
425.000000
 21
255.000000
  0
LINE
  8
1
 62
7
  6
CONTINUOUS
 10
458.948600
 20
174.000000
 11
450.448600
 21
174.000000
  0
LINE
  8
1
 62
7
  6
CONTINUOUS
 10
446.000000
 20
246.000000
 11
446.000000
 21
247.000000
  0
LINE
  8
1
 62
7
  6
CONTINUOUS
 10
450.448600
 20
174.000000
 11
450.948600
 21
174.500000
  0
LINE
  8
1
 62
7
  6
CONTINUOUS
 10
458.448600
 20
174.500000
 11
458.948600
 21
174.000000
  0
LINE
  8
1
 62
7
  6
CONTINUOUS
 10
399.551600
 20
174.000000
 11
399.051600
 21
174.500000
  0
LINE
  8
1
 62
7
  6
CONTINUOUS
 10
447.844200
 20
258.000000
 11
439.000000
 21
258.000000
  0
LINE
  8
1
 62
7
  6
CONTINUOUS
 10
391.051600
 20
174.000000
 11
391.551600
 21
174.500000
  0
LINE
  8
1
 62
7
  6
CONTINUOUS
 10
399.551600
 20
174.000000
 11
391.051600
 21
174.000000
  0
LINE
  8
1
 62
7
  6
CONTINUOUS
 10
415.000000
 20
246.471000
 11
415.000000
 21
249.000000
  0
LINE
  8
1
 62
7
  6
CONTINUOUS
 10
451.448600
 20
169.500000
 11
451.448600
 21
174.000000
  0
LINE
  8
1
 62
7
  6
CONTINUOUS
 10
451.000000
 20
241.000000
 11
451.000000
 21
246.000000
  0
LINE
  8
1
 62
7
  6
CONTINUOUS
 10
451.948600
 20
169.500000
 11
451.948600
 21
174.000000
  0
LINE
  8
1
 62
7
  6
CONTINUOUS
 10
452.448600
 20
169.500000
 11
452.448600
 21
174.000000
  0
LINE
  8
1
 62
7
  6
CONTINUOUS
 10
425.000000
 20
246.550000
 11
440.000000
 21
246.000000
  0
LINE
  8
1
 62
7
  6
CONTINUOUS
 10
452.948600
 20
169.500000
 11
452.948600
 21
174.000000
  0
LINE
  8
1
 62
7
  6
CONTINUOUS
 10
407.323000
 20
177.500000
 11
411.000000
 21
177.500000
  0
LINE
  8
1
 62
7
  6
CONTINUOUS
 10
408.000000
 20
225.500000
 11
411.000000
 21
225.500000
  0
LINE
  8
1
 62
7
  6
CONTINUOUS
 10
412.000000
 20
239.500000
 11
412.000000
 21
226.500000
  0
LINE
  8
1
 62
7
  6
CONTINUOUS
 10
453.448600
 20
169.500000
 11
453.448600
 21
174.000000
  0
LINE
  8
1
 62
7
  6
CONTINUOUS
 10
457.948600
 20
169.500000
 11
457.948600
 21
174.000000
  0
LINE
  8
1
 62
7
  6
CONTINUOUS
 10
457.448600
 20
169.500000
 11
457.448600
 21
174.000000
  0
LINE
  8
1
 62
7
  6
CONTINUOUS
 10
407.000000
 20
245.000000
 11
407.000000
 21
177.446400
  0
LINE
  8
1
 62
7
  6
CONTINUOUS
 10
456.948600
 20
169.500000
 11
456.948600
 21
174.000000
  0
LINE
  8
1
 62
7
  6
CONTINUOUS
 10
451.000000
 20
246.000000
 11
451.000000
 21
255.000000
  0
LINE
  8
1
 62
7
  6
CONTINUOUS
 10
399.551600
 20
172.000000
 11
404.000000
 21
172.000000
  0
LINE
  8
1
 62
7
  6
CONTINUOUS
 10
453.948600
 20
169.500000
 11
453.948600
 21
174.000000
  0
LINE
  8
1
 62
7
  6
CONTINUOUS
 10
458.948600
 20
169.500000
 11
458.948600
 21
174.000000
  0
LINE
  8
1
 62
7
  6
CONTINUOUS
 10
458.448600
 20
169.500000
 11
458.448600
 21
174.000000
  0
LINE
  8
1
 62
7
  6
CONTINUOUS
 10
450.000000
 20
240.000000
 11
444.000000
 21
240.000000
  0
LINE
  8
1
 62
7
  6
CONTINUOUS
 10
443.750000
 20
246.000000
 11
411.668400
 21
246.000000
  0
LINE
  8
1
 62
7
  6
CONTINUOUS
 10
412.000000
 20
178.500000
 11
412.000000
 21
191.500000
  0
LINE
  8
1
 62
7
  6
CONTINUOUS
 10
451.000000
 20
246.000000
 11
436.499200
 21
246.000000
  0
LINE
  8
1
 62
7
  6
CONTINUOUS
 10
410.000000
 20
246.431600
 11
425.000000
 21
246.550000
  0
LINE
  8
1
 62
7
  6
CONTINUOUS
 10
408.000000
 20
192.500000
 11
411.000000
 21
192.500000
  0
LINE
  8
1
 62
7
  6
CONTINUOUS
 10
459.000000
 20
169.500000
 11
430.000000
 21
169.500000
  0
LINE
  8
1
 62
7
  6
CONTINUOUS
 10
405.000000
 20
170.500000
 11
405.000000
 21
171.000000
  0
LINE
  8
1
 62
7
  6
CONTINUOUS
 10
445.000000
 20
171.500000
 11
445.000000
 21
182.000000
  0
LINE
  8
1
 62
7
  6
CONTINUOUS
 10
443.000000
 20
198.108400
 11
443.000000
 21
246.000000
  0
LINE
  8
1
 62
7
  6
CONTINUOUS
 10
431.000000
 20
280.000000
 11
419.000000
 21
280.000000
  0
LINE
  8
1
 62
7
  6
CONTINUOUS
 10
411.000000
 20
258.000000
 11
409.000000
 21
258.000000
  0
LINE
  8
1
 62
7
  6
CONTINUOUS
 10
448.000000
 20
258.000000
 11
447.378600
 21
258.000000
  0
LINE
  8
1
 62
7
  6
CONTINUOUS
 10
406.000000
 20
246.400000
 11
406.000000
 21
255.000000
  0
LINE
  8
1
 62
7
  6
CONTINUOUS
 10
415.000000
 20
262.000000
 11
415.000000
 21
276.000000
  0
LINE
  8
1
 62
7
  6
CONTINUOUS
 10
435.000000
 20
262.000000
 11
435.000000
 21
276.000000
  0
LINE
  8
1
 62
7
  6
CONTINUOUS
 10
389.000000
 20
175.000000
 11
389.000000
 21
174.000000
  0
CIRCLE
  8
1
 62
7
  6
CONTINUOUS
 10
168.000000
 20
80.000000
 40
28.200000
  0
ARC
  8
1
 62
7
  6
CONTINUOUS
 10
231.000000
 20
44.618800
 40
8.000000
 50
-60.000000
 51
0.000000
  0
ARC
  8
1
 62
7
  6
CONTINUOUS
 10
202.500000
 20
102.000000
 40
8.000000
 50
0.000000
 51
90.000000
  0
ARC
  8
1
 62
7
  6
CONTINUOUS
 10
168.000000
 20
80.000000
 40
45.000000
 50
-90.000000
 51
-41.810300
  0
ARC
  8
1
 62
7
  6
CONTINUOUS
 10
202.500000
 20
58.000000
 40
8.000000
 50
-90.000000
 51
0.000000
  0
ARC
  8
1
 62
7
  6
CONTINUOUS
 10
228.196200
 20
43.000000
 40
8.000000
 50
-90.000000
 51
-60.000000
  0
ARC
  8
1
 62
7
  6
CONTINUOUS
 10
168.000000
 20
80.000000
 40
45.000000
 50
41.810300
 51
90.000000
  0
ARC
  8
1
 62
7
  6
CONTINUOUS
 10
105.000000
 20
44.618800
 40
8.000000
 50
180.000000
 51
-120.000000
  0
CIRCLE
  8
1
 62
7
  6
CONTINUOUS
 10
168.000000
 20
80.000000
 40
29.800000
  0
ARC
  8
1
 62
7
  6
CONTINUOUS
 10
133.500000
 20
102.000000
 40
8.000000
 50
90.000000
 51
-180.000000
  0
ARC
  8
1
 62
7
  6
CONTINUOUS
 10
168.000000
 20
80.000000
 40
45.000000
 50
-138.189700
 51
-90.000000
  0
ARC
  8
1
 62
7
  6
CONTINUOUS
 10
133.500000
 20
58.000000
 40
8.000000
 50
-180.000000
 51
-90.000000
  0
ARC
  8
1
 62
7
  6
CONTINUOUS
 10
107.804000
 20
43.000000
 40
8.000000
 50
-120.000000
 51
-90.000000
  0
ARC
  8
1
 62
7
  6
CONTINUOUS
 10
168.000000
 20
80.000000
 40
45.000000
 50
90.000000
 51
138.189700
  0
ARC
  8
1
 62
7
  6
CONTINUOUS
 10
135.000000
 20
176.000000
 40
4.000000
 50
-180.000000
 51
-90.000000
  0
ARC
  8
1
 62
7
  6
CONTINUOUS
 10
191.000000
 20
171.500000
 40
2.000000
 50
180.000000
 51
-90.000000
  0
ARC
  8
1
 62
7
  6
CONTINUOUS
 10
201.000000
 20
176.000000
 40
4.000000
 50
-90.000000
 51
0.000000
  0
ARC
  8
1
 62
7
  6
CONTINUOUS
 10
135.000000
 20
242.000000
 40
4.000000
 50
90.000000
 51
-180.000000
  0
ARC
  8
1
 62
7
  6
CONTINUOUS
 10
201.000000
 20
242.000000
 40
4.000000
 50
0.000000
 51
90.000000
  0
ARC
  8
1
 62
7
  6
CONTINUOUS
 10
136.500000
 20
174.500000
 40
1.000000
 50
90.000000
 51
180.000000
  0
ARC
  8
1
 62
7
  6
CONTINUOUS
 10
133.500000
 20
177.500000
 40
1.000000
 50
-90.000000
 51
0.000000
  0
CIRCLE
  8
1
 62
7
  6
CONTINUOUS
 10
135.000000
 20
176.000000
 40
4.000000
  0
ARC
  8
1
 62
7
  6
CONTINUOUS
 10
133.500000
 20
174.500000
 40
1.000000
 50
34.288000
 51
90.000000
  0
ARC
  8
1
 62
7
  6
CONTINUOUS
 10
133.500000
 20
174.500000
 40
1.000000
 50
0.000000
 51
30.431000
  0
ARC
  8
1
 62
7
  6
CONTINUOUS
 10
136.500000
 20
177.500000
 40
1.000000
 50
180.000000
 51
-90.000000
  0
ARC
  8
1
 62
7
  6
CONTINUOUS
 10
202.500000
 20
243.500000
 40
1.000000
 50
180.000000
 51
-90.000000
  0
ARC
  8
1
 62
7
  6
CONTINUOUS
 10
199.500000
 20
240.500000
 40
1.000000
 50
0.000000
 51
30.431000
  0
ARC
  8
1
 62
7
  6
CONTINUOUS
 10
199.500000
 20
240.500000
 40
1.000000
 50
34.288000
 51
90.000000
  0
CIRCLE
  8
1
 62
7
  6
CONTINUOUS
 10
201.000000
 20
242.000000
 40
4.000000
  0
ARC
  8
1
 62
7
  6
CONTINUOUS
 10
199.500000
 20
243.500000
 40
1.000000
 50
-90.000000
 51
0.000000
  0
ARC
  8
1
 62
7
  6
CONTINUOUS
 10
202.500000
 20
240.500000
 40
1.000000
 50
90.000000
 51
180.000000
  0
ARC
  8
1
 62
7
  6
CONTINUOUS
 10
201.000000
 20
176.000000
 40
4.000000
 50
-90.000000
 51
0.000000
  0
ARC
  8
1
 62
7
  6
CONTINUOUS
 10
201.000000
 20
242.000000
 40
4.000000
 50
0.000000
 51
90.000000
  0
ARC
  8
1
 62
7
  6
CONTINUOUS
 10
133.500000
 20
243.500000
 40
1.000000
 50
-90.000000
 51
0.000000
  0
ARC
  8
1
 62
7
  6
CONTINUOUS
 10
202.500000
 20
174.500000
 40
1.000000
 50
90.000000
 51
180.000000
  0
ARC
  8
1
 62
7
  6
CONTINUOUS
 10
199.500000
 20
177.500000
 40
1.000000
 50
-90.000000
 51
0.000000
  0
CIRCLE
  8
1
 62
7
  6
CONTINUOUS
 10
201.000000
 20
176.000000
 40
4.000000
  0
ARC
  8
1
 62
7
  6
CONTINUOUS
 10
199.500000
 20
174.500000
 40
1.000000
 50
34.288000
 51
90.000000
  0
ARC
  8
1
 62
7
  6
CONTINUOUS
 10
133.500000
 20
240.500000
 40
1.000000
 50
34.288000
 51
90.000000
  0
ARC
  8
1
 62
7
  6
CONTINUOUS
 10
119.000000
 20
179.145600
 40
1.000000
 50
180.000000
 51
-90.000000
  0
ARC
  8
1
 62
7
  6
CONTINUOUS
 10
130.000000
 20
177.145600
 40
1.000000
 50
0.000000
 51
90.000000
  0
ARC
  8
1
 62
7
  6
CONTINUOUS
 10
119.000000
 20
203.145600
 40
1.000000
 50
90.000000
 51
180.000000
  0
ARC
  8
1
 62
7
  6
CONTINUOUS
 10
130.000000
 20
205.145600
 40
1.000000
 50
-90.000000
 51
0.000000
  0
ARC
  8
1
 62
7
  6
CONTINUOUS
 10
136.500000
 20
240.500000
 40
1.000000
 50
90.000000
 51
180.000000
  0
CIRCLE
  8
1
 62
7
  6
CONTINUOUS
 10
135.000000
 20
242.000000
 40
4.000000
  0
ARC
  8
1
 62
7
  6
CONTINUOUS
 10
135.000000
 20
242.000000
 40
4.000000
 50
90.000000
 51
-180.000000
  0
ARC
  8
1
 62
7
  6
CONTINUOUS
 10
199.500000
 20
174.500000
 40
1.000000
 50
0.000000
 51
30.431000
  0
ARC
  8
1
 62
7
  6
CONTINUOUS
 10
133.500000
 20
240.500000
 40
1.000000
 50
0.000000
 51
30.431000
  0
ARC
  8
1
 62
7
  6
CONTINUOUS
 10
135.000000
 20
176.000000
 40
4.000000
 50
-180.000000
 51
-90.000000
  0
ARC
  8
1
 62
7
  6
CONTINUOUS
 10
136.500000
 20
243.500000
 40
1.000000
 50
180.000000
 51
-90.000000
  0
ARC
  8
1
 62
7
  6
CONTINUOUS
 10
145.000000
 20
171.500000
 40
2.000000
 50
-90.000000
 51
0.000000
  0
ARC
  8
1
 62
7
  6
CONTINUOUS
 10
184.000000
 20
255.000000
 40
3.000000
 50
0.000000
 51
90.000000
  0
ARC
  8
1
 62
7
  6
CONTINUOUS
 10
174.000000
 20
276.000000
 40
4.000000
 50
0.000000
 51
90.000000
  0
ARC
  8
1
 62
7
  6
CONTINUOUS
 10
162.000000
 20
276.000000
 40
4.000000
 50
90.000000
 51
-180.000000
  0
ARC
  8
1
 62
7
  6
CONTINUOUS
 10
152.000000
 20
255.000000
 40
3.000000
 50
90.000000
 51
180.000000
  0
ARC
  8
1
 62
7
  6
CONTINUOUS
 10
154.000000
 20
262.000000
 40
4.000000
 50
-90.000000
 51
0.000000
  0
ARC
  8
1
 62
7
  6
CONTINUOUS
 10
182.000000
 20
262.000000
 40
4.000000
 50
-180.000000
 51
-90.000000
  0
ARC
  8
1
 62
7
  6
CONTINUOUS
 10
157.000000
 20
249.000000
 40
1.000000
 50
0.000000
 51
90.000000
  0
ARC
  8
1
 62
7
  6
CONTINUOUS
 10
179.000000
 20
249.000000
 40
1.000000
 50
90.000000
 51
180.000000
  0
ARC
  8
1
 62
7
  6
CONTINUOUS
 10
202.500000
 20
177.500000
 40
1.000000
 50
180.000000
 51
-90.000000
  0
ARC
  8
1
 62
7
  6
CONTINUOUS
 10
116.553200
 20
200.112200
 40
4.657600
 50
179.923700
 51
-139.584000
  0
ARC
  8
1
 62
7
  6
CONTINUOUS
 10
102.192400
 20
189.126400
 40
2.305000
 50
124.439500
 51
-124.526300
  0
ARC
  8
1
 62
7
  6
CONTINUOUS
 10
99.585200
 20
192.928400
 40
2.305000
 50
-55.560500
 51
55.473700
  0
ARC
  8
1
 62
7
  6
CONTINUOUS
 10
102.195200
 20
192.926400
 40
2.305000
 50
124.439500
 51
-124.526300
  0
ARC
  8
1
 62
7
  6
CONTINUOUS
 10
129.076200
 20
191.018200
 40
17.187600
 50
159.303600
 51
-159.303600
  0
ARC
  8
1
 62
7
  6
CONTINUOUS
 10
116.539400
 20
181.919000
 40
4.657600
 50
139.497200
 51
179.989600
  0
LINE
  8
1
 62
7
  6
CONTINUOUS
 10
97.000000
 20
164.000000
 11
239.000000
 21
164.000000
  0
LINE
  8
1
 62
7
  6
CONTINUOUS
 10
140.500000
 20
170.400000
 11
130.500000
 21
170.400000
  0
LINE
  8
1
 62
7
  6
CONTINUOUS
 10
205.500000
 20
170.400000
 11
195.500000
 21
170.400000
  0
LINE
  8
1
 62
7
  6
CONTINUOUS
 10
98.000000
 20
170.400000
 11
98.600000
 21
171.000000
  0
LINE
  8
1
 62
7
  6
CONTINUOUS
 10
108.000000
 20
170.400000
 11
107.400000
 21
171.000000
  0
LINE
  8
1
 62
7
  6
CONTINUOUS
 10
130.500000
 20
170.400000
 11
131.100000
 21
171.000000
  0
LINE
  8
1
 62
7
  6
CONTINUOUS
 10
140.500000
 20
170.400000
 11
139.900000
 21
171.000000
  0
LINE
  8
1
 62
7
  6
CONTINUOUS
 10
134.250000
 20
165.000000
 11
134.250000
 21
170.400000
  0
LINE
  8
1
 62
7
  6
CONTINUOUS
 10
130.500000
 20
165.000000
 11
130.500000
 21
170.400000
  0
LINE
  8
1
 62
7
  6
CONTINUOUS
 10
132.375000
 20
165.000000
 11
132.375000
 21
170.400000
  0
LINE
  8
1
 62
7
  6
CONTINUOUS
 10
133.625000
 20
165.000000
 11
133.625000
 21
170.400000
  0
LINE
  8
1
 62
7
  6
CONTINUOUS
 10
131.125000
 20
165.000000
 11
131.125000
 21
170.400000
  0
LINE
  8
1
 62
7
  6
CONTINUOUS
 10
139.900000
 20
171.000000
 11
131.100000
 21
171.000000
  0
LINE
  8
1
 62
7
  6
CONTINUOUS
 10
138.000000
 20
165.000000
 11
138.000000
 21
170.400000
  0
LINE
  8
1
 62
7
  6
CONTINUOUS
 10
134.875000
 20
165.000000
 11
134.875000
 21
170.400000
  0
LINE
  8
1
 62
7
  6
CONTINUOUS
 10
139.875000
 20
165.000000
 11
139.875000
 21
170.400000
  0
LINE
  8
1
 62
7
  6
CONTINUOUS
 10
137.375000
 20
165.000000
 11
137.375000
 21
170.400000
  0
LINE
  8
1
 62
7
  6
CONTINUOUS
 10
138.625000
 20
165.000000
 11
138.625000
 21
170.400000
  0
LINE
  8
1
 62
7
  6
CONTINUOUS
 10
136.125000
 20
165.000000
 11
136.125000
 21
170.400000
  0
LINE
  8
1
 62
7
  6
CONTINUOUS
 10
131.750000
 20
165.000000
 11
131.750000
 21
170.400000
  0
LINE
  8
1
 62
7
  6
CONTINUOUS
 10
136.750000
 20
165.000000
 11
136.750000
 21
170.400000
  0
LINE
  8
1
 62
7
  6
CONTINUOUS
 10
139.250000
 20
165.000000
 11
139.250000
 21
170.400000
  0
LINE
  8
1
 62
7
  6
CONTINUOUS
 10
140.500000
 20
165.000000
 11
140.500000
 21
170.400000
  0
LINE
  8
1
 62
7
  6
CONTINUOUS
 10
135.500000
 20
165.000000
 11
135.500000
 21
170.400000
  0
LINE
  8
1
 62
7
  6
CONTINUOUS
 10
205.500000
 20
170.400000
 11
204.900000
 21
171.000000
  0
LINE
  8
1
 62
7
  6
CONTINUOUS
 10
195.500000
 20
170.400000
 11
196.100000
 21
171.000000
  0
LINE
  8
1
 62
7
  6
CONTINUOUS
 10
238.000000
 20
170.400000
 11
237.400000
 21
171.000000
  0
LINE
  8
1
 62
7
  6
CONTINUOUS
 10
238.000000
 20
170.400000
 11
228.000000
 21
170.400000
  0
LINE
  8
1
 62
7
  6
CONTINUOUS
 10
108.000000
 20
170.400000
 11
98.000000
 21
170.400000
  0
LINE
  8
1
 62
7
  6
CONTINUOUS
 10
195.500000
 20
165.000000
 11
195.500000
 21
170.400000
  0
LINE
  8
1
 62
7
  6
CONTINUOUS
 10
205.500000
 20
165.000000
 11
205.500000
 21
170.400000
  0
LINE
  8
1
 62
7
  6
CONTINUOUS
 10
204.900000
 20
171.000000
 11
196.100000
 21
171.000000
  0
LINE
  8
1
 62
7
  6
CONTINUOUS
 10
198.000000
 20
165.000000
 11
198.000000
 21
170.400000
  0
LINE
  8
1
 62
7
  6
CONTINUOUS
 10
196.750000
 20
165.000000
 11
196.750000
 21
170.400000
  0
LINE
  8
1
 62
7
  6
CONTINUOUS
 10
199.250000
 20
165.000000
 11
199.250000
 21
170.400000
  0
LINE
  8
1
 62
7
  6
CONTINUOUS
 10
198.625000
 20
165.000000
 11
198.625000
 21
170.400000
  0
LINE
  8
1
 62
7
  6
CONTINUOUS
 10
197.375000
 20
165.000000
 11
197.375000
 21
170.400000
  0
LINE
  8
1
 62
7
  6
CONTINUOUS
 10
202.375000
 20
165.000000
 11
202.375000
 21
170.400000
  0
LINE
  8
1
 62
7
  6
CONTINUOUS
 10
203.625000
 20
165.000000
 11
203.625000
 21
170.400000
  0
LINE
  8
1
 62
7
  6
CONTINUOUS
 10
204.875000
 20
165.000000
 11
204.875000
 21
170.400000
  0
LINE
  8
1
 62
7
  6
CONTINUOUS
 10
204.250000
 20
165.000000
 11
204.250000
 21
170.400000
  0
LINE
  8
1
 62
7
  6
CONTINUOUS
 10
201.750000
 20
165.000000
 11
201.750000
 21
170.400000
  0
LINE
  8
1
 62
7
  6
CONTINUOUS
 10
200.500000
 20
165.000000
 11
200.500000
 21
170.400000
  0
LINE
  8
1
 62
7
  6
CONTINUOUS
 10
201.125000
 20
165.000000
 11
201.125000
 21
170.400000
  0
LINE
  8
1
 62
7
  6
CONTINUOUS
 10
199.875000
 20
165.000000
 11
199.875000
 21
170.400000
  0
LINE
  8
1
 62
7
  6
CONTINUOUS
 10
196.125000
 20
165.000000
 11
196.125000
 21
170.400000
  0
LINE
  8
1
 62
7
  6
CONTINUOUS
 10
98.000000
 20
165.000000
 11
98.000000
 21
170.400000
  0
LINE
  8
1
 62
7
  6
CONTINUOUS
 10
108.000000
 20
165.000000
 11
108.000000
 21
170.400000
  0
LINE
  8
1
 62
7
  6
CONTINUOUS
 10
107.400000
 20
171.000000
 11
98.600000
 21
171.000000
  0
LINE
  8
1
 62
7
  6
CONTINUOUS
 10
100.500000
 20
165.000000
 11
100.500000
 21
170.400000
  0
LINE
  8
1
 62
7
  6
CONTINUOUS
 10
99.250000
 20
165.000000
 11
99.250000
 21
170.400000
  0
LINE
  8
1
 62
7
  6
CONTINUOUS
 10
101.750000
 20
165.000000
 11
101.750000
 21
170.400000
  0
LINE
  8
1
 62
7
  6
CONTINUOUS
 10
101.125000
 20
165.000000
 11
101.125000
 21
170.400000
  0
LINE
  8
1
 62
7
  6
CONTINUOUS
 10
99.875000
 20
165.000000
 11
99.875000
 21
170.400000
  0
LINE
  8
1
 62
7
  6
CONTINUOUS
 10
228.000000
 20
165.000000
 11
228.000000
 21
170.400000
  0
LINE
  8
1
 62
7
  6
CONTINUOUS
 10
238.000000
 20
165.000000
 11
238.000000
 21
170.400000
  0
LINE
  8
1
 62
7
  6
CONTINUOUS
 10
104.875000
 20
165.000000
 11
104.875000
 21
170.400000
  0
LINE
  8
1
 62
7
  6
CONTINUOUS
 10
237.400000
 20
171.000000
 11
228.600000
 21
171.000000
  0
LINE
  8
1
 62
7
  6
CONTINUOUS
 10
230.500000
 20
165.000000
 11
230.500000
 21
170.400000
  0
LINE
  8
1
 62
7
  6
CONTINUOUS
 10
229.250000
 20
165.000000
 11
229.250000
 21
170.400000
  0
LINE
  8
1
 62
7
  6
CONTINUOUS
 10
231.750000
 20
165.000000
 11
231.750000
 21
170.400000
  0
LINE
  8
1
 62
7
  6
CONTINUOUS
 10
231.125000
 20
165.000000
 11
231.125000
 21
170.400000
  0
LINE
  8
1
 62
7
  6
CONTINUOUS
 10
229.875000
 20
165.000000
 11
229.875000
 21
170.400000
  0
LINE
  8
1
 62
7
  6
CONTINUOUS
 10
228.625000
 20
165.000000
 11
228.625000
 21
170.400000
  0
LINE
  8
1
 62
7
  6
CONTINUOUS
 10
106.125000
 20
165.000000
 11
106.125000
 21
170.400000
  0
LINE
  8
1
 62
7
  6
CONTINUOUS
 10
107.375000
 20
165.000000
 11
107.375000
 21
170.400000
  0
LINE
  8
1
 62
7
  6
CONTINUOUS
 10
232.375000
 20
165.000000
 11
232.375000
 21
170.400000
  0
LINE
  8
1
 62
7
  6
CONTINUOUS
 10
235.500000
 20
165.000000
 11
235.500000
 21
170.400000
  0
LINE
  8
1
 62
7
  6
CONTINUOUS
 10
106.750000
 20
165.000000
 11
106.750000
 21
170.400000
  0
LINE
  8
1
 62
7
  6
CONTINUOUS
 10
234.250000
 20
165.000000
 11
234.250000
 21
170.400000
  0
LINE
  8
1
 62
7
  6
CONTINUOUS
 10
236.750000
 20
165.000000
 11
236.750000
 21
170.400000
  0
LINE
  8
1
 62
7
  6
CONTINUOUS
 10
237.375000
 20
165.000000
 11
237.375000
 21
170.400000
  0
LINE
  8
1
 62
7
  6
CONTINUOUS
 10
236.125000
 20
165.000000
 11
236.125000
 21
170.400000
  0
LINE
  8
1
 62
7
  6
CONTINUOUS
 10
234.875000
 20
165.000000
 11
234.875000
 21
170.400000
  0
LINE
  8
1
 62
7
  6
CONTINUOUS
 10
233.625000
 20
165.000000
 11
233.625000
 21
170.400000
  0
LINE
  8
1
 62
7
  6
CONTINUOUS
 10
233.000000
 20
165.000000
 11
233.000000
 21
170.400000
  0
LINE
  8
1
 62
7
  6
CONTINUOUS
 10
171.747800
 20
260.000000
 11
171.747800
 21
255.000000
  0
LINE
  8
1
 62
7
  6
CONTINUOUS
 10
104.250000
 20
165.000000
 11
104.250000
 21
170.400000
  0
LINE
  8
1
 62
7
  6
CONTINUOUS
 10
103.000000
 20
165.000000
 11
103.000000
 21
170.400000
  0
LINE
  8
1
 62
7
  6
CONTINUOUS
 10
103.625000
 20
165.000000
 11
103.625000
 21
170.400000
  0
LINE
  8
1
 62
7
  6
CONTINUOUS
 10
169.249200
 20
260.000000
 11
169.249200
 21
255.000000
  0
LINE
  8
1
 62
7
  6
CONTINUOUS
 10
170.498600
 20
260.000000
 11
170.498600
 21
255.000000
  0
LINE
  8
1
 62
7
  6
CONTINUOUS
 10
172.997000
 20
260.000000
 11
172.997000
 21
255.000000
  0
LINE
  8
1
 62
7
  6
CONTINUOUS
 10
175.495400
 20
260.000000
 11
175.495400
 21
255.000000
  0
LINE
  8
1
 62
7
  6
CONTINUOUS
 10
177.993800
 20
260.000000
 11
177.993800
 21
255.000000
  0
LINE
  8
1
 62
7
  6
CONTINUOUS
 10
187.000000
 20
247.000000
 11
187.000000
 21
255.000000
  0
LINE
  8
1
 62
7
  6
CONTINUOUS
 10
176.312600
 20
246.400000
 11
176.312600
 21
255.000000
  0
LINE
  8
1
 62
7
  6
CONTINUOUS
 10
228.000000
 20
170.400000
 11
228.600000
 21
171.000000
  0
LINE
  8
1
 62
7
  6
CONTINUOUS
 10
235.000000
 20
37.690600
 11
232.196200
 21
36.071800
  0
LINE
  8
1
 62
7
  6
CONTINUOUS
 10
168.000000
 20
35.000000
 11
228.196200
 21
35.000000
  0
LINE
  8
1
 62
7
  6
CONTINUOUS
 10
210.500000
 20
102.000000
 11
210.500000
 21
58.000000
  0
LINE
  8
1
 62
7
  6
CONTINUOUS
 10
201.541000
 20
50.000000
 11
202.500000
 21
50.000000
  0
LINE
  8
1
 62
7
  6
CONTINUOUS
 10
239.000000
 20
44.618800
 11
239.000000
 21
164.000000
  0
LINE
  8
1
 62
7
  6
CONTINUOUS
 10
239.000000
 20
164.000000
 11
238.000000
 21
165.000000
  0
LINE
  8
1
 62
7
  6
CONTINUOUS
 10
201.541000
 20
110.000000
 11
202.500000
 21
110.000000
  0
LINE
  8
1
 62
7
  6
CONTINUOUS
 10
168.000000
 20
165.000000
 11
238.000000
 21
165.000000
  0
LINE
  8
1
 62
7
  6
CONTINUOUS
 10
101.000000
 20
37.690600
 11
103.804000
 21
36.071800
  0
LINE
  8
1
 62
7
  6
CONTINUOUS
 10
168.000000
 20
155.000000
 11
239.000000
 21
155.000000
  0
LINE
  8
1
 62
7
  6
CONTINUOUS
 10
168.000000
 20
35.000000
 11
107.804000
 21
35.000000
  0
LINE
  8
1
 62
7
  6
CONTINUOUS
 10
125.500000
 20
102.000000
 11
125.500000
 21
58.000000
  0
LINE
  8
1
 62
7
  6
CONTINUOUS
 10
134.459000
 20
50.000000
 11
133.500000
 21
50.000000
  0
LINE
  8
1
 62
7
  6
CONTINUOUS
 10
97.000000
 20
44.618800
 11
97.000000
 21
164.000000
  0
LINE
  8
1
 62
7
  6
CONTINUOUS
 10
97.000000
 20
164.000000
 11
98.000000
 21
165.000000
  0
LINE
  8
1
 62
7
  6
CONTINUOUS
 10
105.500000
 20
165.000000
 11
105.500000
 21
170.400000
  0
LINE
  8
1
 62
7
  6
CONTINUOUS
 10
102.375000
 20
165.000000
 11
102.375000
 21
170.400000
  0
LINE
  8
1
 62
7
  6
CONTINUOUS
 10
98.625000
 20
165.000000
 11
98.625000
 21
170.400000
  0
LINE
  8
1
 62
7
  6
CONTINUOUS
 10
175.125000
 20
246.400000
 11
175.125000
 21
255.000000
  0
LINE
  8
1
 62
7
  6
CONTINUOUS
 10
185.812600
 20
250.000000
 11
185.812600
 21
255.000000
  0
LINE
  8
1
 62
7
  6
CONTINUOUS
 10
178.687600
 20
249.950000
 11
178.687600
 21
255.000000
  0
LINE
  8
1
 62
7
  6
CONTINUOUS
 10
179.875000
 20
250.000000
 11
179.875000
 21
255.000000
  0
LINE
  8
1
 62
7
  6
CONTINUOUS
 10
184.625000
 20
250.000000
 11
184.625000
 21
255.000000
  0
LINE
  8
1
 62
7
  6
CONTINUOUS
 10
173.000000
 20
268.000000
 11
173.000000
 21
277.000000
  0
LINE
  8
1
 62
7
  6
CONTINUOUS
 10
181.062600
 20
250.000000
 11
181.062600
 21
255.000000
  0
LINE
  8
1
 62
7
  6
CONTINUOUS
 10
182.250000
 20
250.000000
 11
182.250000
 21
255.000000
  0
LINE
  8
1
 62
7
  6
CONTINUOUS
 10
172.750000
 20
246.400000
 11
172.750000
 21
255.000000
  0
LINE
  8
1
 62
7
  6
CONTINUOUS
 10
177.500000
 20
246.400000
 11
177.500000
 21
255.000000
  0
LINE
  8
1
 62
7
  6
CONTINUOUS
 10
173.937600
 20
246.400000
 11
173.937600
 21
255.000000
  0
LINE
  8
1
 62
7
  6
CONTINUOUS
 10
183.437600
 20
250.000000
 11
183.437600
 21
255.000000
  0
LINE
  8
1
 62
7
  6
CONTINUOUS
 10
169.187600
 20
246.400000
 11
169.187600
 21
255.000000
  0
LINE
  8
1
 62
7
  6
CONTINUOUS
 10
170.375000
 20
246.400000
 11
170.375000
 21
255.000000
  0
LINE
  8
1
 62
7
  6
CONTINUOUS
 10
171.562600
 20
246.400000
 11
171.562600
 21
255.000000
  0
LINE
  8
1
 62
7
  6
CONTINUOUS
 10
187.000000
 20
255.000000
 11
149.000000
 21
255.000000
  0
LINE
  8
1
 62
7
  6
CONTINUOUS
 10
169.250000
 20
268.000000
 11
169.250000
 21
277.000000
  0
LINE
  8
1
 62
7
  6
CONTINUOUS
 10
171.750000
 20
268.000000
 11
171.750000
 21
277.000000
  0
LINE
  8
1
 62
7
  6
CONTINUOUS
 10
174.250000
 20
268.000000
 11
174.250000
 21
277.000000
  0
LINE
  8
1
 62
7
  6
CONTINUOUS
 10
170.500000
 20
268.000000
 11
170.500000
 21
277.000000
  0
LINE
  8
1
 62
7
  6
CONTINUOUS
 10
176.750000
 20
268.000000
 11
176.750000
 21
277.000000
  0
LINE
  8
1
 62
7
  6
CONTINUOUS
 10
166.750000
 20
268.000000
 11
166.750000
 21
277.000000
  0
LINE
  8
1
 62
7
  6
CONTINUOUS
 10
165.500000
 20
268.000000
 11
165.500000
 21
277.000000
  0
LINE
  8
1
 62
7
  6
CONTINUOUS
 10
164.250000
 20
268.000000
 11
164.250000
 21
277.000000
  0
LINE
  8
1
 62
7
  6
CONTINUOUS
 10
161.750000
 20
268.000000
 11
161.750000
 21
276.913000
  0
LINE
  8
1
 62
7
  6
CONTINUOUS
 10
159.250000
 20
268.000000
 11
159.250000
 21
276.913000
  0
LINE
  8
1
 62
7
  6
CONTINUOUS
 10
160.500000
 20
268.000000
 11
160.500000
 21
276.913000
  0
LINE
  8
1
 62
7
  6
CONTINUOUS
 10
163.000000
 20
268.000000
 11
163.000000
 21
276.913000
  0
LINE
  8
1
 62
7
  6
CONTINUOUS
 10
159.687600
 20
246.400000
 11
159.687600
 21
255.000000
  0
LINE
  8
1
 62
7
  6
CONTINUOUS
 10
160.875000
 20
246.400000
 11
160.875000
 21
255.000000
  0
LINE
  8
1
 62
7
  6
CONTINUOUS
 10
150.187600
 20
250.000000
 11
150.187600
 21
255.000000
  0
LINE
  8
1
 62
7
  6
CONTINUOUS
 10
156.125000
 20
250.000000
 11
156.125000
 21
255.000000
  0
LINE
  8
1
 62
7
  6
CONTINUOUS
 10
151.375000
 20
250.000000
 11
151.375000
 21
255.000000
  0
LINE
  8
1
 62
7
  6
CONTINUOUS
 10
154.937600
 20
250.000000
 11
154.937600
 21
255.000000
  0
LINE
  8
1
 62
7
  6
CONTINUOUS
 10
153.750000
 20
250.000000
 11
153.750000
 21
255.000000
  0
LINE
  8
1
 62
7
  6
CONTINUOUS
 10
158.500000
 20
246.400000
 11
158.500000
 21
255.000000
  0
LINE
  8
1
 62
7
  6
CONTINUOUS
 10
178.369600
 20
260.000000
 11
157.654800
 21
260.000000
  0
LINE
  8
1
 62
7
  6
CONTINUOUS
 10
175.500000
 20
268.000000
 11
175.500000
 21
277.000000
  0
LINE
  8
1
 62
7
  6
CONTINUOUS
 10
162.062600
 20
246.400000
 11
162.062600
 21
255.000000
  0
LINE
  8
1
 62
7
  6
CONTINUOUS
 10
178.008000
 20
268.000000
 11
158.000000
 21
268.000000
  0
LINE
  8
1
 62
7
  6
CONTINUOUS
 10
177.873000
 20
277.000000
 11
158.127000
 21
277.000000
  0
LINE
  8
1
 62
7
  6
CONTINUOUS
 10
166.812600
 20
246.400000
 11
166.812600
 21
255.000000
  0
LINE
  8
1
 62
7
  6
CONTINUOUS
 10
157.312600
 20
249.950000
 11
157.312600
 21
255.000000
  0
LINE
  8
1
 62
7
  6
CONTINUOUS
 10
165.625000
 20
246.400000
 11
165.625000
 21
255.000000
  0
LINE
  8
1
 62
7
  6
CONTINUOUS
 10
163.250000
 20
246.400000
 11
163.250000
 21
255.000000
  0
LINE
  8
1
 62
7
  6
CONTINUOUS
 10
152.562600
 20
250.000000
 11
152.562600
 21
255.000000
  0
LINE
  8
1
 62
7
  6
CONTINUOUS
 10
147.000000
 20
172.000000
 11
147.000000
 21
171.500000
  0
LINE
  8
1
 62
7
  6
CONTINUOUS
 10
189.000000
 20
172.000000
 11
189.000000
 21
171.500000
  0
LINE
  8
1
 62
7
  6
CONTINUOUS
 10
193.448600
 20
169.500000
 11
193.448600
 21
172.000000
  0
LINE
  8
1
 62
7
  6
CONTINUOUS
 10
131.000000
 20
242.000000
 11
131.000000
 21
176.000000
  0
LINE
  8
1
 62
7
  6
CONTINUOUS
 10
135.000000
 20
172.000000
 11
201.000000
 21
172.000000
  0
LINE
  8
1
 62
7
  6
CONTINUOUS
 10
135.000000
 20
246.000000
 11
201.000000
 21
246.000000
  0
LINE
  8
1
 62
7
  6
CONTINUOUS
 10
205.000000
 20
242.000000
 11
205.000000
 21
176.000000
  0
LINE
  8
1
 62
7
  6
CONTINUOUS
 10
131.000000
 20
242.000000
 11
131.000000
 21
187.200000
  0
LINE
  8
1
 62
7
  6
CONTINUOUS
 10
137.200000
 20
175.500000
 11
136.500000
 21
175.500000
  0
LINE
  8
1
 62
7
  6
CONTINUOUS
 10
132.800000
 20
175.500000
 11
133.500000
 21
175.500000
  0
LINE
  8
1
 62
7
  6
CONTINUOUS
 10
134.500000
 20
174.500000
 11
134.500000
 21
173.800000
  0
LINE
  8
1
 62
7
  6
CONTINUOUS
 10
135.500000
 20
178.200000
 11
135.500000
 21
177.500000
  0
LINE
  8
1
 62
7
  6
CONTINUOUS
 10
134.500000
 20
173.800000
 11
135.500000
 21
173.800000
  0
LINE
  8
1
 62
7
  6
CONTINUOUS
 10
134.500000
 20
178.200000
 11
134.500000
 21
177.500000
  0
LINE
  8
1
 62
7
  6
CONTINUOUS
 10
135.500000
 20
174.500000
 11
135.500000
 21
173.800000
  0
LINE
  8
1
 62
7
  6
CONTINUOUS
 10
137.200000
 20
176.500000
 11
136.500000
 21
176.500000
  0
LINE
  8
1
 62
7
  6
CONTINUOUS
 10
137.200000
 20
176.500000
 11
137.200000
 21
175.500000
  0
LINE
  8
1
 62
7
  6
CONTINUOUS
 10
132.800000
 20
176.500000
 11
133.500000
 21
176.500000
  0
LINE
  8
1
 62
7
  6
CONTINUOUS
 10
134.500000
 20
178.200000
 11
135.500000
 21
178.200000
  0
LINE
  8
1
 62
7
  6
CONTINUOUS
 10
132.796200
 20
176.505600
 11
132.796200
 21
175.505600
  0
LINE
  8
1
 62
7
  6
CONTINUOUS
 10
198.796200
 20
242.505600
 11
198.796200
 21
241.505600
  0
LINE
  8
1
 62
7
  6
CONTINUOUS
 10
200.500000
 20
244.200000
 11
201.500000
 21
244.200000
  0
LINE
  8
1
 62
7
  6
CONTINUOUS
 10
198.800000
 20
242.500000
 11
199.500000
 21
242.500000
  0
LINE
  8
1
 62
7
  6
CONTINUOUS
 10
203.200000
 20
242.500000
 11
203.200000
 21
241.500000
  0
LINE
  8
1
 62
7
  6
CONTINUOUS
 10
203.200000
 20
242.500000
 11
202.500000
 21
242.500000
  0
LINE
  8
1
 62
7
  6
CONTINUOUS
 10
201.500000
 20
240.500000
 11
201.500000
 21
239.800000
  0
LINE
  8
1
 62
7
  6
CONTINUOUS
 10
200.500000
 20
244.200000
 11
200.500000
 21
243.500000
  0
LINE
  8
1
 62
7
  6
CONTINUOUS
 10
200.500000
 20
239.800000
 11
201.500000
 21
239.800000
  0
LINE
  8
1
 62
7
  6
CONTINUOUS
 10
201.500000
 20
244.200000
 11
201.500000
 21
243.500000
  0
LINE
  8
1
 62
7
  6
CONTINUOUS
 10
200.500000
 20
240.500000
 11
200.500000
 21
239.800000
  0
LINE
  8
1
 62
7
  6
CONTINUOUS
 10
135.000000
 20
246.000000
 11
201.000000
 21
246.000000
  0
LINE
  8
1
 62
7
  6
CONTINUOUS
 10
205.000000
 20
242.000000
 11
205.000000
 21
176.000000
  0
LINE
  8
1
 62
7
  6
CONTINUOUS
 10
198.800000
 20
241.500000
 11
199.500000
 21
241.500000
  0
LINE
  8
1
 62
7
  6
CONTINUOUS
 10
138.000000
 20
181.500000
 11
198.000000
 21
181.500000
  0
LINE
  8
1
 62
7
  6
CONTINUOUS
 10
203.200000
 20
241.500000
 11
202.500000
 21
241.500000
  0
LINE
  8
1
 62
7
  6
CONTINUOUS
 10
203.200000
 20
175.500000
 11
202.500000
 21
175.500000
  0
LINE
  8
1
 62
7
  6
CONTINUOUS
 10
198.800000
 20
175.500000
 11
199.500000
 21
175.500000
  0
LINE
  8
1
 62
7
  6
CONTINUOUS
 10
131.000000
 20
187.200000
 11
131.000000
 21
176.000000
  0
LINE
  8
1
 62
7
  6
CONTINUOUS
 10
200.500000
 20
174.500000
 11
200.500000
 21
173.800000
  0
LINE
  8
1
 62
7
  6
CONTINUOUS
 10
134.500000
 20
240.500000
 11
134.500000
 21
239.800000
  0
LINE
  8
1
 62
7
  6
CONTINUOUS
 10
201.500000
 20
178.200000
 11
201.500000
 21
177.500000
  0
LINE
  8
1
 62
7
  6
CONTINUOUS
 10
132.800000
 20
241.500000
 11
133.500000
 21
241.500000
  0
LINE
  8
1
 62
7
  6
CONTINUOUS
 10
137.200000
 20
241.500000
 11
136.500000
 21
241.500000
  0
LINE
  8
1
 62
7
  6
CONTINUOUS
 10
135.000000
 20
172.000000
 11
201.000000
 21
172.000000
  0
LINE
  8
1
 62
7
  6
CONTINUOUS
 10
200.500000
 20
173.800000
 11
201.500000
 21
173.800000
  0
LINE
  8
1
 62
7
  6
CONTINUOUS
 10
200.500000
 20
178.200000
 11
200.500000
 21
177.500000
  0
LINE
  8
1
 62
7
  6
CONTINUOUS
 10
164.437600
 20
246.400000
 11
164.437600
 21
255.000000
  0
LINE
  8
1
 62
7
  6
CONTINUOUS
 10
130.000000
 20
204.145600
 11
119.000000
 21
204.145600
  0
LINE
  8
1
 62
7
  6
CONTINUOUS
 10
130.000000
 20
178.145600
 11
119.000000
 21
178.145600
  0
LINE
  8
1
 62
7
  6
CONTINUOUS
 10
158.006400
 20
260.000000
 11
158.006400
 21
255.000000
  0
LINE
  8
1
 62
7
  6
CONTINUOUS
 10
164.252400
 20
260.000000
 11
164.252400
 21
255.000000
  0
LINE
  8
1
 62
7
  6
CONTINUOUS
 10
160.504800
 20
260.000000
 11
160.504800
 21
255.000000
  0
LINE
  8
1
 62
7
  6
CONTINUOUS
 10
161.754000
 20
260.000000
 11
161.754000
 21
255.000000
  0
LINE
  8
1
 62
7
  6
CONTINUOUS
 10
163.003200
 20
260.000000
 11
163.003200
 21
255.000000
  0
LINE
  8
1
 62
7
  6
CONTINUOUS
 10
201.500000
 20
174.500000
 11
201.500000
 21
173.800000
  0
LINE
  8
1
 62
7
  6
CONTINUOUS
 10
165.501600
 20
260.000000
 11
165.501600
 21
255.000000
  0
LINE
  8
1
 62
7
  6
CONTINUOUS
 10
159.255600
 20
260.000000
 11
159.255600
 21
255.000000
  0
LINE
  8
1
 62
7
  6
CONTINUOUS
 10
166.750800
 20
260.000000
 11
166.750800
 21
255.000000
  0
LINE
  8
1
 62
7
  6
CONTINUOUS
 10
176.744600
 20
260.000000
 11
176.744600
 21
255.000000
  0
LINE
  8
1
 62
7
  6
CONTINUOUS
 10
134.500000
 20
239.800000
 11
135.500000
 21
239.800000
  0
LINE
  8
1
 62
7
  6
CONTINUOUS
 10
134.500000
 20
244.200000
 11
135.500000
 21
244.200000
  0
LINE
  8
1
 62
7
  6
CONTINUOUS
 10
132.796200
 20
242.505600
 11
132.796200
 21
241.505600
  0
LINE
  8
1
 62
7
  6
CONTINUOUS
 10
203.200000
 20
176.500000
 11
202.500000
 21
176.500000
  0
LINE
  8
1
 62
7
  6
CONTINUOUS
 10
134.500000
 20
244.200000
 11
134.500000
 21
243.500000
  0
LINE
  8
1
 62
7
  6
CONTINUOUS
 10
132.800000
 20
242.500000
 11
133.500000
 21
242.500000
  0
LINE
  8
1
 62
7
  6
CONTINUOUS
 10
135.500000
 20
244.200000
 11
135.500000
 21
243.500000
  0
LINE
  8
1
 62
7
  6
CONTINUOUS
 10
137.200000
 20
242.500000
 11
137.200000
 21
241.500000
  0
LINE
  8
1
 62
7
  6
CONTINUOUS
 10
203.200000
 20
176.500000
 11
203.200000
 21
175.500000
  0
LINE
  8
1
 62
7
  6
CONTINUOUS
 10
198.800000
 20
176.500000
 11
199.500000
 21
176.500000
  0
LINE
  8
1
 62
7
  6
CONTINUOUS
 10
200.500000
 20
178.200000
 11
201.500000
 21
178.200000
  0
LINE
  8
1
 62
7
  6
CONTINUOUS
 10
135.000000
 20
172.000000
 11
201.000000
 21
172.000000
  0
LINE
  8
1
 62
7
  6
CONTINUOUS
 10
137.200000
 20
242.500000
 11
136.500000
 21
242.500000
  0
LINE
  8
1
 62
7
  6
CONTINUOUS
 10
135.500000
 20
240.500000
 11
135.500000
 21
239.800000
  0
LINE
  8
1
 62
7
  6
CONTINUOUS
 10
138.000000
 20
236.000000
 11
138.000000
 21
181.500000
  0
LINE
  8
1
 62
7
  6
CONTINUOUS
 10
138.000000
 20
236.000000
 11
198.000000
 21
236.000000
  0
LINE
  8
1
 62
7
  6
CONTINUOUS
 10
198.000000
 20
236.000000
 11
198.000000
 21
181.500000
  0
LINE
  8
1
 62
7
  6
CONTINUOUS
 10
162.000000
 20
280.000000
 11
174.000000
 21
280.000000
  0
LINE
  8
1
 62
7
  6
CONTINUOUS
 10
140.500000
 20
169.500000
 11
195.500000
 21
169.500000
  0
LINE
  8
1
 62
7
  6
CONTINUOUS
 10
178.000000
 20
276.000000
 11
178.000000
 21
262.000000
  0
LINE
  8
1
 62
7
  6
CONTINUOUS
 10
152.000000
 20
258.000000
 11
184.000000
 21
258.000000
  0
LINE
  8
1
 62
7
  6
CONTINUOUS
 10
158.000000
 20
276.000000
 11
158.000000
 21
262.000000
  0
LINE
  8
1
 62
7
  6
CONTINUOUS
 10
187.000000
 20
255.000000
 11
187.000000
 21
246.400000
  0
LINE
  8
1
 62
7
  6
CONTINUOUS
 10
149.000000
 20
255.000000
 11
149.000000
 21
246.400000
  0
LINE
  8
1
 62
7
  6
CONTINUOUS
 10
158.000000
 20
249.000000
 11
158.000000
 21
246.400000
  0
LINE
  8
1
 62
7
  6
CONTINUOUS
 10
149.000000
 20
246.400000
 11
187.000000
 21
246.400000
  0
LINE
  8
1
 62
7
  6
CONTINUOUS
 10
178.000000
 20
249.000000
 11
178.000000
 21
246.400000
  0
LINE
  8
1
 62
7
  6
CONTINUOUS
 10
149.000000
 20
250.000000
 11
157.000000
 21
250.000000
  0
LINE
  8
1
 62
7
  6
CONTINUOUS
 10
185.000000
 20
250.000000
 11
185.000000
 21
246.400000
  0
LINE
  8
1
 62
7
  6
CONTINUOUS
 10
179.000000
 20
250.000000
 11
187.000000
 21
250.000000
  0
LINE
  8
1
 62
7
  6
CONTINUOUS
 10
183.000000
 20
250.000000
 11
183.000000
 21
246.400000
  0
LINE
  8
1
 62
7
  6
CONTINUOUS
 10
153.000000
 20
250.000000
 11
153.000000
 21
246.400000
  0
LINE
  8
1
 62
7
  6
CONTINUOUS
 10
151.000000
 20
250.000000
 11
151.000000
 21
246.400000
  0
LINE
  8
1
 62
7
  6
CONTINUOUS
 10
193.948600
 20
169.500000
 11
193.948600
 21
172.000000
  0
LINE
  8
1
 62
7
  6
CONTINUOUS
 10
194.448600
 20
169.500000
 11
194.448600
 21
172.000000
  0
LINE
  8
1
 62
7
  6
CONTINUOUS
 10
194.948600
 20
169.500000
 11
194.948600
 21
172.000000
  0
LINE
  8
1
 62
7
  6
CONTINUOUS
 10
195.448600
 20
169.500000
 11
195.448600
 21
172.000000
  0
LINE
  8
1
 62
7
  6
CONTINUOUS
 10
195.948600
 20
170.848400
 11
195.948600
 21
172.000000
  0
LINE
  8
1
 62
7
  6
CONTINUOUS
 10
196.448600
 20
171.000000
 11
196.448600
 21
172.000000
  0
LINE
  8
1
 62
7
  6
CONTINUOUS
 10
201.448600
 20
171.000000
 11
201.448600
 21
172.000000
  0
LINE
  8
1
 62
7
  6
CONTINUOUS
 10
200.948600
 20
171.000000
 11
200.948600
 21
172.000000
  0
LINE
  8
1
 62
7
  6
CONTINUOUS
 10
200.448600
 20
171.000000
 11
200.448600
 21
172.000000
  0
LINE
  8
1
 62
7
  6
CONTINUOUS
 10
199.948600
 20
171.000000
 11
199.948600
 21
172.000000
  0
LINE
  8
1
 62
7
  6
CONTINUOUS
 10
196.948600
 20
171.000000
 11
196.948600
 21
172.000000
  0
LINE
  8
1
 62
7
  6
DASHDOT
 10
197.698600
 20
171.000000
 11
197.698600
 21
172.340600
  0
LINE
  8
1
 62
7
  6
CONTINUOUS
 10
201.948600
 20
171.000000
 11
201.948600
 21
172.000000
  0
LINE
  8
1
 62
7
  6
CONTINUOUS
 10
198.948600
 20
171.000000
 11
198.948600
 21
172.000000
  0
LINE
  8
1
 62
7
  6
CONTINUOUS
 10
197.948600
 20
171.000000
 11
197.948600
 21
172.000000
  0
LINE
  8
1
 62
7
  6
CONTINUOUS
 10
199.448600
 20
171.000000
 11
199.448600
 21
172.000000
  0
LINE
  8
1
 62
7
  6
CONTINUOUS
 10
193.448600
 20
169.500000
 11
193.448600
 21
172.000000
  0
LINE
  8
1
 62
7
  6
CONTINUOUS
 10
197.448600
 20
171.000000
 11
197.448600
 21
172.000000
  0
LINE
  8
1
 62
7
  6
CONTINUOUS
 10
198.448600
 20
171.000000
 11
198.448600
 21
172.000000
  0
LINE
  8
1
 62
7
  6
CONTINUOUS
 10
139.551600
 20
171.000000
 11
139.551600
 21
172.000000
  0
LINE
  8
1
 62
7
  6
CONTINUOUS
 10
140.051600
 20
170.848400
 11
140.051600
 21
172.000000
  0
LINE
  8
1
 62
7
  6
CONTINUOUS
 10
140.551600
 20
169.500000
 11
140.551600
 21
172.000000
  0
LINE
  8
1
 62
7
  6
CONTINUOUS
 10
141.051600
 20
169.500000
 11
141.051600
 21
172.000000
  0
LINE
  8
1
 62
7
  6
CONTINUOUS
 10
141.551600
 20
169.500000
 11
141.551600
 21
172.000000
  0
LINE
  8
1
 62
7
  6
CONTINUOUS
 10
142.051600
 20
169.500000
 11
142.051600
 21
172.000000
  0
LINE
  8
1
 62
7
  6
CONTINUOUS
 10
142.551600
 20
169.500000
 11
142.551600
 21
172.000000
  0
LINE
  8
1
 62
7
  6
CONTINUOUS
 10
134.551600
 20
171.000000
 11
134.551600
 21
172.000000
  0
LINE
  8
1
 62
7
  6
CONTINUOUS
 10
135.051600
 20
171.000000
 11
135.051600
 21
172.000000
  0
LINE
  8
1
 62
7
  6
CONTINUOUS
 10
135.551600
 20
171.000000
 11
135.551600
 21
172.000000
  0
LINE
  8
1
 62
7
  6
CONTINUOUS
 10
136.051600
 20
171.000000
 11
136.051600
 21
172.000000
  0
LINE
  8
1
 62
7
  6
CONTINUOUS
 10
139.051600
 20
171.000000
 11
139.051600
 21
172.000000
  0
LINE
  8
1
 62
7
  6
DASHDOT
 10
138.301600
 20
171.000000
 11
138.301600
 21
172.340600
  0
LINE
  8
1
 62
7
  6
CONTINUOUS
 10
134.051600
 20
171.000000
 11
134.051600
 21
172.000000
  0
LINE
  8
1
 62
7
  6
CONTINUOUS
 10
137.051600
 20
171.000000
 11
137.051600
 21
172.000000
  0
LINE
  8
1
 62
7
  6
CONTINUOUS
 10
138.051600
 20
171.000000
 11
138.051600
 21
172.000000
  0
LINE
  8
1
 62
7
  6
CONTINUOUS
 10
136.551600
 20
171.000000
 11
136.551600
 21
172.000000
  0
LINE
  8
1
 62
7
  6
CONTINUOUS
 10
142.551600
 20
169.500000
 11
142.551600
 21
172.000000
  0
LINE
  8
1
 62
7
  6
CONTINUOUS
 10
138.551600
 20
171.000000
 11
138.551600
 21
172.000000
  0
LINE
  8
1
 62
7
  6
CONTINUOUS
 10
137.551600
 20
171.000000
 11
137.551600
 21
172.000000
  0
LINE
  8
1
 62
7
  6
CONTINUOUS
 10
118.000000
 20
179.145600
 11
118.000000
 21
203.145600
  0
LINE
  8
1
 62
7
  6
CONTINUOUS
 10
111.896600
 20
201.519200
 11
111.884600
 21
185.613000
  0
LINE
  8
1
 62
7
  6
CONTINUOUS
 10
112.835800
 20
203.142800
 11
114.898000
 21
203.141200
  0
LINE
  8
1
 62
7
  6
CONTINUOUS
 10
116.396600
 20
201.493200
 11
116.381600
 21
181.481000
  0
LINE
  8
1
 62
7
  6
CONTINUOUS
 10
114.881800
 20
181.816800
 11
116.381800
 21
181.815800
  0
LINE
  8
1
 62
7
  6
CONTINUOUS
 10
114.898000
 20
203.141200
 11
114.881200
 21
181.061000
  0
LINE
  8
1
 62
7
  6
CONTINUOUS
 10
112.817400
 20
178.894000
 11
114.879600
 21
178.892400
  0
LINE
  8
1
 62
7
  6
CONTINUOUS
 10
198.796200
 20
176.505600
 11
198.796200
 21
175.505600
  0
LINE
  8
1
 62
7
  6
CONTINUOUS
 10
111.880800
 20
180.519200
 11
112.817400
 21
178.894000
  0
LINE
  8
1
 62
7
  6
CONTINUOUS
 10
114.895800
 20
200.216800
 11
116.395800
 21
200.215800
  0
LINE
  8
1
 62
7
  6
CONTINUOUS
 10
111.896600
 20
201.519200
 11
112.835800
 21
203.142800
  0
LINE
  8
1
 62
7
  6
CONTINUOUS
 10
112.998000
 20
184.944000
 11
114.884200
 21
184.942400
  0
LINE
  8
1
 62
7
  6
CONTINUOUS
 10
116.380800
 20
180.538200
 11
118.000000
 21
180.537000
  0
LINE
  8
1
 62
7
  6
CONTINUOUS
 10
116.396600
 20
201.493200
 11
118.000000
 21
201.492000
  0
LINE
  8
1
 62
7
  6
CONTINUOUS
 10
116.381600
 20
181.700200
 11
118.000000
 21
181.699000
  0
LINE
  8
1
 62
7
  6
CONTINUOUS
 10
116.381800
 20
181.815800
 11
116.380800
 21
180.538200
  0
LINE
  8
1
 62
7
  6
CONTINUOUS
 10
116.395800
 20
200.331200
 11
118.000000
 21
200.330000
  0
LINE
  8
1
 62
7
  6
CONTINUOUS
 10
114.881800
 20
181.816800
 11
114.879600
 21
178.892400
  0
LINE
  8
1
 62
7
  6
CONTINUOUS
 10
100.885800
 20
187.227400
 11
111.885800
 21
187.219200
  0
LINE
  8
1
 62
7
  6
CONTINUOUS
 10
100.891600
 20
194.827400
 11
111.891600
 21
194.819200
  0
LINE
  8
1
 62
7
  6
CONTINUOUS
 10
112.998000
 20
197.092600
 11
114.893400
 21
197.091200
  0
LINE
  8
1
 62
7
  6
CONTINUOUS
 10
111.885800
 20
187.219200
 11
111.880800
 21
180.519200
  0
LINE
  8
1
 62
7
  6
CONTINUOUS
 10
168.000000
 20
268.000000
 11
168.000000
 21
277.000000
  0
LINE
  8
1
 62
7
  6
CONTINUOUS
 10
168.000000
 20
260.000000
 11
168.000000
 21
255.000000
  0
LINE
  8
1
 62
7
  6
CONTINUOUS
 10
168.000000
 20
246.400000
 11
168.000000
 21
255.000000
  0
LINE
  8
1
 62
7
  6
CONTINUOUS
 10
174.246200
 20
260.000000
 11
174.246200
 21
255.000000
  0
LINE
  8
1
 62
7
  6
CONTINUOUS
 10
134.459000
 20
110.000000
 11
133.500000
 21
110.000000
  0
LINE
  8
1
 62
7
  6
CONTINUOUS
 10
168.000000
 20
155.000000
 11
97.000000
 21
155.000000
  0
LINE
  8
1
 62
7
  6
CONTINUOUS
 10
168.000000
 20
165.000000
 11
98.000000
 21
165.000000
  0
LINE
  8
1
 62
7
  6
CONTINUOUS
 10
133.000000
 20
165.000000
 11
133.000000
 21
170.400000
  0
LINE
  8
1
 62
7
  6
CONTINUOUS
 10
203.000000
 20
165.000000
 11
203.000000
 21
170.400000
  0
ENDSEC
  0
EOF
